  0
SECTION
  2
HEADER
  9
$ACADVER
  1
AC1009
  9
$INSBASE
 10
0
 20
0
 30
0
  9
$EXTMIN
 10
0
 20
0
  9
$EXTMAX
 10
420
 20
297
  9
$LIMMIN
 10
0
 20
0
  9
$LIMMAX
 10
420
 20
297
  9
$LTSCALE
 40
1
  0
ENDSEC
  0
SECTION
  2
TABLES
  0
TABLE
  2
LTYPE
 70
     9
  0
LTYPE
  2
CONTINUOUS
 70
    64
  3
実線
 72
    65
 73
     0
 40
0.0
  0
LTYPE
  2
DASHED1
 70
    64
  3
--  --  --  --  --  --  --  --  
 72
    65
 73
     2
 40
2.5
 49
1.25
 49
-1.25
  0
LTYPE
  2
DASHED2
 70
    64
  3
----    ----    ----    ----    
 72
    65
 73
     2
 40
5.0
 49
2.5
 49
-2.5
  0
LTYPE
  2
DASHED3
 70
    64
  3
------  ------  ------  ------  
 72
    65
 73
     2
 40
5.0
 49
3.75
 49
-1.25
  0
LTYPE
  2
CENTER1
 70
    64
  3
----- - ----- - ----- - ----- - 
 72
    65
 73
     4
 40
10.0
 49
6.25
 49
-1.25
 49
1.25
 49
-1.25
  0
LTYPE
  2
CENTER2
 70
    64
  3
----------  --  ----------  --  
 72
    65
 73
     4
 40
20.0
 49
12.5
 49
-2.5
 49
2.5
 49
-2.5
  0
LTYPE
  2
PHANTOM1
 70
    64
  3
--- - - --- - - --- - - --- - - 
 72
    65
 73
     6
 40
10.0
 49
3.25
 49
-1.25
 49
1.25
 49
-1.25
 49
1.25
 49
-1.25
  0
LTYPE
  2
PHANTOM2
 70
    64
  3
--------  -  -  --------  -  -  
 72
    65
 73
     6
 40
20.0
 49
10.0
 49
-2.5
 49
1.25
 49
-2.5
 49
1.25
 49
-2.5
  0
LTYPE
  2
DOT
 70
    64
  3
-   -   -   -   -   -   -   -   
 72
    65
 73
     2
 40
2.5
 49
0.625
 49
-1.875
  0
LTYPE
  2
DUMMY
 70
    64
  3
ダミー
 72
    65
 73
     0
 40
0.0
  0
LTYPE
  2
RAND1
 70
    64
  3
ランダム線1
 72
    65
 73
     4
 40
10.0
 49
1.0
 49
-2.0
 49
3.0
 49
-4.0
  0
LTYPE
  2
RAND2
 70
    64
  3
ランダム線2
 72
    65
 73
     4
 40
14.0
 49
2.0
 49
-3.0
 49
4.0
 49
-5.0
  0
LTYPE
  2
RAND3
 70
    64
  3
ランダム線3
 72
    65
 73
     4
 40
18.0
 49
3.0
 49
-4.0
 49
5.0
 49
-6.0
  0
LTYPE
  2
RAND4
 70
    64
  3
ランダム線4
 72
    65
 73
     4
 40
22.0
 49
4.0
 49
-5.0
 49
6.0
 49
-7.0
  0
LTYPE
  2
RAND5
 70
    64
  3
ランダム線5
 72
    65
 73
     4
 40
26.0
 49
5.0
 49
-6.0
 49
7.0
 49
-8.0
  0
LTYPE
  2
LONG1
 70
    64
  3
----------  --  ----------  --  
 72
    65
 73
     4
 40
40.0
 49
32.5
 49
-2.5
 49
2.5
 49
-2.5
  0
LTYPE
  2
LONG2
 70
    64
  3
--------  -  -  --------  -  -  
 72
    65
 73
     6
 40
40.0
 49
30.0
 49
-2.5
 49
1.25
 49
-2.5
 49
1.25
 49
-2.5
  0
LTYPE
  2
LONG3
 70
    64
  3
+++++++++++++++..+++++++++++++++
 72
    65
 73
     2
 40
40.0
 49
37.5
 49
-2.5
  0
LTYPE
  2
LONG4
 70
    64
  3
+++++++++++++++..+++++++++++++++
 72
    65
 73
     2
 40
80.0
 49
75.0
 49
-5.0
  0
LTYPE
  2
LONG5
 70
    64
  3
----------  --  ----------  --  
 72
    65
 73
     4
 40
60.0
 49
37.5
 49
-7.5
 49
7.5
 49
-7.5
  0
LTYPE
  2
dashed
 70
   64
  3
-------   -------------   ------
 72
   65
 73
    2
 40
7.5
 49
6
 49
-1.5
  0
LTYPE
  2
dashed_spaced
 70
   64
  3
----        --------        ----
 72
   65
 73
    2
 40
12
 49
6
 49
-6
  0
LTYPE
  2
long_dashed_dotted
 70
   64
  3
------------- --- --------------
 72
   65
 73
    4
 40
15.25
 49
12
 49
-1.5
 49
0.25
 49
-1.5
  0
LTYPE
  2
long_dashed_double-dotted
 70
   64
  3
----------- --- --- ------------
 72
   65
 73
    6
 40
17
 49
12
 49
-1.5
 49
0.25
 49
-1.5
 49
0.25
 49
-1.5
  0
LTYPE
  2
long_dashed_triplicate-dotted
 70
   64
  3
--------- --- --- --- ----------
 72
   65
 73
    8
 40
18.75
 49
12
 49
-1.5
 49
0.25
 49
-1.5
 49
0.25
 49
-1.5
 49
0.25
 49
-1.5
  0
LTYPE
  2
dotted
 70
   64
  3
   -       -       -       -    
 72
   65
 73
    2
 40
1.75
 49
0.25
 49
-1.5
  0
LTYPE
  2
chain
 70
   64
  3
-------------- -- --------------
 72
   65
 73
    4
 40
18.5
 49
12
 49
-1.5
 49
3.5
 49
-1.5
  0
LTYPE
  2
chain_double_dash
 70
   64
  3
------------ -- -- -------------
 72
   65
 73
    6
 40
23.5
 49
12
 49
-1.5
 49
3.5
 49
-1.5
 49
3.5
 49
-1.5
  0
LTYPE
  2
dashed_dotted
 70
   64
  3
-----------     -     ----------
 72
   65
 73
    4
 40
9.25
 49
6
 49
-1.5
 49
0.25
 49
-1.5
  0
LTYPE
  2
double-dashed_dotted
 70
   64
  3
------   -----------   -   -----
 72
   65
 73
    6
 40
16.75
 49
6
 49
-1.5
 49
6
 49
-1.5
 49
0.25
 49
-1.5
  0
LTYPE
  2
dashed_double-dotted
 70
   64
  3
---------    -    -    ---------
 72
   65
 73
    6
 40
11
 49
6
 49
-1.5
 49
0.25
 49
-1.5
 49
0.25
 49
-1.5
  0
LTYPE
  2
double-dashed_double-dotted
 70
   64
  3
-----   ---------   -   -   ----
 72
   65
 73
    8
 40
18.5
 49
6
 49
-1.5
 49
6
 49
-1.5
 49
0.25
 49
-1.5
 49
0.25
 49
-1.5
  0
LTYPE
  2
dashed_triplicate-dotted
 70
   64
  3
-------    -    -    -    ------
 72
   65
 73
    8
 40
12.75
 49
6
 49
-1.5
 49
0.25
 49
-1.5
 49
0.25
 49
-1.5
 49
0.25
 49
-1.5
  0
LTYPE
  2
double-dashed_triplicate-dotted
 70
   64
  3
-----  ---------  -  -  -  -----
 72
   65
 73
   10
 40
20.25
 49
6
 49
-1.5
 49
6
 49
-1.5
 49
0.25
 49
-1.5
 49
0.25
 49
-1.5
 49
0.25
 49
-1.5
  0
LTYPE
  2
undefined
 70
   64
  3
--------------------------------
 72
   65
 73
    0
 40
0
  0
ENDTAB
  0
TABLE
  2
STYLE
  5
3
100
AcDbSymbolTable
 70
     1
  0
STYLE
  5
10
100
AcDbSymbolTableRecord
100
AcDbTextStyleTableRecord
  2
STANDARD
 70
     0
 40
0.0
 41
1.0
 50
0.0
 71
     0
 42
0.2
  3
txt
  4
bigfont.shx
  0
STYLE
  5
26
100
AcDbSymbolTableRecord
100
AcDbTextStyleTableRecord
  2
TATEGAKI
 70
    68
 40
0.0
 41
1.0
 50
0.0
 71
     0
 42
1.0
  3
txt
  4
bigfont.shx
  0
ENDTAB
  0
TABLE
  2
LAYER
 70
    9
  0
LAYER
  2
_0-0_
 70
   64
 62
    7
  6
CONTINUOUS
  0
LAYER
  2
_0-1_
 70
   64
 62
    7
  6
CONTINUOUS
  0
LAYER
  2
_1-0_
 70
   64
 62
    7
  6
CONTINUOUS
  0
LAYER
  2
_1-1_
 70
   64
 62
    7
  6
CONTINUOUS
  0
LAYER
  2
_1-2_
 70
   64
 62
    7
  6
CONTINUOUS
  0
LAYER
  2
_1-3_
 70
   64
 62
    7
  6
CONTINUOUS
  0
LAYER
  2
_1-4_
 70
   64
 62
    7
  6
CONTINUOUS
  0
LAYER
  2
_1-5_
 70
   64
 62
    7
  6
CONTINUOUS
  0
LAYER
  2
ADD_LINE
 70
   64
 62
    7
  6
CONTINUOUS
  0
ENDTAB
  0
ENDSEC
  0
SECTION
  2
BLOCKS
  0
ENDSEC
  0
SECTION
  2
ENTITIES
  0
LINE
  8
_1-5_
  6
DASHED1
 62
    7
 10
191.79275925095018
 20
187.93713956265836
 11
192.50250326620568
 21
187.82412142366977
  0
LINE
  8
_1-5_
  6
DASHED1
 62
    7
 10
192.50250326620568
 20
187.82412142366977
 11
191.97880925358953
 21
187.36671653953761
  0
LINE
  8
_1-5_
  6
DASHED1
 62
    7
 10
216.59852723817568
 20
187.23233197186445
 11
216.18636672561234
 21
187.69597233952703
  0
LINE
  8
_1-5_
  6
DASHED1
 62
    7
 10
216.18636672561234
 20
187.69597233952703
 11
216.78457724081505
 21
187.80275499498524
  0
LINE
  8
_1-5_
  6
DASHED1
 62
    7
 10
186.62151439769849
 20
186.25047838365711
 11
191.79275925095018
 21
187.93713956265836
  0
LINE
  8
_1-5_
  6
DASHED1
 62
    7
 10
186.80756440033784
 20
185.68005536053633
 11
191.97880925358953
 21
187.36671653953761
  0
LINE
  8
_1-5_
  6
DASHED1
 62
    7
 10
187.00180466110643
 20
186.37450759475297
 11
187.18785466374578
 21
185.80408457163219
  0
LINE
  8
_1-5_
  6
DASHED1
 62
    7
 10
187.38208255252323
 20
186.49853680584883
 11
187.56813255516261
 21
185.92811378272805
  0
LINE
  8
_1-5_
  6
DASHED1
 62
    7
 10
187.76236044394005
 20
186.62256601694469
 11
187.9484104465794
 21
186.05214299382391
  0
LINE
  8
_1-5_
  6
DASHED1
 62
    7
 10
188.14263833535685
 20
186.74659522804055
 11
188.3286883379962
 21
186.17617220491977
  0
LINE
  8
_1-5_
  6
DASHED1
 62
    7
 10
188.52291622677365
 20
186.87062443913641
 11
188.70896622941302
 21
186.30020141601562
  0
LINE
  8
_1-5_
  6
DASHED1
 62
    7
 10
188.90319411819047
 20
186.99465365023227
 11
189.08924412082982
 21
186.42423062711148
  0
LINE
  8
_1-5_
  6
DASHED1
 62
    7
 10
189.28347200960727
 20
187.11868286132812
 11
189.46952201224664
 21
186.54825983820737
  0
LINE
  8
_1-5_
  6
DASHED1
 62
    7
 10
189.66374990102409
 20
187.24271207242398
 11
189.84979990366344
 21
186.67228904930323
  0
LINE
  8
_1-5_
  6
DASHED1
 62
    7
 10
190.04402779244089
 20
187.36674128351987
 11
190.23007779508023
 21
186.79631826039909
  0
LINE
  8
_1-5_
  6
DASHED1
 62
    7
 10
190.42430568385771
 20
187.49077049461573
 11
190.61035568649706
 21
186.92034747149495
  0
LINE
  8
_1-5_
  6
DASHED1
 62
    7
 10
190.80458357527451
 20
187.61479970571159
 11
190.99063357791385
 21
187.04437668259081
  0
LINE
  8
_1-5_
  6
DASHED1
 62
    7
 10
191.1848614666913
 20
187.73882891680745
 11
191.37091146933068
 21
187.16840589368667
  0
LINE
  8
_1-5_
  6
DASHED1
 62
    7
 10
191.56513935810813
 20
187.86285812790331
 11
191.75118936074747
 21
187.29243510478253
  0
LINE
  8
_1-5_
  6
DASHED1
 62
    7
 10
221.60039953283362
 20
186.23203174487966
 11
221.41432478621201
 21
185.66160872175888
  0
LINE
  8
_1-5_
  6
DASHED1
 62
    7
 10
221.22010926942568
 20
186.35608569995779
 11
221.03403452280406
 21
185.78566267683701
  0
LINE
  8
_1-5_
  6
DASHED1
 62
    7
 10
220.83981900601776
 20
186.48013965503591
 11
220.65374425939612
 21
185.90971663191513
  0
LINE
  8
_1-5_
  6
DASHED1
 62
    7
 10
220.45952874260982
 20
186.60419361011404
 11
220.27345399598818
 21
186.03377058699326
  0
LINE
  8
_1-5_
  6
DASHED1
 62
    7
 10
220.07923847920188
 20
186.72824756519216
 11
219.89316373258026
 21
186.15782454207138
  0
LINE
  8
_1-5_
  6
DASHED1
 62
    7
 10
219.69894821579393
 20
186.85230152027029
 11
219.51287346917232
 21
186.28187849714951
  0
LINE
  8
_1-5_
  6
DASHED1
 62
    7
 10
219.31865795238599
 20
186.97635547534841
 11
219.13258320576438
 21
186.40593245222763
  0
LINE
  8
_1-5_
  6
DASHED1
 62
    7
 10
218.93836768897805
 20
187.10040943042654
 11
218.75229294235643
 21
186.52998640730576
  0
LINE
  8
_1-5_
  6
DASHED1
 62
    7
 10
218.5580774255701
 20
187.22446338550466
 11
218.37200267894849
 21
186.65404036238388
  0
LINE
  8
_1-5_
  6
DASHED1
 62
    7
 10
218.17778716216216
 20
187.34851734058279
 11
217.99171241554055
 21
186.77809431746201
  0
LINE
  8
_1-5_
  6
DASHED1
 62
    7
 10
217.79749689875425
 20
187.47257129566091
 11
217.6114221521326
 21
186.90214827254013
  0
LINE
  8
_1-5_
  6
DASHED1
 62
    7
 10
217.4172066353463
 20
187.59662525073904
 11
217.23113188872466
 21
187.02620222761826
  0
LINE
  8
_1-5_
  6
DASHED1
 62
    7
 10
217.03691637193836
 20
187.72067920581716
 11
216.85084162531675
 21
187.15025618269638
  0
LINE
  8
_1-5_
  6
DASHED1
 62
    7
 10
221.9806650522593
 20
186.1080025337838
 11
216.78457724081505
 21
187.80275499498524
  0
LINE
  8
_1-5_
  6
DASHED1
 62
    7
 10
221.79461504961995
 20
185.53757951066302
 11
216.59852723817568
 21
187.23233197186445
  0
LINE
  8
_1-5_
  6
CONTINUOUS
 62
    7
 10
186.62151439769849
 20
186.25047838365711
 11
185.14422442461995
 21
185.76863881703972
  0
LINE
  8
_1-5_
  6
CONTINUOUS
 62
    7
 10
186.80756440033784
 20
185.68005536053633
 11
185.3302744272593
 21
185.19822816591005
  0
LINE
  8
_1-5_
  6
CONTINUOUS
 62
    7
 10
221.9806650522593
 20
186.1080025337838
 11
223.45795502533784
 21
185.62617533915753
  0
LINE
  8
_1-5_
  6
CONTINUOUS
 62
    7
 10
221.79461504961995
 20
185.53757951066302
 11
223.27190502269849
 21
185.05573994404563
  0
LINE
  8
ADD_LINE
  6
DOT
 62
    7
 10
190.39340045001057
 20
189.42605920740078
 11
194.2251916833826
 21
176.24021375501479
  0
LINE
  8
_1-5_
  6
CONTINUOUS
 62
    7
 10
193.59883488835516
 20
177.32054839263091
 11
193.90819652660474
 21
177.26832621806378
  0
LINE
  8
_1-5_
  6
CONTINUOUS
 62
    7
 10
193.90819652660474
 20
177.26832621806378
 11
194.17499851536107
 21
177.48797854861698
  0
LINE
  8
_1-5_
  6
DASHED1
 62
    7
 10
191.9932844832137
 20
182.8455332163218
 11
193.59883488835516
 21
177.32054839263091
  0
LINE
  8
_1-5_
  6
DASHED1
 62
    7
 10
192.56400443412164
 20
183.03168219489021
 11
194.17499851536107
 21
177.48797854861698
  0
LINE
  8
_1-5_
  6
CONTINUOUS
 62
    7
 10
190.31535792995146
 20
188.61956622149495
 11
190.31807976800044
 21
188.61021299619932
  0
LINE
  8
_1-5_
  6
CONTINUOUS
 62
    7
 10
191.15567593961148
 20
185.72788547825169
 11
191.9932844832137
 21
182.8455332163218
  0
LINE
  8
_1-5_
  6
CONTINUOUS
 62
    7
 10
191.72639589051943
 20
185.9140344568201
 11
192.56400443412164
 21
183.03168219489021
  0
LINE
  8
_1-5_
  6
DASHED1
 62
    7
 10
191.72639589051943
 20
185.91402208482899
 11
190.88878734691724
 21
188.79636197476773
  0
LINE
  8
_1-5_
  6
DASHED1
 62
    7
 10
191.15567593961148
 20
185.72787310626057
 11
190.31807976800044
 21
188.61021299619932
  0
LINE
  8
_1-5_
  6
DASHED1
 62
    7
 10
214.39759950380068
 20
178.06370915593328
 11
214.51112489442568
 21
177.47991201039909
  0
LINE
  8
_1-5_
  6
DASHED1
 62
    7
 10
214.51112489442568
 20
177.47991201039909
 11
214.91717364336995
 21
177.73194184174409
  0
LINE
  8
_1-5_
  6
DASHED1
 62
    7
 10
214.39759950380068
 20
178.06370915593328
 11
216.13108866923565
 21
183.0165265057538
  0
LINE
  8
_1-5_
  6
DASHED1
 62
    7
 10
217.12238208667654
 20
185.84875983160896
 11
218.11365076013516
 21
188.680980785473
  0
LINE
  8
_1-5_
  6
DASHED1
 62
    7
 10
214.91717364336995
 20
177.73194184174409
 11
216.70163541226776
 21
182.83043938714107
  0
LINE
  8
_1-5_
  6
DASHED1
 62
    7
 10
217.69292882970862
 20
185.6626727129962
 11
218.68419750316724
 21
188.49489366686024
  0
LINE
  8
_1-5_
  6
CONTINUOUS
 62
    7
 10
217.12238208667654
 20
185.84875983160896
 11
216.13108866923565
 21
183.0165265057538
  0
LINE
  8
_1-5_
  6
CONTINUOUS
 62
    7
 10
216.70163541226776
 20
182.83043938714107
 11
217.69292882970862
 21
185.6626727129962
  0
LINE
  8
_1-5_
  6
DASHED1
 62
    7
 10
192.07705523516682
 20
182.55726582295188
 11
192.64668645085516
 21
182.74713877085094
  0
LINE
  8
_1-5_
  6
DASHED1
 62
    7
 10
192.41217535895271
 20
181.40406015756969
 11
193.02616016284841
 21
181.6087176348712
  0
LINE
  8
_1-5_
  6
DASHED1
 62
    7
 10
192.20354647249789
 20
182.17779211095862
 11
192.7583931587838
 21
182.36274100638727
  0
LINE
  8
_1-5_
  6
DASHED1
 62
    7
 10
192.33003770982899
 20
181.79831839896539
 11
192.87009986671242
 21
181.97833086993245
  0
LINE
  8
_1-5_
  6
DASHED1
 62
    7
 10
192.52388206688136
 20
181.01966239310602
 11
193.09351328256969
 21
181.20953534100508
  0
LINE
  8
_1-5_
  6
DASHED1
 62
    7
 10
192.63558877480997
 20
180.6352522566512
 11
193.20521999049834
 21
180.82512520455026
  0
LINE
  8
_1-5_
  6
DASHED1
 62
    7
 10
192.74729548273862
 20
180.2508544921875
 11
193.31692669842695
 21
180.44072744008659
  0
LINE
  8
_1-5_
  6
DASHED1
 62
    7
 10
192.85900219066724
 20
179.86645672772383
 11
193.42863340635557
 21
180.05632967562289
  0
LINE
  8
_1-5_
  6
DASHED1
 62
    7
 10
192.97070889859586
 20
179.48204659126901
 11
193.54034011428422
 21
179.67191953916807
  0
LINE
  8
_1-5_
  6
DASHED1
 62
    7
 10
193.08241560652451
 20
179.09764882680534
 11
193.65204682221284
 21
179.2875217747044
  0
LINE
  8
_1-5_
  6
DASHED1
 62
    7
 10
193.19412231445312
 20
178.71325106234164
 11
193.76375353014149
 21
178.90312401024073
  0
LINE
  8
_1-5_
  6
DASHED1
 62
    7
 10
193.30582902238177
 20
178.32884092588682
 11
193.8754602380701
 21
178.51871387378591
  0
LINE
  8
_1-5_
  6
DASHED1
 62
    7
 10
193.41753573031039
 20
177.94444316142315
 11
193.98716694599875
 21
178.13431610932221
  0
LINE
  8
_1-5_
  6
DASHED1
 62
    7
 10
193.52924243823904
 20
177.56004539695948
 11
194.09887365392737
 21
177.74991834485854
  0
LINE
  8
_1-5_
  6
DASHED1
 62
    7
 10
216.12708014410896
 20
183.03816511824326
 11
216.68797673405828
 21
182.82448845940669
  0
LINE
  8
_1-5_
  6
DASHED1
 62
    7
 10
215.55254961993245
 20
181.52223741686024
 11
216.39755661423143
 21
181.24663894240922
  0
LINE
  8
_1-5_
  6
DASHED1
 62
    7
 10
216.2694817620355
 20
183.41196008630703
 11
216.83037835198482
 21
183.19828342747044
  0
LINE
  8
_1-5_
  6
DASHED1
 62
    7
 10
215.99890631598396
 20
182.63889622043919
 11
216.56947780299834
 21
182.45280910182643
  0
LINE
  8
_1-5_
  6
DASHED1
 62
    7
 10
215.86674870671453
 20
182.26125356313347
 11
216.43729544974664
 21
182.0751664445207
  0
LINE
  8
_1-5_
  6
DASHED1
 62
    7
 10
215.73456635346284
 20
181.88362327781886
 11
216.30511309649495
 21
181.69753615920609
  0
LINE
  8
_1-5_
  6
DASHED1
 62
    7
 10
215.60240874419341
 20
181.5059806205131
 11
216.17295548722552
 21
181.31989350190034
  0
LINE
  8
_1-5_
  6
DASHED1
 62
    7
 10
215.47022639094175
 20
181.12833796320737
 11
216.04077313397383
 21
180.94225084459461
  0
LINE
  8
_1-5_
  6
DASHED1
 62
    7
 10
215.33804403769005
 20
180.75070767789273
 11
215.9086155247044
 21
180.56462055928
  0
LINE
  8
_1-5_
  6
DASHED1
 62
    7
 10
215.20588642842063
 20
180.37306502058701
 11
215.77643317145271
 21
180.18697790197425
  0
LINE
  8
_1-5_
  6
DASHED1
 62
    7
 10
215.07370407516893
 20
179.99542236328125
 11
215.64425081820102
 21
179.80933524466852
  0
LINE
  8
_1-5_
  6
DASHED1
 62
    7
 10
214.94152172191724
 20
179.61779207796664
 11
215.51209320893159
 21
179.43170495935391
  0
LINE
  8
_1-5_
  6
DASHED1
 62
    7
 10
214.80936411264781
 20
179.24014942066091
 11
215.37991085567992
 21
179.05406230204815
  0
LINE
  8
_1-5_
  6
DASHED1
 62
    7
 10
214.67718175939612
 20
178.8625191353463
 11
215.2477532464105
 21
178.67643201673354
  0
LINE
  8
_1-5_
  6
DASHED1
 62
    7
 10
214.54499940614443
 20
178.48487647804055
 11
215.1155708931588
 21
178.29878935942779
  0
LINE
  8
_1-5_
  6
DASHED1
 62
    7
 10
214.412841796875
 20
178.10723382073482
 11
214.98338853990711
 21
177.92114670212206
  0
LINE
  8
_1-5_
  6
CONTINUOUS
 62
    7
 10
228.08569830817146
 20
185.12769544446792
 11
234.93661416543497
 21
203.95046749630492
  0
LINE
  8
_1-5_
  6
CONTINUOUS
 62
    7
 10
228.08569830817146
 20
185.12769544446792
 11
224.20213029191302
 21
185.25715595967063
  0
LINE
  8
_1-5_
  6
CONTINUOUS
 62
    7
 10
234.93661416543497
 20
203.95046749630492
 11
236.62954794394005
 21
203.95046749630492
  0
LINE
  8
_1-5_
  6
CONTINUOUS
 62
    7
 10
224.20213029191302
 20
185.25715595967063
 11
225.01083786423143
 21
185.43508993612755
  0
LINE
  8
_1-1_
  6
CONTINUOUS
 62
    7
 10
39.020777521906666
 20
107.14443722286741
 11
37.789677800358959
 21
109.88020613386826
  0
LINE
  8
_1-1_
  6
CONTINUOUS
 62
    7
 10
37.789677800358959
 20
109.88020613386826
 11
42.166925378747891
 21
111.84996321394638
  0
LINE
  8
_1-1_
  6
CONTINUOUS
 62
    7
 10
42.166925378747891
 20
111.84996321394638
 11
43.398012728304479
 21
109.11419430294553
  0
LINE
  8
_1-1_
  6
CONTINUOUS
 62
    7
 10
43.398012728304479
 20
109.11419430294553
 11
39.020777521906666
 21
107.14443722286741
  0
LINE
  8
_1-1_
  6
CONTINUOUS
 62
    7
 10
90.088373132654141
 20
130.12485401050466
 11
88.857285783097552
 21
132.8606229215055
  0
LINE
  8
_1-1_
  6
CONTINUOUS
 62
    7
 10
88.857285783097552
 20
132.8606229215055
 11
93.234520989495365
 21
134.83038000158362
  0
LINE
  8
_1-1_
  6
CONTINUOUS
 62
    7
 10
93.234520989495365
 20
134.83038000158362
 11
94.465608339051954
 21
132.09461109058279
  0
LINE
  8
_1-1_
  6
CONTINUOUS
 62
    7
 10
94.465608339051954
 20
132.09461109058279
 11
90.088373132654141
 21
130.12485401050466
  0
LINE
  8
_1-1_
  6
CONTINUOUS
 62
    7
 10
90.088373132654141
 20
130.12485401050466
 11
93.234520989495365
 21
134.83038000158362
  0
LINE
  8
_1-1_
  6
CONTINUOUS
 62
    7
 10
141.15596874340162
 20
153.10529554212417
 11
139.92488139384503
 21
155.841064453125
  0
LINE
  8
_1-1_
  6
CONTINUOUS
 62
    7
 10
139.92488139384503
 20
155.841064453125
 11
144.30211660024284
 21
157.81080916121201
  0
LINE
  8
_1-1_
  6
CONTINUOUS
 62
    7
 10
144.30211660024284
 20
157.81080916121201
 11
145.53320394979943
 21
155.07504025021115
  0
LINE
  8
_1-1_
  6
CONTINUOUS
 62
    7
 10
145.53320394979943
 20
155.07504025021115
 11
141.15596874340162
 21
153.10529554212417
  0
LINE
  8
_1-1_
  6
CONTINUOUS
 62
    7
 10
141.15596874340162
 20
153.10529554212417
 11
144.30211660024284
 21
157.81080916121201
  0
LINE
  8
_1-1_
  6
CONTINUOUS
 62
    7
 10
192.22356435414909
 20
176.08572470175255
 11
190.9924770045925
 21
178.82149361275339
  0
LINE
  8
_1-1_
  6
CONTINUOUS
 62
    7
 10
190.9924770045925
 20
178.82149361275339
 11
195.36971221099029
 21
180.79123832084039
  0
LINE
  8
_1-1_
  6
CONTINUOUS
 62
    7
 10
195.36971221099029
 20
180.79123832084039
 11
196.60079956054687
 21
178.05546940983953
  0
LINE
  8
_1-1_
  6
CONTINUOUS
 62
    7
 10
196.60079956054687
 20
178.05546940983953
 11
192.22356435414909
 21
176.08572470175255
  0
LINE
  8
_1-1_
  6
CONTINUOUS
 62
    7
 10
192.22356435414909
 20
176.08572470175255
 11
195.36971221099029
 21
180.79123832084039
  0
LINE
  8
_1-2_
  6
CONTINUOUS
 62
    3
 10
41.222125903980157
 20
117.22652126002957
 11
42.550605567725938
 21
117.66827557538008
  0
LINE
  8
_1-2_
  6
CONTINUOUS
 62
    3
 10
39.893200848553647
 20
116.15231075802366
 11
41.104418780352603
 21
116.55506855732686
  0
LINE
  8
_1-2_
  6
CONTINUOUS
 62
    3
 10
41.222125903980157
 20
117.22652126002957
 11
41.104418780352603
 21
116.55506855732686
  0
LINE
  8
_1-2_
  6
CONTINUOUS
 62
    3
 10
39.893200848553647
 20
116.15231075802366
 11
39.512242497624584
 21
114.12874788851352
  0
LINE
  8
_1-2_
  6
CONTINUOUS
 62
    3
 10
42.802103403452293
 20
115.64421782622468
 11
43.181676091374584
 21
115.77043687975085
  0
LINE
  8
_1-2_
  6
CONTINUOUS
 62
    7
 10
42.550605567725938
 20
117.66827557538008
 11
43.181676091374584
 21
115.77043687975085
  0
LINE
  8
_1-2_
  6
CONTINUOUS
 62
    3
 10
42.802103403452293
 20
115.64421782622468
 11
43.874928242451432
 21
112.41792421083193
  0
LINE
  8
_1-2_
  6
CONTINUOUS
 62
    7
 10
43.493524499841641
 20
109.76189278267526
 11
45.011790507548568
 21
110.26675662478885
  0
LINE
  8
_1-2_
  6
CONTINUOUS
 62
    3
 10
42.550605567725938
 20
117.66827557538008
 11
43.181676091374584
 21
115.77043687975085
  0
LINE
  8
_1-2_
  6
CONTINUOUS
 62
    7
 10
43.181676091374584
 20
115.77043687975085
 11
45.011790507548568
 21
110.26675662478885
  0
LINE
  8
ADD_LINE
  6
DOT
 62
    4
 10
42.063050141205679
 20
118.13846072635135
 11
42.738808296822214
 21
118.36316082928633
  0
LINE
  8
ADD_LINE
  6
DOT
 62
    4
 10
42.361289359427786
 20
118.23762223527238
 11
93.234520989495365
 21
134.83038000158362
  0
LINE
  8
_1-2_
  6
CONTINUOUS
 62
    3
 10
92.320651492557019
 20
140.21228274783573
 11
93.651630298511407
 21
140.64639117266682
  0
LINE
  8
_1-2_
  6
CONTINUOUS
 62
    3
 10
90.985565185546875
 20
139.14570576435813
 11
92.199059563714115
 21
139.54149813265414
  0
LINE
  8
_1-2_
  6
CONTINUOUS
 62
    3
 10
92.320651492557019
 20
140.21228274783573
 11
92.199059563714115
 21
139.54149813265414
  0
LINE
  8
_1-2_
  6
CONTINUOUS
 62
    3
 10
90.985565185546875
 20
139.14570576435813
 11
90.593001906936237
 21
137.12436985325169
  0
LINE
  8
_1-2_
  6
CONTINUOUS
 62
    3
 10
93.891498462573907
 20
138.62093538851352
 11
94.27178872598185
 21
138.74496459960937
  0
LINE
  8
_1-2_
  6
CONTINUOUS
 62
    7
 10
93.651630298511407
 20
140.64639117266682
 11
94.27178872598185
 21
138.74496459960937
  0
LINE
  8
_1-2_
  6
CONTINUOUS
 62
    3
 10
93.891498462573907
 20
138.62093538851352
 11
94.94576531487543
 21
135.38851763751057
  0
LINE
  8
_1-2_
  6
CONTINUOUS
 62
    7
 10
93.234520989495365
 20
134.83038000158362
 11
94.549144023173568
 21
132.73472553974875
  0
LINE
  8
_1-2_
  6
CONTINUOUS
 62
    7
 10
94.549144023173568
 20
132.73472553974875
 11
96.070255588840794
 21
133.23085475612331
  0
LINE
  8
_1-2_
  6
CONTINUOUS
 62
    3
 10
29.706635346283775
 20
110.95465170370566
 11
28.734023635451848
 21
115.89666830526816
  0
LINE
  8
_1-2_
  6
CONTINUOUS
 62
    3
 10
31.648963722022813
 20
117.89924827781884
 11
90.593001906936237
 21
137.12436985325169
  0
LINE
  8
_1-2_
  6
CONTINUOUS
 62
    3
 10
29.706635346283775
 20
110.95465170370566
 11
31.179780702333204
 21
111.59792101061022
  0
LINE
  8
_1-2_
  6
CONTINUOUS
 62
    3
 10
32.05602697423987
 20
114.8764739165435
 11
94.94576531487543
 21
135.38851763751057
  0
LINE
  8
_1-2_
  6
CONTINUOUS
 62
    3
 10
31.369195886560391
 20
114.00423616976352
 11
31.179780702333204
 21
111.59792101061022
  0
LINE
  8
_1-2_
  6
CONTINUOUS
 62
    3
 10
93.651630298511407
 20
140.64639117266682
 11
94.27178872598185
 21
138.74496459960937
  0
LINE
  8
_1-2_
  6
CONTINUOUS
 62
    7
 10
94.27178872598185
 20
138.74496459960937
 11
96.070255588840794
 21
133.23085475612331
  0
LINE
  8
_1-2_
  6
CONTINUOUS
 62
    3
 10
143.38824710330448
 20
163.19269953547297
 11
144.71922590925888
 21
163.62683270428633
  0
LINE
  8
_1-2_
  6
CONTINUOUS
 62
    3
 10
142.05316079629435
 20
162.12613492398648
 11
143.26665517446159
 21
162.52193966427365
  0
LINE
  8
_1-2_
  6
CONTINUOUS
 62
    3
 10
143.38824710330448
 20
163.19269953547297
 11
143.26665517446159
 21
162.52193966427365
  0
LINE
  8
_1-2_
  6
CONTINUOUS
 62
    3
 10
142.05316079629435
 20
162.12613492398648
 11
141.6605975176837
 21
160.10479901288008
  0
LINE
  8
_1-2_
  6
CONTINUOUS
 62
    3
 10
144.95909407332138
 20
161.6013645481419
 11
145.33938433672932
 21
161.72540613122891
  0
LINE
  8
_1-2_
  6
CONTINUOUS
 62
    7
 10
144.71922590925888
 20
163.62683270428633
 11
145.33938433672932
 21
161.72540613122891
  0
LINE
  8
_1-2_
  6
CONTINUOUS
 62
    3
 10
144.95909407332138
 20
161.6013645481419
 11
146.01336092562289
 21
158.36895916913008
  0
LINE
  8
_1-2_
  6
CONTINUOUS
 62
    7
 10
144.30211660024284
 20
157.81080916121201
 11
145.61673963392104
 21
155.71516707136826
  0
LINE
  8
_1-2_
  6
CONTINUOUS
 62
    7
 10
145.61673963392104
 20
155.71516707136826
 11
147.13785119958825
 21
156.21128391575169
  0
LINE
  8
_1-2_
  6
CONTINUOUS
 62
    3
 10
80.774243329022397
 20
133.93508086333404
 11
79.801606874208204
 21
138.87709746489654
  0
LINE
  8
_1-2_
  6
CONTINUOUS
 62
    3
 10
82.716546960779141
 20
140.87967743744721
 11
141.6605975176837
 21
160.10479901288008
  0
LINE
  8
_1-2_
  6
CONTINUOUS
 62
    3
 10
80.774243329022397
 20
133.93508086333404
 11
82.247376313080665
 21
134.57835017023859
  0
LINE
  8
_1-2_
  6
CONTINUOUS
 62
    3
 10
82.436791497307865
 20
136.9846653293919
 11
82.247376313080665
 21
134.57835017023859
  0
LINE
  8
_1-2_
  6
CONTINUOUS
 62
    3
 10
144.71922590925888
 20
163.62683270428633
 11
145.33938433672932
 21
161.72540613122891
  0
LINE
  8
_1-2_
  6
CONTINUOUS
 62
    7
 10
145.33938433672932
 20
161.72540613122891
 11
147.13785119958825
 21
156.21128391575169
  0
LINE
  8
_1-2_
  6
CONTINUOUS
 62
    3
 10
194.45584271405195
 20
186.17312869510135
 11
195.78682152000636
 21
186.60726186391472
  0
LINE
  8
_1-2_
  6
CONTINUOUS
 62
    3
 10
193.12075640704182
 20
185.10656408361487
 11
194.33425078520904
 21
185.50236882390203
  0
LINE
  8
_1-2_
  6
CONTINUOUS
 62
    3
 10
194.45584271405195
 20
186.17312869510135
 11
194.33425078520904
 21
185.50236882390203
  0
LINE
  8
_1-2_
  6
CONTINUOUS
 62
    3
 10
193.12075640704182
 20
185.10656408361487
 11
192.72819312843117
 21
183.08522817250847
  0
LINE
  8
_1-2_
  6
CONTINUOUS
 62
    3
 10
196.02668968406886
 20
184.58179370777029
 11
196.40697994747677
 21
184.70583529085727
  0
LINE
  8
_1-2_
  6
CONTINUOUS
 62
    7
 10
195.78682152000636
 20
186.60726186391472
 11
196.40697994747677
 21
184.70583529085727
  0
LINE
  8
_1-2_
  6
CONTINUOUS
 62
    3
 10
196.02668968406886
 20
184.58179370777029
 11
197.08095653637037
 21
181.34938832875847
  0
LINE
  8
_1-2_
  6
CONTINUOUS
 62
    7
 10
195.36971221099029
 20
180.79123832084039
 11
196.68433524466852
 21
178.69559623099664
  0
LINE
  8
_1-2_
  6
CONTINUOUS
 62
    7
 10
196.68433524466852
 20
178.69559623099664
 11
198.20544681033573
 21
179.19171307538008
  0
LINE
  8
_1-2_
  6
CONTINUOUS
 62
    3
 10
131.84181419578761
 20
156.9154976509713
 11
130.86922722893792
 21
161.8575142525338
  0
LINE
  8
_1-2_
  6
CONTINUOUS
 62
    3
 10
131.84181419578761
 20
156.9154976509713
 11
133.31497192382812
 21
157.55879170185813
  0
LINE
  8
_1-2_
  6
CONTINUOUS
 62
    3
 10
134.19120582374367
 20
160.83731986380914
 11
197.08095653637037
 21
181.34938832875847
  0
LINE
  8
_1-2_
  6
CONTINUOUS
 62
    3
 10
133.50438710805534
 20
159.96509448902029
 11
133.31497192382812
 21
157.55879170185813
  0
LINE
  8
_1-2_
  6
CONTINUOUS
 62
    3
 10
195.78682152000636
 20
186.60726186391472
 11
196.40697994747677
 21
184.70583529085727
  0
LINE
  8
_1-2_
  6
CONTINUOUS
 62
    7
 10
196.40697994747677
 20
184.70583529085727
 11
198.20544681033573
 21
179.19171307538008
  0
LINE
  8
_0-0_
  6
CONTINUOUS
 62
    5
 10
12.432428308435391
 20
278.51351351351354
 11
412.43244892842063
 21
278.51351351351354
  0
LINE
  8
_0-0_
  6
CONTINUOUS
 62
    5
 10
412.43244892842063
 20
8.5135135135135158
 11
12.432428308435391
 21
8.5135135135135158
  0
LINE
  8
_0-0_
  6
CONTINUOUS
 62
    5
 10
412.43244892842063
 20
28.513511451515001
 11
12.432415936444272
 21
28.513511451515001
  0
LINE
  8
_0-0_
  6
CONTINUOUS
 62
    5
 10
377.43248192039698
 20
8.5135135135135158
 11
377.43248192039698
 21
28.513511451515001
  0
LINE
  8
_0-0_
  6
CONTINUOUS
 62
    5
 10
142.70271507469386
 20
28.513511451515001
 11
142.70271507469386
 21
8.5135135135135158
  0
LINE
  8
_0-0_
  6
CONTINUOUS
 62
    5
 10
220.54054054054055
 20
28.513511451515001
 11
220.54054054054055
 21
8.5135135135135158
  0
LINE
  8
_0-0_
  6
CONTINUOUS
 62
    5
 10
142.70271507469386
 20
18.513512482514244
 11
220.54054054054055
 21
18.513512482514244
  0
LINE
  8
_0-0_
  6
CONTINUOUS
 62
    5
 10
402.16218690614443
 20
24.324325870823216
 11
389.59456985061234
 21
11.756758303255651
  0
LINE
  8
_0-1_
  6
CONTINUOUS
 62
    7
 10
114.09747149493244
 20
71.818158948743672
 11
120.18553037901184
 21
71.818158948743672
  0
LINE
  8
_0-1_
  6
CONTINUOUS
 62
    7
 10
103.90631598395271
 20
99.818152350348399
 11
120.18553037901184
 21
99.818152350348399
  0
LINE
  8
_0-1_
  6
CONTINUOUS
 62
    7
 10
106.45410486169764
 20
92.818153999947214
 11
120.18553037901184
 21
92.818153999947214
  0
LINE
  8
_0-1_
  6
CONTINUOUS
 62
    7
 10
109.00189373944258
 20
85.818155649546028
 11
120.18553037901184
 21
85.818155649546028
  0
LINE
  8
_0-1_
  6
CONTINUOUS
 62
    7
 10
111.5496826171875
 20
78.818157299144858
 11
120.18553037901184
 21
78.818157299144858
  0
LINE
  8
_0-1_
  6
CONTINUOUS
 62
    7
 10
65.12817795212203
 20
127.29729729729731
 11
57.641985094225078
 21
147.86547274202914
  0
LINE
  8
_1-2_
  6
CONTINUOUS
 62
    3
 10
22.155204979149062
 20
105.19560117979309
 11
43.874928242451432
 21
112.41792421083193
  0
LINE
  8
_1-2_
  6
CONTINUOUS
 62
    3
 10
22.155204979149062
 20
108.35711504961994
 11
39.512242497624584
 21
114.12874788851352
  0
LINE
  8
ADD_LINE
  6
DOT
 62
    4
 10
22.155217351140209
 20
105.19558880780195
 11
42.166925378747891
 21
111.84996321394638
  0
LINE
  8
_1-4_
  6
CONTINUOUS
 62
    7
 10
57.641985094225078
 20
147.86547274202914
 11
54.008492134712839
 21
147.86547274202914
  0
LINE
  8
ADD_LINE
  6
DOT
 62
    7
 10
193.07725648622255
 20
174.17187664959883
 11
215.57140453441724
 21
174.17187664959883
  0
LINE
  8
_1-1_
  6
CONTINUOUS
 62
    7
 10
369.62788349873313
 20
107.14443722286741
 11
370.85897084828974
 21
109.88020613386826
  0
LINE
  8
_1-1_
  6
CONTINUOUS
 62
    7
 10
370.85897084828974
 20
109.88020613386826
 11
366.48173564189193
 21
111.84996321394638
  0
LINE
  8
_1-1_
  6
CONTINUOUS
 62
    7
 10
366.48173564189193
 20
111.84996321394638
 11
365.25062354835308
 21
109.11419430294553
  0
LINE
  8
_1-1_
  6
CONTINUOUS
 62
    7
 10
365.25062354835308
 20
109.11419430294553
 11
369.62788349873313
 21
107.14443722286741
  0
LINE
  8
_1-1_
  6
CONTINUOUS
 62
    7
 10
318.56026314400339
 20
130.12485401050466
 11
319.79137523754224
 21
132.8606229215055
  0
LINE
  8
_1-1_
  6
CONTINUOUS
 62
    7
 10
319.79137523754224
 20
132.8606229215055
 11
315.41411528716219
 21
134.83038000158362
  0
LINE
  8
_1-1_
  6
CONTINUOUS
 62
    7
 10
315.41411528716219
 20
134.83038000158362
 11
314.18305268158787
 21
132.09461109058279
  0
LINE
  8
_1-1_
  6
CONTINUOUS
 62
    7
 10
314.18305268158787
 20
132.09461109058279
 11
318.56026314400339
 21
130.12485401050466
  0
LINE
  8
_1-1_
  6
CONTINUOUS
 62
    7
 10
318.56026314400339
 20
130.12485401050466
 11
315.41411528716219
 21
134.83038000158362
  0
LINE
  8
_1-1_
  6
CONTINUOUS
 62
    7
 10
267.49269227723818
 20
153.10529554212417
 11
268.7237548828125
 21
155.841064453125
  0
LINE
  8
_1-1_
  6
CONTINUOUS
 62
    7
 10
268.7237548828125
 20
155.841064453125
 11
264.34654442039698
 21
157.81080916121201
  0
LINE
  8
_1-1_
  6
CONTINUOUS
 62
    7
 10
264.34654442039698
 20
157.81080916121201
 11
263.11543232685813
 21
155.07504025021115
  0
LINE
  8
_1-1_
  6
CONTINUOUS
 62
    7
 10
263.11543232685813
 20
155.07504025021115
 11
267.49269227723818
 21
153.10529554212417
  0
LINE
  8
_1-1_
  6
CONTINUOUS
 62
    7
 10
267.49269227723818
 20
153.10529554212417
 11
264.34654442039698
 21
157.81080916121201
  0
LINE
  8
_1-1_
  6
CONTINUOUS
 62
    7
 10
216.42507192250847
 20
176.08572470175255
 11
217.65618401604732
 21
178.82149361275339
  0
LINE
  8
_1-1_
  6
CONTINUOUS
 62
    7
 10
217.65618401604732
 20
178.82149361275339
 11
213.27892406566724
 21
180.79123832084039
  0
LINE
  8
_1-1_
  6
CONTINUOUS
 62
    7
 10
213.27892406566724
 20
180.79123832084039
 11
212.04786146009292
 21
178.05546940983953
  0
LINE
  8
_1-1_
  6
CONTINUOUS
 62
    7
 10
212.04786146009292
 20
178.05546940983953
 11
216.42507192250847
 21
176.08572470175255
  0
LINE
  8
_1-1_
  6
CONTINUOUS
 62
    7
 10
216.42507192250847
 20
176.08572470175255
 11
213.27892406566724
 21
180.79123832084039
  0
LINE
  8
_1-2_
  6
CONTINUOUS
 62
    3
 10
367.4265103726774
 20
117.22652126002957
 11
366.09805545291385
 21
117.66827557538008
  0
LINE
  8
_1-2_
  6
CONTINUOUS
 62
    3
 10
368.75546017208615
 20
116.15231075802366
 11
367.54424224028719
 21
116.55506855732686
  0
LINE
  8
_1-2_
  6
CONTINUOUS
 62
    3
 10
367.4265103726774
 20
117.22652126002957
 11
367.54424224028719
 21
116.55506855732686
  0
LINE
  8
_1-2_
  6
CONTINUOUS
 62
    3
 10
368.75546017208615
 20
116.15231075802366
 11
369.13641852301521
 21
114.12874788851352
  0
LINE
  8
_1-2_
  6
CONTINUOUS
 62
    3
 10
365.8465576171875
 20
115.64421782622468
 11
365.46698492926521
 21
115.77043687975085
  0
LINE
  8
_1-2_
  6
CONTINUOUS
 62
    7
 10
366.09805545291385
 20
117.66827557538008
 11
365.46698492926521
 21
115.77043687975085
  0
LINE
  8
_1-2_
  6
CONTINUOUS
 62
    3
 10
365.8465576171875
 20
115.64421782622468
 11
364.77370803420609
 21
112.41792421083193
  0
LINE
  8
_1-2_
  6
CONTINUOUS
 62
    7
 10
365.15511177681589
 20
109.76189278267526
 11
363.63687051309125
 21
110.26675662478885
  0
LINE
  8
_1-2_
  6
CONTINUOUS
 62
    3
 10
366.09805545291385
 20
117.66827557538008
 11
365.46698492926521
 21
115.77043687975085
  0
LINE
  8
_1-2_
  6
CONTINUOUS
 62
    7
 10
365.46698492926521
 20
115.77043687975085
 11
363.63687051309125
 21
110.26675662478885
  0
LINE
  8
ADD_LINE
  6
DOT
 62
    4
 10
366.58561087943411
 20
118.13846072635135
 11
365.90985272381761
 21
118.36316082928633
  0
LINE
  8
ADD_LINE
  6
DOT
 62
    4
 10
366.28734691722974
 20
118.23762223527238
 11
315.41411528716219
 21
134.83038000158362
  0
LINE
  8
_1-2_
  6
CONTINUOUS
 62
    3
 10
316.32800952808276
 20
140.21228274783573
 11
314.99703072212839
 21
140.64639117266682
  0
LINE
  8
_1-2_
  6
CONTINUOUS
 62
    3
 10
317.66309583509292
 20
139.14570576435813
 11
316.44960145692568
 21
139.54149813265414
  0
LINE
  8
_1-2_
  6
CONTINUOUS
 62
    3
 10
316.32800952808276
 20
140.21228274783573
 11
316.44960145692568
 21
139.54149813265414
  0
LINE
  8
_1-2_
  6
CONTINUOUS
 62
    3
 10
317.66309583509292
 20
139.14570576435813
 11
318.0556343697213
 21
137.12436985325169
  0
LINE
  8
_1-2_
  6
CONTINUOUS
 62
    3
 10
314.75716255806589
 20
138.62093538851352
 11
314.37684755067568
 21
138.74496459960937
  0
LINE
  8
_1-2_
  6
CONTINUOUS
 62
    7
 10
314.99703072212839
 20
140.64639117266682
 11
314.37684755067568
 21
138.74496459960937
  0
LINE
  8
_1-2_
  6
CONTINUOUS
 62
    3
 10
314.75716255806589
 20
138.62093538851352
 11
313.70287096178214
 21
135.38851763751057
  0
LINE
  8
_1-2_
  6
CONTINUOUS
 62
    7
 10
315.41411528716219
 20
134.83038000158362
 11
314.09951699746625
 21
132.73472553974875
  0
LINE
  8
_1-2_
  6
CONTINUOUS
 62
    7
 10
314.09951699746625
 20
132.73472553974875
 11
312.57840543179901
 21
133.23085475612331
  0
LINE
  8
_1-2_
  6
CONTINUOUS
 62
    3
 10
378.9420133023649
 20
110.95465170370566
 11
379.91462501319683
 21
115.89666830526816
  0
LINE
  8
_1-2_
  6
CONTINUOUS
 62
    3
 10
376.99968492662589
 20
117.89924827781884
 11
318.0556343697213
 21
137.12436985325169
  0
LINE
  8
_1-2_
  6
CONTINUOUS
 62
    3
 10
378.9420133023649
 20
110.95465170370566
 11
377.46885557432432
 21
111.59792101061022
  0
LINE
  8
_1-2_
  6
CONTINUOUS
 62
    3
 10
376.5926216744088
 20
114.8764739165435
 11
313.70287096178214
 21
135.38851763751057
  0
LINE
  8
_1-2_
  6
CONTINUOUS
 62
    3
 10
377.27946513407943
 20
114.00423616976352
 11
377.46885557432432
 21
111.59792101061022
  0
LINE
  8
_1-2_
  6
CONTINUOUS
 62
    3
 10
314.99703072212839
 20
140.64639117266682
 11
314.37684755067568
 21
138.74496459960937
  0
LINE
  8
_1-2_
  6
CONTINUOUS
 62
    7
 10
314.37684755067568
 20
138.74496459960937
 11
312.57840543179901
 21
133.23085475612331
  0
LINE
  8
_1-2_
  6
CONTINUOUS
 62
    3
 10
265.26038917335308
 20
163.19269953547297
 11
263.92941036739865
 21
163.62683270428633
  0
LINE
  8
_1-2_
  6
CONTINUOUS
 62
    3
 10
266.59547548036318
 20
162.12613492398648
 11
265.38198110219594
 21
162.52193966427365
  0
LINE
  8
_1-2_
  6
CONTINUOUS
 62
    3
 10
265.26038917335308
 20
163.19269953547297
 11
265.38198110219594
 21
162.52193966427365
  0
LINE
  8
_1-2_
  6
CONTINUOUS
 62
    3
 10
266.59547548036318
 20
162.12613492398648
 11
266.98806350295609
 21
160.10479901288008
  0
LINE
  8
_1-2_
  6
CONTINUOUS
 62
    3
 10
263.68954220333615
 20
161.6013645481419
 11
263.30927668391047
 21
161.72540613122891
  0
LINE
  8
_1-2_
  6
CONTINUOUS
 62
    7
 10
263.92941036739865
 20
163.62683270428633
 11
263.30927668391047
 21
161.72540613122891
  0
LINE
  8
_1-2_
  6
CONTINUOUS
 62
    3
 10
263.68954220333615
 20
161.6013645481419
 11
262.63530009501693
 21
158.36895916913008
  0
LINE
  8
_1-2_
  6
CONTINUOUS
 62
    7
 10
264.34654442039698
 20
157.81080916121201
 11
263.03189664273651
 21
155.71516707136826
  0
LINE
  8
_1-2_
  6
CONTINUOUS
 62
    7
 10
263.03189664273651
 20
155.71516707136826
 11
261.51078507706927
 21
156.21128391575169
  0
LINE
  8
_1-2_
  6
CONTINUOUS
 62
    3
 10
327.87439294763516
 20
133.93508086333404
 11
328.84702940244932
 21
138.87709746489654
  0
LINE
  8
_1-2_
  6
CONTINUOUS
 62
    3
 10
325.93208931587839
 20
140.87967743744721
 11
266.98806350295609
 21
160.10479901288008
  0
LINE
  8
_1-2_
  6
CONTINUOUS
 62
    3
 10
327.87439294763516
 20
133.93508086333404
 11
326.40128470755911
 21
134.57835017023859
  0
LINE
  8
_1-2_
  6
CONTINUOUS
 62
    3
 10
325.52500131967906
 20
137.85690307617187
 11
262.63530009501693
 21
158.36895916913008
  0
LINE
  8
_1-2_
  6
CONTINUOUS
 62
    3
 10
326.21184477934969
 20
136.9846653293919
 11
326.40128470755911
 21
134.57835017023859
  0
LINE
  8
_1-2_
  6
CONTINUOUS
 62
    3
 10
263.92941036739865
 20
163.62683270428633
 11
263.30927668391047
 21
161.72540613122891
  0
LINE
  8
_1-2_
  6
CONTINUOUS
 62
    7
 10
263.30927668391047
 20
161.72540613122891
 11
261.51078507706927
 21
156.21128391575169
  0
LINE
  8
_1-2_
  6
CONTINUOUS
 62
    3
 10
214.19281830658784
 20
186.17312869510135
 11
212.86183950063347
 21
186.60726186391472
  0
LINE
  8
_1-2_
  6
CONTINUOUS
 62
    3
 10
215.527904613598
 20
185.10656408361487
 11
214.31441023543076
 21
185.50236882390203
  0
LINE
  8
_1-2_
  6
CONTINUOUS
 62
    3
 10
214.19281830658784
 20
186.17312869510135
 11
214.31441023543076
 21
185.50236882390203
  0
LINE
  8
_1-2_
  6
CONTINUOUS
 62
    3
 10
215.527904613598
 20
185.10656408361487
 11
215.92044314822635
 21
183.08522817250847
  0
LINE
  8
_1-2_
  6
CONTINUOUS
 62
    3
 10
212.62197133657097
 20
184.58179370777029
 11
212.24165632918076
 21
184.70583529085727
  0
LINE
  8
_1-2_
  6
CONTINUOUS
 62
    7
 10
212.86183950063347
 20
186.60726186391472
 11
212.24165632918076
 21
184.70583529085727
  0
LINE
  8
_1-2_
  6
CONTINUOUS
 62
    3
 10
212.62197133657097
 20
184.58179370777029
 11
211.56767974028716
 21
181.34938832875847
  0
LINE
  8
_1-2_
  6
CONTINUOUS
 62
    7
 10
213.27892406566724
 20
180.79123832084039
 11
211.9643257759713
 21
178.69559623099664
  0
LINE
  8
_1-2_
  6
CONTINUOUS
 62
    7
 10
211.9643257759713
 20
178.69559623099664
 11
210.44321421030406
 21
179.19171307538008
  0
LINE
  8
_1-2_
  6
CONTINUOUS
 62
    3
 10
276.80682208086995
 20
156.9154976509713
 11
277.77940904771958
 21
161.8575142525338
  0
LINE
  8
_1-2_
  6
CONTINUOUS
 62
    3
 10
276.80682208086995
 20
156.9154976509713
 11
275.33366435282943
 21
157.55879170185813
  0
LINE
  8
_1-2_
  6
CONTINUOUS
 62
    3
 10
274.45743045291385
 20
160.83731986380914
 11
211.56767974028716
 21
181.34938832875847
  0
LINE
  8
_1-2_
  6
CONTINUOUS
 62
    3
 10
275.14427391258448
 20
159.96509448902029
 11
275.33366435282943
 21
157.55879170185813
  0
LINE
  8
_1-2_
  6
CONTINUOUS
 62
    3
 10
212.86183950063347
 20
186.60726186391472
 11
212.24165632918076
 21
184.70583529085727
  0
LINE
  8
_1-2_
  6
CONTINUOUS
 62
    7
 10
212.24165632918076
 20
184.70583529085727
 11
210.44321421030406
 21
179.19171307538008
  0
LINE
  8
_1-2_
  6
CONTINUOUS
 62
    3
 10
386.49343129750849
 20
105.19560117979309
 11
364.77370803420609
 21
112.41792421083193
  0
LINE
  8
_1-2_
  6
CONTINUOUS
 62
    3
 10
386.49343129750849
 20
108.35711504961994
 11
369.13641852301521
 21
114.12874788851352
  0
LINE
  8
ADD_LINE
  6
DOT
 62
    4
 10
386.49343129750849
 20
105.19558880780195
 11
366.48173564189193
 21
111.84996321394638
  0
LINE
  8
_1-0_
  6
CONTINUOUS
 62
    7
 10
22.155204979149062
 20
97.581073657886407
 11
204.32429958034209
 21
179.55718169341216
  0
LINE
  8
_1-0_
  6
CONTINUOUS
 62
    7
 10
386.49343129750849
 20
97.581073657886407
 11
204.32429958034209
 21
179.55718169341216
  0
LINE
  8
_1-1_
  6
CONTINUOUS
 62
    7
 10
217.65618401604732
 20
178.82149361275339
 11
213.27892406566724
 21
180.79123832084039
  0
LINE
  8
_1-1_
  6
CONTINUOUS
 62
    7
 10
213.27892406566724
 20
180.79123832084039
 11
212.04786146009292
 21
178.05546940983953
  0
LINE
  8
_1-2_
  6
CONTINUOUS
 62
    3
 10
214.19281830658784
 20
186.17312869510135
 11
212.86183950063347
 21
186.60726186391472
  0
LINE
  8
_1-2_
  6
CONTINUOUS
 62
    3
 10
215.527904613598
 20
185.10656408361487
 11
214.31441023543076
 21
185.50236882390203
  0
LINE
  8
_1-2_
  6
CONTINUOUS
 62
    3
 10
214.19281830658784
 20
186.17312869510135
 11
214.31441023543076
 21
185.50236882390203
  0
LINE
  8
_1-2_
  6
CONTINUOUS
 62
    3
 10
215.527904613598
 20
185.10656408361487
 11
215.92044314822635
 21
183.08522817250847
  0
LINE
  8
_1-2_
  6
CONTINUOUS
 62
    3
 10
212.62197133657097
 20
184.58179370777029
 11
212.24165632918076
 21
184.70583529085727
  0
LINE
  8
_1-2_
  6
CONTINUOUS
 62
    7
 10
212.86183950063347
 20
186.60726186391472
 11
212.24165632918076
 21
184.70583529085727
  0
LINE
  8
_1-2_
  6
CONTINUOUS
 62
    3
 10
212.62197133657097
 20
184.58179370777029
 11
211.56767974028716
 21
181.34938832875847
  0
LINE
  8
_1-2_
  6
CONTINUOUS
 62
    7
 10
213.27892406566724
 20
180.79123832084039
 11
211.9643257759713
 21
178.69559623099664
  0
LINE
  8
_1-2_
  6
CONTINUOUS
 62
    7
 10
211.9643257759713
 20
178.69559623099664
 11
210.44321421030406
 21
179.19171307538008
  0
LINE
  8
_1-2_
  6
CONTINUOUS
 62
    3
 10
212.86183950063347
 20
186.60726186391472
 11
212.24165632918076
 21
184.70583529085727
  0
LINE
  8
_1-2_
  6
CONTINUOUS
 62
    7
 10
212.24165632918076
 20
184.70583529085727
 11
210.44321421030406
 21
179.19171307538008
  0
LINE
  8
_1-0_
  6
CONTINUOUS
 62
    7
 10
386.49343129750849
 20
99.554938239020274
 11
218.32432102512669
 21
175.23104281038852
  0
LINE
  8
_1-0_
  6
CONTINUOUS
 62
    7
 10
386.49343129750849
 20
98.896971006651185
 11
218.32432102512669
 21
174.57306320602831
  0
LINE
  8
_1-0_
  6
CONTINUOUS
 62
    7
 10
204.32432432432432
 20
180.87306667018581
 11
204.3243119523332
 21
180.87306667018581
  0
LINE
  8
_1-0_
  6
CONTINUOUS
 62
    7
 10
22.155204979149062
 20
99.554932053024714
 11
190.32431525153083
 21
175.23104281038852
  0
LINE
  8
_1-0_
  6
CONTINUOUS
 62
    7
 10
22.155204979149062
 20
98.896977192646759
 11
190.32431525153083
 21
174.57307557801943
  0
LINE
  8
_1-0_
  6
CONTINUOUS
 62
    7
 10
204.32429958034209
 20
180.87306667018581
 11
204.3243119523332
 21
180.87306667018581
  0
LINE
  8
_1-3_
  6
CONTINUOUS
 62
    7
 10
91.956587095518373
 20
132.64974233266472
 11
114.09747149493244
 21
71.818158948743672
  0
LINE
  8
_1-3_
  6
CONTINUOUS
 62
    7
 10
190.32431525153083
 20
174.57307557801943
 11
204.32429958034209
 21
180.87307904217695
  0
LINE
  8
_1-3_
  6
CONTINUOUS
 62
    7
 10
218.32432102512669
 20
174.57306320602831
 11
204.32429958034209
 21
180.87307904217695
  0
LINE
  8
_1-3_
  6
CONTINUOUS
 62
    7
 10
218.32432102512669
 20
175.23104281038852
 11
204.32429958034209
 21
181.53104627454604
  0
LINE
  8
_1-3_
  6
CONTINUOUS
 62
    7
 10
190.32431525153083
 20
175.23104281038852
 11
204.32429958034209
 21
181.53104627454604
  0
LINE
  8
_1-2_
  6
CONTINUOUS
 62
    3
 10
133.78416731550888
 20
163.86011896906672
 11
192.72819312843117
 21
183.08522817250847
  0
LINE
  8
_1-2_
  6
CONTINUOUS
 62
    3
 10
274.86446896114865
 20
163.86011896906672
 11
215.92044314822635
 21
183.08522817250847
  0
LINE
  8
_1-3_
  6
CONTINUOUS
 62
    3
 10
187.21153465477198
 20
184.44147058435391
 11
186.2812970135663
 21
187.29358569995779
  0
LINE
  8
_1-3_
  6
CONTINUOUS
 62
    3
 10
186.2812970135663
 20
187.29358569995779
 11
203.39407431112755
 21
192.8750734071474
  0
LINE
  8
_1-3_
  6
CONTINUOUS
 62
    3
 10
203.39407431112755
 20
192.8750734071474
 11
204.32432432432432
 21
190.02294591955237
  0
LINE
  8
_1-3_
  6
CONTINUOUS
 62
    3
 10
204.32432432432432
 20
190.02294591955237
 11
187.21153465477198
 21
184.44147058435391
  0
LINE
  8
_1-3_
  6
CONTINUOUS
 62
    3
 10
187.21153465477198
 20
184.44147058435391
 11
203.39407431112755
 21
192.8750734071474
  0
LINE
  8
_1-3_
  6
CONTINUOUS
 62
    3
 10
204.32432432432432
 20
190.02294591955237
 11
205.25457433752112
 21
192.8750734071474
  0
LINE
  8
_1-3_
  6
CONTINUOUS
 62
    3
 10
205.25457433752112
 20
192.8750734071474
 11
222.36736400707349
 21
187.29359807194891
  0
LINE
  8
_1-3_
  6
CONTINUOUS
 62
    3
 10
222.36736400707349
 20
187.29359807194891
 11
221.43711399387669
 21
184.44147058435391
  0
LINE
  8
_1-3_
  6
CONTINUOUS
 62
    3
 10
221.43711399387669
 20
184.44147058435391
 11
204.32432432432432
 21
190.02294591955237
  0
LINE
  8
_1-3_
  6
CONTINUOUS
 62
    3
 10
204.32432432432432
 20
190.02294591955237
 11
222.36736400707349
 21
187.29359807194891
  0
LINE
  8
_1-3_
  6
CONTINUOUS
 62
    2
 10
204.32432432432432
 20
194.04159133498734
 11
184.54956467087206
 21
187.59187440614443
  0
LINE
  8
_1-3_
  6
CONTINUOUS
 62
    2
 10
204.32432432432432
 20
194.04159133498734
 11
224.09909634976776
 21
187.59188677813557
  0
LINE
  8
_1-3_
  6
CONTINUOUS
 62
    2
 10
181.10245575775971
 20
182.68092387431378
 11
184.14597794816302
 21
181.99849721547722
  0
LINE
  8
_1-3_
  6
CONTINUOUS
 62
    2
 10
185.6658646867082
 20
184.16932389542865
 11
181.10245575775971
 21
182.68092387431378
  0
LINE
  8
_1-3_
  6
CONTINUOUS
 62
    2
 10
184.54956467087206
 20
187.59187440614443
 11
185.6658646867082
 21
184.16932389542865
  0
LINE
  8
_1-3_
  6
CONTINUOUS
 62
    2
 10
227.54620526288008
 20
182.6809362463049
 11
224.5624521616343
 21
182.27890839447846
  0
LINE
  8
_1-3_
  6
CONTINUOUS
 62
    2
 10
222.98279633393159
 20
184.16932389542865
 11
227.54620526288008
 21
182.6809362463049
  0
LINE
  8
_1-3_
  6
CONTINUOUS
 62
    2
 10
224.09909634976776
 20
187.59188677813557
 11
222.98279633393159
 21
184.16932389542865
  0
LINE
  8
_1-3_
  6
CONTINUOUS
 62
    7
 10
187.60102967958193
 20
184.56849381730365
 11
188.53127969277872
 21
181.71636632970862
  0
LINE
  8
_1-3_
  6
CONTINUOUS
 62
    7
 10
190.45315716717695
 20
185.49874383050044
 11
191.38340718037375
 21
182.64661634290542
  0
LINE
  8
_1-3_
  6
CONTINUOUS
 62
    7
 10
221.03876062341641
 20
184.57137649123734
 11
220.10851061021961
 21
181.71924900364232
  0
LINE
  8
_1-3_
  6
CONTINUOUS
 62
    7
 10
218.18662076383026
 20
185.50162650443414
 11
217.25637075063347
 21
182.64949901683912
  0
LINE
  8
_1-3_
  6
CONTINUOUS
 62
    7
 10
217.40377065297722
 20
183.10142310889992
 11
218.14579319309544
 21
182.35940056878169
  0
LINE
  8
_1-3_
  6
CONTINUOUS
 62
    7
 10
217.61246139938768
 20
183.74126537426099
 11
219.40501445048565
 21
181.94869995117187
  0
LINE
  8
_1-3_
  6
CONTINUOUS
 62
    7
 10
217.82115214579815
 20
184.38109526763091
 11
220.2006077122044
 21
182.00162732923354
  0
LINE
  8
_1-3_
  6
CONTINUOUS
 62
    7
 10
218.02984289220862
 20
185.02092516100086
 11
220.40929845861487
 21
182.64145722260346
  0
LINE
  8
_1-3_
  6
CONTINUOUS
 62
    7
 10
218.499755859375
 20
185.3995080896326
 11
220.61798920502534
 21
183.28128711597341
  0
LINE
  8
_1-3_
  6
CONTINUOUS
 62
    7
 10
219.75897711676521
 20
184.98879510003169
 11
220.82665520745357
 21
183.92111700934333
  0
LINE
  8
_1-3_
  6
CONTINUOUS
 62
    7
 10
221.01819837415542
 20
184.57809448242187
 11
221.03534595386404
 21
184.56094690271328
  0
LINE
  8
_1-3_
  6
CONTINUOUS
 62
    7
 10
219.95353904930323
 20
181.76978858741555
 11
220.20798141891893
 21
182.02423095703125
  0
LINE
  8
_1-3_
  6
CONTINUOUS
 62
    7
 10
219.31370915593328
 20
181.97847933382602
 11
220.61868203652872
 21
183.28346458641261
  0
LINE
  8
_1-3_
  6
CONTINUOUS
 62
    7
 10
218.67387926256336
 20
182.18717008023648
 11
221.02940739812078
 21
184.54271058778505
  0
LINE
  8
_1-3_
  6
CONTINUOUS
 62
    7
 10
218.03402462521117
 20
182.39586082664698
 11
220.41350493559966
 21
184.77532876504435
  0
LINE
  8
_1-3_
  6
CONTINUOUS
 62
    7
 10
217.39419473184122
 20
182.6045392010663
 11
219.77367504222974
 21
184.9840071394637
  0
LINE
  8
_1-3_
  6
CONTINUOUS
 62
    7
 10
217.5786116316512
 20
183.63751385663008
 11
219.13382040487755
 21
185.19269788587417
  0
LINE
  8
_1-3_
  6
CONTINUOUS
 62
    7
 10
217.98933699324326
 20
184.89675985800255
 11
218.49396576752534
 21
185.40138863228464
  0
LINE
  8
_1-3_
  6
CONTINUOUS
 62
    7
 10
191.01015657991977
 20
182.52487595016893
 11
191.32154722471495
 21
182.83626659496412
  0
LINE
  8
_1-3_
  6
CONTINUOUS
 62
    7
 10
189.75092295053844
 20
182.114162960568
 11
191.11286885029563
 21
183.47610886032518
  0
LINE
  8
_1-3_
  6
CONTINUOUS
 62
    7
 10
188.52472253747891
 20
181.73648318728885
 11
190.90417810388516
 21
184.11595112568625
  0
LINE
  8
_1-3_
  6
CONTINUOUS
 62
    7
 10
188.31603179106841
 20
182.37633782464107
 11
190.69548735747466
 21
184.75579339104732
  0
LINE
  8
_1-3_
  6
CONTINUOUS
 62
    7
 10
188.10734104465794
 20
183.01616771801099
 11
190.48679661106419
 21
185.39562328441724
  0
LINE
  8
_1-3_
  6
CONTINUOUS
 62
    7
 10
187.89865029824747
 20
183.65600998337206
 11
189.39688605231208
 21
185.15424573743667
  0
LINE
  8
_1-3_
  6
CONTINUOUS
 62
    7
 10
187.68995955183701
 20
184.29585224873313
 11
188.13762767894849
 21
184.74352037584461
  0
LINE
  8
_1-3_
  6
CONTINUOUS
 62
    7
 10
188.2606671307538
 20
182.54606917097763
 11
188.95286766258448
 21
181.85386863914698
  0
LINE
  8
_1-3_
  6
CONTINUOUS
 62
    7
 10
187.84996651314401
 20
183.80527805637669
 11
189.59268518396328
 21
182.06255938555745
  0
LINE
  8
_1-3_
  6
CONTINUOUS
 62
    7
 10
187.85305951092695
 20
184.65070569837417
 11
190.2325150773332
 21
182.27123775997677
  0
LINE
  8
_1-3_
  6
CONTINUOUS
 62
    7
 10
188.49288940429687
 20
184.85939644478464
 11
190.87234497070312
 21
182.47992850638727
  0
LINE
  8
_1-3_
  6
CONTINUOUS
 62
    7
 10
189.13270692567568
 20
185.06807481920399
 11
191.30074990762247
 21
182.90003183725719
  0
LINE
  8
_1-3_
  6
CONTINUOUS
 62
    7
 10
189.77253681904563
 20
185.27676556561445
 11
190.89004929001268
 21
184.15926546663852
  0
LINE
  8
_1-3_
  6
CONTINUOUS
 62
    7
 10
190.41237908440669
 20
185.48545631202492
 11
190.47933630041175
 21
185.41849909601987
  0
LINE
  8
_1-4_
  6
CONTINUOUS
 62
    7
 10
188.54617557010135
 20
187.17214223500847
 11
176.94425428235854
 21
219.04815673828125
  0
LINE
  8
_1-4_
  6
CONTINUOUS
 62
    7
 10
219.16108827333193
 20
183.0691198400549
 11
230.154369457348
 21
213.27293602195948
  0
LINE
  8
_1-4_
  6
CONTINUOUS
 62
    7
 10
178.83085921004013
 20
239.01533796980576
 11
174.83085838524073
 21
239.01533796980576
  0
LINE
  8
_1-4_
  6
CONTINUOUS
 62
    7
 10
176.94425428235854
 20
219.04815673828125
 11
172.94425345755914
 21
219.04815673828125
  0
LINE
  8
_1-4_
  6
CONTINUOUS
 62
    7
 10
230.154369457348
 20
213.27293602195948
 11
234.15435791015625
 21
213.27293602195948
  0
LINE
  8
_1-4_
  6
CONTINUOUS
 62
    7
 10
196.16820051863388
 20
191.38139054581927
 11
178.83085921004013
 21
239.01533796980576
  0
LINE
  8
_1-4_
  6
CONTINUOUS
 62
    7
 10
385.01611658044766
 20
94.29815962507918
 11
204.32429958034209
 21
175.60947727512669
  0
LINE
  8
_1-4_
  6
CONTINUOUS
 62
    7
 10
23.63251814971099
 20
94.29815962507918
 11
204.32429958034209
 21
175.60947727512669
  0
LINE
  8
_1-4_
  6
CONTINUOUS
 62
    7
 10
31.839814057221275
 20
76.059729086386199
 11
204.3243119523332
 21
153.67775994378169
  0
LINE
  8
_1-4_
  6
CONTINUOUS
 62
    7
 10
376.8088345914274
 20
76.059729086386199
 11
204.3243119523332
 21
153.67775994378169
  0
LINE
  8
_1-4_
  6
DASHED1
 62
    7
 10
23.821285350902656
 20
93.878674893765847
 11
204.51308379302154
 21
175.18999254381336
  0
LINE
  8
_1-4_
  6
DASHED1
 62
    7
 10
31.65104530953073
 20
76.479213817699545
 11
204.3243119523332
 21
154.1822031381968
  0
LINE
  8
_1-4_
  6
DASHED1
 62
    7
 10
376.99760643211573
 20
76.479213817699545
 11
204.3243119523332
 21
154.1822031381968
  0
LINE
  8
_1-4_
  6
DASHED1
 62
    7
 10
384.82734473975933
 20
93.878674893765847
 11
204.13554011164487
 21
175.18999254381336
  0
LINE
  8
_1-4_
  6
DASHED2
 62
    7
 10
383.37465028505068
 20
90.650475991738816
 11
204.3243119523332
 21
171.22313628325591
  0
LINE
  8
_1-4_
  6
DASHED2
 62
    7
 10
25.273976712613489
 20
90.650475991738816
 11
204.3243119523332
 21
171.22313628325591
  0
LINE
  8
_1-4_
  6
DASHED2
 62
    7
 10
30.198353947819896
 20
79.707412719726563
 11
204.3243119523332
 21
158.06410093565245
  0
LINE
  8
_1-4_
  6
DASHED2
 62
    7
 10
378.45030088682432
 20
79.707412719726563
 11
204.3243119523332
 21
158.06410093565245
  0
LINE
  8
_1-4_
  6
CONTINUOUS
 62
    7
 10
194.32431607633023
 20
148.39402894716005
 11
214.32433257231841
 21
148.39402894716005
  0
LINE
  8
_1-4_
  6
CONTINUOUS
 62
    7
 10
214.32433257231841
 20
108.39404544314823
 11
194.32431607633023
 21
108.39404544314823
  0
LINE
  8
_1-4_
  6
CONTINUOUS
 62
    7
 10
203.72433224239867
 20
110.59403290619721
 11
203.72433224239867
 21
146.19404148411107
  0
LINE
  8
_1-4_
  6
CONTINUOUS
 62
    7
 10
204.92431640625
 20
110.59403290619721
 11
204.92431640625
 21
146.19404148411107
  0
LINE
  8
_1-4_
  6
CONTINUOUS
 62
    7
 10
213.72434049039273
 20
109.99404082427154
 11
205.52430848817568
 21
109.99404082427154
  0
LINE
  8
_1-4_
  6
CONTINUOUS
 62
    7
 10
214.32433257231841
 20
109.39404874234587
 11
214.32433257231841
 21
108.39404544314823
  0
LINE
  8
_1-4_
  6
CONTINUOUS
 62
    7
 10
194.92430815825591
 20
109.99404082427154
 11
203.124340160473
 21
109.99404082427154
  0
LINE
  8
_1-4_
  6
CONTINUOUS
 62
    7
 10
194.32431607633023
 20
109.39404874234587
 11
194.32431607633023
 21
108.39404544314823
  0
LINE
  8
_1-4_
  6
CONTINUOUS
 62
    7
 10
194.92430815825591
 20
146.79403356603675
 11
203.124340160473
 21
146.79403356603675
  0
LINE
  8
_1-4_
  6
CONTINUOUS
 62
    7
 10
194.32431607633023
 20
147.39402564796242
 11
194.32431607633023
 21
148.39402894716005
  0
LINE
  8
_1-4_
  6
CONTINUOUS
 62
    7
 10
213.72434049039273
 20
146.79403356603675
 11
205.52430848817568
 21
146.79403356603675
  0
LINE
  8
_1-4_
  6
CONTINUOUS
 62
    7
 10
214.32433257231841
 20
147.39402564796242
 11
214.32433257231841
 21
148.39402894716005
  0
LINE
  8
ADD_LINE
  6
DOT
 62
    7
 10
21.779192331674949
 20
100.29009432406039
 11
26.089423927100938
 21
90.711803951778933
  0
LINE
  8
ADD_LINE
  6
DOT
 62
    7
 10
385.93812684755068
 20
100.2047956312025
 11
382.48641555373734
 21
92.534309593406888
  0
LINE
  8
_1-2_
  6
CONTINUOUS
 62
    7
 10
383.48614666913011
 20
94.986642373574753
 11
383.67486902185391
 21
95.175352354307435
  0
LINE
  8
_1-2_
  6
CONTINUOUS
 62
    7
 10
382.51083786423146
 20
95.425526386982696
 11
384.83197186444261
 21
97.746660387193842
  0
LINE
  8
_1-2_
  6
CONTINUOUS
 62
    7
 10
381.53552905933282
 20
95.864428958377331
 11
384.25805993982266
 21
98.586990768845027
  0
LINE
  8
_1-2_
  6
CONTINUOUS
 62
    7
 10
380.56017076646964
 20
96.303325343776393
 11
383.28275113492401
 21
99.025880968248529
  0
LINE
  8
_1-2_
  6
CONTINUOUS
 62
    7
 10
379.58486196157099
 20
96.74221554317991
 11
382.30744233002537
 21
99.464777353647605
  0
LINE
  8
_1-2_
  6
CONTINUOUS
 62
    7
 10
378.60955315667229
 20
97.181111928578972
 11
381.33210878114443
 21
99.903673739046667
  0
LINE
  8
_1-2_
  6
CONTINUOUS
 62
    7
 10
377.63421960779141
 20
97.620008313978047
 11
380.35677523226354
 21
100.3425763104413
  0
LINE
  8
_1-2_
  6
CONTINUOUS
 62
    7
 10
376.65888605891047
 20
98.058904699377123
 11
379.3814664273649
 21
100.7814665098448
  0
LINE
  8
_1-2_
  6
CONTINUOUS
 62
    7
 10
375.68357725401182
 20
98.497801084776185
 11
378.40613287848396
 21
101.22036289524388
  0
LINE
  8
_1-2_
  6
CONTINUOUS
 62
    7
 10
374.70824370513094
 20
98.936697470175261
 11
377.43082407358531
 21
101.65925309464738
  0
LINE
  8
_1-2_
  6
CONTINUOUS
 62
    7
 10
373.73293490023229
 20
99.375587669578763
 11
376.45549052470443
 21
102.09814948004646
  0
LINE
  8
_1-2_
  6
CONTINUOUS
 62
    7
 10
372.75760135135135
 20
99.814484054977839
 11
375.48018171980578
 21
102.53703967944996
  0
LINE
  8
_1-2_
  6
CONTINUOUS
 62
    7
 10
371.78229254645271
 20
100.2533804403769
 11
374.50484817092484
 21
102.9759422508446
  0
LINE
  8
_1-2_
  6
CONTINUOUS
 62
    7
 10
370.80695899757183
 20
100.69227682577598
 11
373.52951462204396
 21
103.41483863624367
  0
LINE
  8
_1-2_
  6
CONTINUOUS
 62
    7
 10
369.83165019267318
 20
101.13116702517948
 11
372.55420581714532
 21
103.85373502164275
  0
LINE
  8
_1-2_
  6
CONTINUOUS
 62
    7
 10
368.85631664379224
 20
101.57007578256969
 11
371.57887226826438
 21
104.29261903505068
  0
LINE
  8
_1-2_
  6
CONTINUOUS
 62
    7
 10
367.88100783889359
 20
102.00895979597762
 11
370.60356346336573
 21
104.73151542044975
  0
LINE
  8
_1-2_
  6
CONTINUOUS
 62
    7
 10
366.90569903399495
 20
102.44784999538113
 11
369.62822991448479
 21
105.17041180584883
  0
LINE
  8
_1-2_
  6
CONTINUOUS
 62
    7
 10
365.93034074113177
 20
102.88675256677577
 11
368.65292110958615
 21
105.60930819124789
  0
LINE
  8
_1-2_
  6
CONTINUOUS
 62
    7
 10
364.95503193623313
 20
103.32564276617927
 11
367.67758756070526
 21
106.04820457664697
  0
LINE
  8
_1-2_
  6
CONTINUOUS
 62
    7
 10
363.97972313133448
 20
103.76453915157835
 11
366.70225401182432
 21
106.48710096204604
  0
LINE
  8
_1-2_
  6
CONTINUOUS
 62
    7
 10
363.00438958245354
 20
104.20344172297298
 11
365.72694520692568
 21
106.9259973474451
  0
LINE
  8
_1-2_
  6
CONTINUOUS
 62
    7
 10
362.02905603357266
 20
104.64232573638091
 11
364.75161165804479
 21
107.36489373284418
  0
LINE
  8
_1-2_
  6
CONTINUOUS
 62
    7
 10
361.05374722867401
 20
105.08122212177999
 11
363.77630285314615
 21
107.80377774625212
  0
LINE
  8
_1-2_
  6
CONTINUOUS
 62
    7
 10
360.07841367979307
 20
105.52011850717906
 11
362.80096930426521
 21
108.24267413165119
  0
LINE
  8
_1-2_
  6
CONTINUOUS
 62
    7
 10
359.10308013091219
 20
105.95902726456926
 11
361.82566049936656
 21
108.68158288904139
  0
LINE
  8
_1-2_
  6
CONTINUOUS
 62
    7
 10
358.12779606999578
 20
106.3979112779772
 11
360.85032695048568
 21
109.12046690244934
  0
LINE
  8
_1-2_
  6
CONTINUOUS
 62
    7
 10
357.1524625211149
 20
106.83679529138514
 11
359.87501814558703
 21
109.5593632878484
  0
LINE
  8
_1-2_
  6
CONTINUOUS
 62
    7
 10
356.17715371621625
 20
107.27569167678421
 11
358.89968459670609
 21
109.99825967324747
  0
LINE
  8
_1-2_
  6
CONTINUOUS
 62
    7
 10
355.20179542335308
 20
107.71458806218328
 11
357.92437579180745
 21
110.43715605864654
  0
LINE
  8
_1-2_
  6
CONTINUOUS
 62
    7
 10
354.22648661845443
 20
108.15348444758236
 11
356.9490669869088
 21
110.87605244404561
  0
LINE
  8
_1-2_
  6
CONTINUOUS
 62
    7
 10
353.25117781355578
 20
108.59238083298142
 11
355.97370869404563
 21
111.31494882944469
  0
LINE
  8
_1-2_
  6
CONTINUOUS
 62
    7
 10
352.27586900865714
 20
109.0312772183805
 11
354.99839988914698
 21
111.75384521484375
  0
LINE
  8
_1-2_
  6
CONTINUOUS
 62
    7
 10
351.30051071579396
 20
109.47017360377957
 11
354.02306634026604
 21
112.19274160024283
  0
LINE
  8
_1-2_
  6
CONTINUOUS
 62
    7
 10
350.32520191089532
 20
109.90906998917863
 11
353.0477575353674
 21
112.63162561365077
  0
LINE
  8
_1-2_
  6
CONTINUOUS
 62
    7
 10
349.34989310599661
 20
110.34796637457771
 11
352.07242398648651
 21
113.07053437104096
  0
LINE
  8
_1-2_
  6
CONTINUOUS
 62
    7
 10
348.37455955711573
 20
110.78685038798565
 11
351.09711518158787
 21
113.50941838444891
  0
LINE
  8
_1-2_
  6
CONTINUOUS
 62
    7
 10
347.39922600823479
 20
111.22575914537585
 11
350.12178163270693
 21
113.94831476984798
  0
LINE
  8
_1-2_
  6
CONTINUOUS
 62
    7
 10
346.42391720333615
 20
111.66464315878379
 11
349.14647282780828
 21
114.38721115524704
  0
LINE
  8
_1-2_
  6
CONTINUOUS
 62
    7
 10
345.44855891047297
 20
112.103551916174
 11
348.1711392789274
 21
114.82610754064612
  0
LINE
  8
_1-2_
  6
CONTINUOUS
 62
    7
 10
344.47325010557432
 20
112.54243592958193
 11
347.19583047402875
 21
115.2650039260452
  0
LINE
  8
_1-2_
  6
CONTINUOUS
 62
    7
 10
343.49791655669344
 20
112.98134468697214
 11
346.22047218116558
 21
115.70390031144426
  0
LINE
  8
_1-2_
  6
CONTINUOUS
 62
    7
 10
342.52263249577703
 20
113.42022870038008
 11
345.24516337626693
 21
116.14279669684333
  0
LINE
  8
_1-2_
  6
CONTINUOUS
 62
    7
 10
341.54727420291385
 20
113.85913745777027
 11
344.26982982738599
 21
116.58169308224241
  0
LINE
  8
_1-2_
  6
CONTINUOUS
 62
    7
 10
340.57196539801521
 20
114.29802147117822
 11
343.29452102248734
 21
117.02058946764147
  0
LINE
  8
_1-2_
  6
CONTINUOUS
 62
    7
 10
339.59663184913433
 20
114.73693022856843
 11
342.31918747360646
 21
117.45948585304055
  0
LINE
  8
_1-2_
  6
CONTINUOUS
 62
    7
 10
338.62132304423568
 20
115.17581424197635
 11
341.34387866870782
 21
117.89836986644849
  0
LINE
  8
_1-2_
  6
CONTINUOUS
 62
    7
 10
337.64598949535474
 20
115.61472299936656
 11
340.36854511982688
 21
118.33727862383869
  0
LINE
  8
_1-2_
  6
CONTINUOUS
 62
    7
 10
336.67068069045609
 20
116.05360701277451
 11
339.39323631492823
 21
118.77616263724663
  0
LINE
  8
_1-2_
  6
CONTINUOUS
 62
    7
 10
335.69532239759292
 20
116.4925157701647
 11
338.41790276604729
 21
119.21507139463684
  0
LINE
  8
_1-2_
  6
CONTINUOUS
 62
    7
 10
334.72003833667657
 20
116.93139978357264
 11
337.44259396114865
 21
119.65395540804477
  0
LINE
  8
_1-2_
  6
CONTINUOUS
 62
    7
 10
333.74470478779563
 20
117.37029616897171
 11
336.46723566828547
 21
120.09286416543497
  0
LINE
  8
_1-2_
  6
CONTINUOUS
 62
    7
 10
332.76939598289698
 20
117.80919255437078
 11
335.49195160736912
 21
120.53174817884292
  0
LINE
  8
_1-2_
  6
CONTINUOUS
 62
    7
 10
331.7940376900338
 20
118.24808893976986
 11
334.51661805848818
 21
120.97064456424198
  0
LINE
  8
_1-2_
  6
CONTINUOUS
 62
    7
 10
330.81872888513516
 20
118.68698532516892
 11
333.54128450960729
 21
121.40954094964106
  0
LINE
  8
_1-2_
  6
CONTINUOUS
 62
    7
 10
329.84342008023651
 20
119.12586933857686
 11
332.56595096072635
 21
121.84843733504013
  0
LINE
  8
_1-2_
  6
CONTINUOUS
 62
    7
 10
328.86811127533787
 20
119.56476572397594
 11
331.59064215582771
 21
122.28732134844806
  0
LINE
  8
_1-2_
  6
CONTINUOUS
 62
    7
 10
327.89277772645693
 20
120.003662109375
 11
330.61533335092906
 21
122.72623010583827
  0
LINE
  8
_1-2_
  6
CONTINUOUS
 62
    7
 10
326.91744417757604
 20
120.44255849477408
 11
329.64002454603042
 21
123.16511411924621
  0
LINE
  8
_1-2_
  6
CONTINUOUS
 62
    7
 10
325.9421106286951
 20
120.88145488017315
 11
328.66466625316724
 21
123.60401050464527
  0
LINE
  8
_1-2_
  6
CONTINUOUS
 62
    7
 10
324.96682656777875
 20
121.32033889358109
 11
327.68935744826859
 21
124.04290689004435
  0
LINE
  8
_1-2_
  6
CONTINUOUS
 62
    7
 10
323.99146827491558
 20
121.75924765097129
 11
326.71402389938771
 21
124.48180327544343
  0
LINE
  8
_1-2_
  6
CONTINUOUS
 62
    7
 10
323.01615947001693
 20
122.19813166437923
 11
325.7387398384713
 21
124.92068728885135
  0
LINE
  8
_1-2_
  6
CONTINUOUS
 62
    7
 10
322.04085066511828
 20
122.63704042176943
 11
324.76338154560813
 21
125.35959604624156
  0
LINE
  8
_1-2_
  6
CONTINUOUS
 62
    7
 10
321.06549237225511
 20
123.0759368071685
 11
323.78807274070948
 21
125.79848005964951
  0
LINE
  8
_1-2_
  6
CONTINUOUS
 62
    7
 10
320.09018356735646
 20
123.51482082057645
 11
322.81276393581084
 21
126.23737644504857
  0
LINE
  8
_1-2_
  6
CONTINUOUS
 62
    7
 10
319.11487476245782
 20
123.95371720597551
 11
321.8374303869299
 21
126.67627283044764
  0
LINE
  8
_1-2_
  6
CONTINUOUS
 62
    7
 10
318.13954121357688
 20
124.39261359137458
 11
320.86209683804901
 21
127.11518158783784
  0
LINE
  8
_1-2_
  6
CONTINUOUS
 62
    7
 10
317.16423240867823
 20
124.83150997677366
 11
319.88678803315037
 21
127.55406560124578
  0
LINE
  8
_1-2_
  6
CONTINUOUS
 62
    7
 10
316.18889885979729
 20
125.27041873416385
 11
318.91147922825172
 21
127.99296198664486
  0
LINE
  8
_1-2_
  6
CONTINUOUS
 62
    7
 10
315.21359005489865
 20
125.7093027475718
 11
317.93614567937078
 21
128.43185837204393
  0
LINE
  8
_1-2_
  6
CONTINUOUS
 62
    7
 10
314.23823176203547
 20
126.14819913297087
 11
316.9608121304899
 21
128.870754757443
  0
LINE
  8
_1-2_
  6
CONTINUOUS
 62
    7
 10
313.26292295713682
 20
126.58709551836994
 11
315.98547858160896
 21
129.30965114284206
  0
LINE
  8
_1-2_
  6
CONTINUOUS
 62
    7
 10
312.28758940825594
 20
127.02599190376901
 11
315.01014503272808
 21
129.74854752824115
  0
LINE
  8
_1-2_
  6
CONTINUOUS
 62
    7
 10
311.312255859375
 20
127.46488828916809
 11
314.03483622782943
 21
130.18744391364021
  0
LINE
  8
_1-2_
  6
CONTINUOUS
 62
    7
 10
310.33694705447635
 20
127.90378467456715
 11
313.05950267894849
 21
130.62634029903927
  0
LINE
  8
_1-2_
  6
CONTINUOUS
 62
    7
 10
309.36163824957771
 20
128.34268105996622
 11
312.08416913006761
 21
131.06523668443836
  0
LINE
  8
_1-2_
  6
CONTINUOUS
 62
    7
 10
308.38630470069683
 20
128.78156507337417
 11
311.10886032516896
 21
131.5041206978463
  0
LINE
  8
_1-2_
  6
CONTINUOUS
 62
    7
 10
307.41097115181589
 20
129.22047383076438
 11
310.13355152027026
 21
131.94302945523648
  0
LINE
  8
_1-2_
  6
CONTINUOUS
 62
    7
 10
306.43566234691724
 20
129.65937021616344
 11
309.15821797138938
 21
132.38192584063557
  0
LINE
  8
_1-2_
  6
CONTINUOUS
 62
    7
 10
305.46030405405406
 20
130.0982666015625
 11
308.18288442250844
 21
132.82082222603464
  0
LINE
  8
_1-2_
  6
CONTINUOUS
 62
    7
 10
304.48501999313771
 20
130.53715061497044
 11
307.20757561760979
 21
133.25970623944258
  0
LINE
  8
_1-2_
  6
CONTINUOUS
 62
    7
 10
303.50968644425677
 20
130.97605937236065
 11
306.23224206872891
 21
133.69861499683279
  0
LINE
  8
_1-2_
  6
CONTINUOUS
 62
    7
 10
302.53437763935813
 20
131.41494338576859
 11
305.25690851984797
 21
134.13749901024073
  0
LINE
  8
_1-2_
  6
CONTINUOUS
 62
    7
 10
301.55904409047719
 20
131.8538521431588
 11
304.28159971494932
 21
134.57640776763091
  0
LINE
  8
_1-2_
  6
CONTINUOUS
 62
    7
 10
300.5837105415963
 20
132.29273615656672
 11
303.30626616606844
 21
135.01530415303
  0
LINE
  8
_1-2_
  6
CONTINUOUS
 62
    7
 10
299.60840173669766
 20
132.73163254196581
 11
302.33095736116979
 21
135.45418816643792
  0
LINE
  8
_1-2_
  6
CONTINUOUS
 62
    7
 10
298.63306818781672
 20
133.17052892736487
 11
301.35562381228885
 21
135.89308455183701
  0
LINE
  8
_1-2_
  6
CONTINUOUS
 62
    7
 10
297.65775938291807
 20
133.60942531276393
 11
300.38031500739021
 21
136.33198093723607
  0
LINE
  8
_1-2_
  6
CONTINUOUS
 62
    7
 10
296.68242583403719
 20
134.04832169816302
 11
299.40498145850933
 21
136.77087732263513
  0
LINE
  8
_1-2_
  6
CONTINUOUS
 62
    7
 10
295.70709228515625
 20
134.48721808356208
 11
298.42964790962839
 21
137.20977370803422
  0
LINE
  8
_1-2_
  6
CONTINUOUS
 62
    7
 10
294.7317834802576
 20
134.92611446896115
 11
297.45433910472974
 21
137.64867009343328
  0
LINE
  8
_1-2_
  6
CONTINUOUS
 62
    7
 10
293.75644993137672
 20
135.36501085436024
 11
296.47900555584886
 21
138.08756647883234
  0
LINE
  8
_1-2_
  6
CONTINUOUS
 62
    7
 10
292.78114112647808
 20
135.80389486776818
 11
295.50369675095021
 21
138.52646286423143
  0
LINE
  8
_1-2_
  6
CONTINUOUS
 62
    7
 10
291.80580757759714
 20
136.24279125316724
 11
294.52836320206927
 21
138.96534687763938
  0
LINE
  8
_1-2_
  6
CONTINUOUS
 62
    7
 10
290.83049877269849
 20
136.6816876385663
 11
293.55305439717063
 21
139.40424326303844
  0
LINE
  8
_1-2_
  6
CONTINUOUS
 62
    7
 10
289.85516522381761
 20
137.12058402396539
 11
292.57772084828969
 21
139.8431396484375
  0
LINE
  8
_1-2_
  6
CONTINUOUS
 62
    7
 10
288.87985641891896
 20
137.55948040936445
 11
291.6023872994088
 21
140.28203603383659
  0
LINE
  8
_1-2_
  6
CONTINUOUS
 62
    7
 10
287.90452287003802
 20
137.99837679476352
 11
290.62707849451016
 21
140.72093241923565
  0
LINE
  8
_1-2_
  6
CONTINUOUS
 62
    7
 10
286.92918932115708
 20
138.43727318016261
 11
289.65176968961151
 21
141.15982880463471
  0
LINE
  8
_1-2_
  6
CONTINUOUS
 62
    7
 10
285.95388051625844
 20
138.87616956556167
 11
288.67643614073057
 21
141.5987251900338
  0
LINE
  8
_1-2_
  6
CONTINUOUS
 62
    7
 10
284.97857171135979
 20
139.31505357896961
 11
287.70110259184969
 21
142.03760920344172
  0
LINE
  8
_1-2_
  6
CONTINUOUS
 62
    7
 10
284.00323816247891
 20
139.75394996436867
 11
286.72579378695104
 21
142.47650558884081
  0
LINE
  8
_1-2_
  6
CONTINUOUS
 62
    7
 10
283.02792935758026
 20
140.19284634976773
 11
285.7504849820524
 21
142.91540197423987
  0
LINE
  8
_1-2_
  6
CONTINUOUS
 62
    7
 10
282.05262055268162
 20
140.63173036317568
 11
284.77517617715375
 21
143.35428598764781
  0
LINE
  8
_1-2_
  6
CONTINUOUS
 62
    7
 10
281.07728700380068
 20
141.07062674857477
 11
283.79984262827281
 21
143.79319474503802
  0
LINE
  8
_1-2_
  6
CONTINUOUS
 62
    7
 10
280.10197819890203
 20
141.50952313397383
 11
282.82453382337417
 21
144.23207875844597
  0
LINE
  8
_1-2_
  6
CONTINUOUS
 62
    7
 10
279.12666939400339
 20
141.94840714738177
 11
281.84920027449328
 21
144.67097514384503
  0
LINE
  8
_1-2_
  6
CONTINUOUS
 62
    7
 10
278.15136058910474
 20
142.38730353278083
 11
280.87389146959458
 21
145.10985915725297
  0
LINE
  8
_1-2_
  6
CONTINUOUS
 62
    7
 10
277.17602704022386
 20
142.8261999181799
 11
279.89858266469594
 21
145.54875554265203
  0
LINE
  8
_1-2_
  6
CONTINUOUS
 62
    7
 10
276.20069349134292
 20
143.26509630357899
 11
278.92327385979729
 21
145.98765192805109
  0
LINE
  8
_1-2_
  6
CONTINUOUS
 62
    7
 10
275.22540943042651
 20
143.70398031698693
 11
277.94796505489865
 21
146.42653594145904
  0
LINE
  8
_1-2_
  6
CONTINUOUS
 62
    7
 10
274.25007588154563
 20
144.14287670238599
 11
276.97263150601776
 21
146.86543232685813
  0
LINE
  8
_1-2_
  6
CONTINUOUS
 62
    7
 10
273.27476707664698
 20
144.58177308778505
 11
275.99729795713682
 21
147.30432871225719
  0
LINE
  8
_1-2_
  6
CONTINUOUS
 62
    7
 10
272.29943352776604
 20
145.02066947318414
 11
275.02198915223818
 21
147.74321272566513
  0
LINE
  8
_1-2_
  6
CONTINUOUS
 62
    7
 10
271.32414946684969
 20
145.45955348659206
 11
274.04668034733953
 21
148.18210911106419
  0
LINE
  8
_1-2_
  6
CONTINUOUS
 62
    7
 10
270.34881591796875
 20
145.8984375
 11
273.07137154244089
 21
148.62099312447214
  0
LINE
  8
_1-2_
  6
CONTINUOUS
 62
    7
 10
269.37348236908787
 20
146.33734625739021
 11
272.09606273754224
 21
149.05990188186234
  0
LINE
  8
_1-2_
  6
CONTINUOUS
 62
    7
 10
268.39817356418922
 20
146.77623027079815
 11
271.12072918866136
 21
149.49878589527029
  0
LINE
  8
_1-2_
  6
CONTINUOUS
 62
    7
 10
267.42286475929058
 20
147.21512665619721
 11
270.14539563978042
 21
149.93768228066935
  0
LINE
  8
_1-2_
  6
CONTINUOUS
 62
    7
 10
266.44753121040964
 20
147.6540230415963
 11
269.17008683488177
 21
150.37657866606841
  0
LINE
  8
_1-2_
  6
CONTINUOUS
 62
    7
 10
265.47222240551099
 20
148.09290705500422
 11
268.19477802998313
 21
150.81546267947635
  0
LINE
  8
_1-2_
  6
CONTINUOUS
 62
    7
 10
264.49691360061234
 20
148.53180344040331
 11
267.21946922508448
 21
151.25435906487544
  0
LINE
  8
_1-2_
  6
CONTINUOUS
 62
    7
 10
263.5216047957137
 20
148.97069982580237
 11
266.24416042018584
 21
151.69325545027451
  0
LINE
  8
_1-2_
  6
CONTINUOUS
 62
    7
 10
262.54627124683276
 20
149.40958383921031
 11
265.2688268713049
 21
152.13213946368245
  0
LINE
  8
_1-2_
  6
CONTINUOUS
 62
    7
 10
261.57096244193411
 20
149.84848022460937
 11
264.29351806640625
 21
152.57103584908151
  0
LINE
  8
_1-2_
  6
CONTINUOUS
 62
    7
 10
260.59562889305323
 20
150.28737661000847
 11
263.31818451752537
 21
153.00993223448057
  0
LINE
  8
_1-2_
  6
CONTINUOUS
 62
    7
 10
259.62034483213682
 20
150.72626062341638
 11
262.34287571262672
 21
153.44881624788852
  0
LINE
  8
_1-2_
  6
CONTINUOUS
 62
    7
 10
258.64501128325594
 20
151.16515700881547
 11
261.36756690772808
 21
153.88771263328761
  0
LINE
  8
_1-2_
  6
CONTINUOUS
 62
    7
 10
257.669677734375
 20
151.60405339421453
 11
260.39225810282943
 21
154.32660901868667
  0
LINE
  8
_1-2_
  6
CONTINUOUS
 62
    7
 10
256.69436892947635
 20
152.04293740762247
 11
259.41694929793078
 21
154.76549303209461
  0
LINE
  8
_1-2_
  6
CONTINUOUS
 62
    7
 10
255.71906012457771
 20
152.48183379302154
 11
258.44159100506761
 21
155.20440178948482
  0
LINE
  8
_1-2_
  6
CONTINUOUS
 62
    7
 10
254.7437265756968
 20
152.92073017842063
 11
257.46628220016891
 21
155.64328580289273
  0
LINE
  8
_1-2_
  6
CONTINUOUS
 62
    7
 10
253.76844251478042
 20
153.35961419182857
 11
256.49097339527026
 21
156.08216981630068
  0
LINE
  8
_1-2_
  6
CONTINUOUS
 62
    7
 10
252.79310896589951
 20
153.79851057722763
 11
255.51566459037164
 21
156.52107857369089
  0
LINE
  8
_1-2_
  6
CONTINUOUS
 62
    7
 10
251.81777541701859
 20
154.23740696262669
 11
254.540355785473
 21
156.95996258709883
  0
LINE
  8
_1-2_
  6
CONTINUOUS
 62
    7
 10
250.84246661211995
 20
154.67630334802575
 11
253.56504698057435
 21
157.39884660050677
  0
LINE
  8
_1-2_
  6
CONTINUOUS
 62
    7
 10
249.8671578072213
 20
155.11519973342484
 11
252.58971343169344
 21
157.83775535789698
  0
LINE
  8
_1-2_
  6
CONTINUOUS
 62
    7
 10
248.89182425834039
 20
155.55408374683279
 11
251.6143798828125
 21
158.2766393713049
  0
LINE
  8
_1-2_
  6
CONTINUOUS
 62
    7
 10
247.91654019742401
 20
155.99296776024073
 11
250.63907107791385
 21
158.71552338471284
  0
LINE
  8
_1-2_
  6
CONTINUOUS
 62
    7
 10
246.9412066485431
 20
156.43187651763091
 11
249.66376227301521
 21
159.15443214210305
  0
LINE
  8
_1-2_
  6
CONTINUOUS
 62
    7
 10
245.96587309966219
 20
156.87076053103885
 11
248.68845346811656
 21
159.59331615551099
  0
LINE
  8
_1-2_
  6
CONTINUOUS
 62
    7
 10
244.99056429476352
 20
157.30965691643794
 11
247.71314466321792
 21
160.03220016891893
  0
LINE
  8
_1-2_
  6
CONTINUOUS
 62
    7
 10
244.01525548986487
 20
157.74855330183701
 11
246.73781111433701
 21
160.47110892630914
  0
LINE
  8
_1-2_
  6
CONTINUOUS
 62
    7
 10
243.03994668496622
 20
158.18743731524495
 11
245.76247756545609
 21
160.90999293971706
  0
LINE
  8
_1-2_
  6
CONTINUOUS
 62
    7
 10
242.06461313608531
 20
158.62633370064401
 11
244.78716876055745
 21
161.34888932511615
  0
LINE
  8
_1-2_
  6
CONTINUOUS
 62
    7
 10
241.08930433118667
 20
159.06523008604307
 11
243.8118599556588
 21
161.78777333852409
  0
LINE
  8
_1-2_
  6
CONTINUOUS
 62
    7
 10
240.11399552628802
 20
159.50411409945102
 11
242.83655115076016
 21
162.22666972392315
  0
LINE
  8
_1-2_
  6
CONTINUOUS
 62
    7
 10
239.13866197740711
 20
159.94301048485011
 11
241.86124234586151
 21
162.66555373733109
  0
LINE
  8
_1-2_
  6
CONTINUOUS
 62
    7
 10
238.16335317250847
 20
160.38190687024917
 11
240.8859087969806
 21
163.1044624947213
  0
LINE
  8
_1-2_
  6
CONTINUOUS
 62
    7
 10
237.18804436760982
 20
160.82079088365711
 11
239.91059999208193
 21
163.54334650812922
  0
LINE
  8
_1-2_
  6
CONTINUOUS
 62
    7
 10
236.21271081872891
 20
161.25968726905617
 11
238.93526644320102
 21
163.98225526551943
  0
LINE
  8
_1-2_
  6
CONTINUOUS
 62
    7
 10
235.23740201383026
 20
161.69858365445523
 11
237.95995763830237
 21
164.42113927892737
  0
LINE
  8
_1-2_
  6
CONTINUOUS
 62
    7
 10
234.26209320893159
 20
162.13746766786318
 11
236.98464883340372
 21
164.86002329233531
  0
LINE
  8
_1-2_
  6
CONTINUOUS
 62
    7
 10
233.28678440403294
 20
162.57636405326227
 11
236.00934002850508
 21
165.29890730574326
  0
LINE
  8
_1-2_
  6
CONTINUOUS
 62
    7
 10
232.31145085515203
 20
163.01526043866133
 11
235.0339817356419
 21
165.73781606313347
  0
LINE
  8
_1-2_
  6
CONTINUOUS
 62
    7
 10
231.33611730627112
 20
163.45415682406039
 11
234.05867293074326
 21
166.17671244853253
  0
LINE
  8
_1-2_
  6
CONTINUOUS
 62
    7
 10
230.36080850137247
 20
163.89305320945948
 11
233.08336412584461
 21
166.61560883393159
  0
LINE
  8
_1-2_
  6
CONTINUOUS
 62
    7
 10
229.38547495249156
 20
164.33194959485854
 11
232.1080305769637
 21
167.05450521933068
  0
LINE
  8
_1-2_
  6
CONTINUOUS
 62
    7
 10
228.41016614759292
 20
164.7708459802576
 11
231.13272177206505
 21
167.49340160472974
  0
LINE
  8
_1-2_
  6
CONTINUOUS
 62
    7
 10
227.43483259871201
 20
165.20972999366555
 11
230.15738822318414
 21
167.93228561813768
  0
LINE
  8
_1-2_
  6
CONTINUOUS
 62
    7
 10
226.45952379381336
 20
165.64862637906461
 11
229.1820794182855
 21
168.37118200353675
  0
LINE
  8
_1-2_
  6
CONTINUOUS
 62
    7
 10
225.48419024493245
 20
166.0875227644637
 11
228.20677061338682
 21
168.81007838893581
  0
LINE
  8
_1-2_
  6
CONTINUOUS
 62
    7
 10
224.5088814400338
 20
166.52641914986276
 11
227.23143706450591
 21
169.24896240234375
  0
LINE
  8
_1-2_
  6
CONTINUOUS
 62
    7
 10
223.53357263513516
 20
166.9653031632707
 11
226.256103515625
 21
169.68787115973396
  0
LINE
  8
_1-2_
  6
CONTINUOUS
 62
    7
 10
222.55823908625425
 20
167.40419954866977
 11
225.28079471072635
 21
170.1267551731419
  0
LINE
  8
_1-2_
  6
CONTINUOUS
 62
    7
 10
221.58293028135557
 20
167.84309593406886
 11
224.30548590582771
 21
170.56565155854096
  0
LINE
  8
_1-2_
  6
CONTINUOUS
 62
    7
 10
220.60762147645693
 20
168.28199231946792
 11
223.33017710092906
 21
171.00454794394005
  0
LINE
  8
_1-2_
  6
CONTINUOUS
 62
    7
 10
219.63228792757602
 20
168.72087633287586
 11
222.35484355204815
 21
171.44343195734797
  0
LINE
  8
_1-2_
  6
CONTINUOUS
 62
    7
 10
218.6569543786951
 20
169.15977271827492
 11
221.37951000316724
 21
171.88232834274706
  0
LINE
  8
_1-2_
  6
CONTINUOUS
 62
    7
 10
217.68164557379646
 20
169.59866910367398
 11
220.40420119826859
 21
172.32122472814612
  0
LINE
  8
_1-2_
  6
CONTINUOUS
 62
    7
 10
216.70631202491555
 20
170.03756548907307
 11
219.42889239336995
 21
172.76010874155406
  0
LINE
  8
_1-2_
  6
CONTINUOUS
 62
    7
 10
215.7310032200169
 20
170.47646187447214
 11
218.45355884448904
 21
173.19901749894427
  0
LINE
  8
_1-2_
  6
CONTINUOUS
 62
    7
 10
214.75569441511826
 20
170.9153582598712
 11
217.47825003959039
 21
173.63790151235222
  0
LINE
  8
_1-2_
  6
CONTINUOUS
 62
    7
 10
213.78036086623734
 20
171.35424227327914
 11
216.50291649070948
 21
174.0768102697424
  0
LINE
  8
_1-2_
  6
CONTINUOUS
 62
    7
 10
212.8050520613387
 20
171.79313865867823
 11
215.52758294182857
 21
174.51570665514149
  0
LINE
  8
_1-2_
  6
CONTINUOUS
 62
    7
 10
211.82971851245779
 20
172.23203504407729
 11
214.55227413692992
 21
174.95460304054055
  0
LINE
  8
_1-2_
  6
CONTINUOUS
 62
    7
 10
210.85440970755914
 20
172.67093142947635
 11
213.57696533203125
 21
175.39348705394849
  0
LINE
  8
_1-2_
  6
CONTINUOUS
 62
    7
 10
209.87907615867823
 20
173.10982781487544
 11
212.60163178315034
 21
175.83238343934755
  0
LINE
  8
_1-2_
  6
CONTINUOUS
 62
    7
 10
208.90376735377959
 20
173.54871182828336
 11
211.62634772223396
 21
176.27125508076438
  0
LINE
  8
_1-2_
  6
CONTINUOUS
 62
    7
 10
207.92845854888091
 20
173.98760821368245
 11
210.65101417335305
 21
176.71016383815456
  0
LINE
  8
_1-2_
  6
CONTINUOUS
 62
    7
 10
206.953125
 20
174.42650459908151
 11
209.67568062447214
 21
177.14906022355365
  0
LINE
  8
_1-2_
  6
CONTINUOUS
 62
    7
 10
205.97780382311024
 20
174.86540098448057
 11
208.70037181957349
 21
177.58795660895271
  0
LINE
  8
_1-2_
  6
CONTINUOUS
 62
    7
 10
205.00248264622044
 20
175.30429736987966
 11
207.72503827069258
 21
178.02684062236065
  0
LINE
  8
_1-2_
  6
CONTINUOUS
 62
    7
 10
203.54095458984375
 20
175.25697450380068
 11
206.74972946579393
 21
178.46573700775971
  0
LINE
  8
_1-2_
  6
CONTINUOUS
 62
    7
 10
200.96965892894849
 20
174.09989640519427
 11
205.77440828890414
 21
178.9046333931588
  0
LINE
  8
_1-2_
  6
CONTINUOUS
 62
    7
 10
198.39836326805323
 20
172.94280593459672
 11
204.79908711201438
 21
179.34351740656675
  0
LINE
  8
_1-2_
  6
CONTINUOUS
 62
    7
 10
195.82704286317568
 20
171.78571546399917
 11
203.00467826224664
 21
178.9633508630701
  0
LINE
  8
_1-2_
  6
CONTINUOUS
 62
    7
 10
193.25573483028927
 20
170.62862499340162
 11
200.43338260135135
 21
177.8062727644637
  0
LINE
  8
_1-2_
  6
CONTINUOUS
 62
    7
 10
190.68442679740289
 20
169.47153452280406
 11
197.86208694045609
 21
176.64918229386615
  0
LINE
  8
_1-2_
  6
CONTINUOUS
 62
    7
 10
188.11314350849875
 20
168.31445642419766
 11
195.29080365155195
 21
175.49210419525971
  0
LINE
  8
_1-2_
  6
CONTINUOUS
 62
    7
 10
185.54184784760346
 20
167.15737832559122
 11
192.71950799065669
 21
174.33502609665331
  0
LINE
  8
_1-2_
  6
CONTINUOUS
 62
    7
 10
182.97057693069047
 20
166.00030022698482
 11
190.14821232976141
 21
173.17793562605576
  0
LINE
  8
_1-2_
  6
CONTINUOUS
 62
    7
 10
180.39928126979518
 20
164.84322212837839
 11
187.57694141284841
 21
172.02086989944047
  0
LINE
  8
_1-2_
  6
CONTINUOUS
 62
    7
 10
177.8279732369088
 20
163.68613165778083
 11
185.00563337996201
 21
170.86377942884292
  0
LINE
  8
_1-2_
  6
CONTINUOUS
 62
    7
 10
175.25668994800466
 20
162.52904118718328
 11
182.4343253470756
 21
169.70668895824537
  0
LINE
  8
_1-2_
  6
CONTINUOUS
 62
    7
 10
172.68538191511826
 20
161.37196308857688
 11
179.86301731418919
 21
168.54959848764781
  0
LINE
  8
_1-2_
  6
CONTINUOUS
 62
    7
 10
170.11406151024073
 20
160.21486024598818
 11
177.29170928130279
 21
167.39250801705026
  0
LINE
  8
_1-2_
  6
CONTINUOUS
 62
    7
 10
167.54279059332771
 20
159.05779451937289
 11
174.72042599239865
 21
166.23544229043497
  0
LINE
  8
_1-2_
  6
CONTINUOUS
 62
    7
 10
164.97147018845018
 20
157.90070404877534
 11
172.14910558752112
 21
165.0783394478463
  0
LINE
  8
_1-2_
  6
CONTINUOUS
 62
    7
 10
162.40016215556378
 20
156.74360120618667
 11
169.57780992662586
 21
163.92126134923987
  0
LINE
  8
_1-2_
  6
CONTINUOUS
 62
    7
 10
159.82885412267737
 20
155.58652310758023
 11
167.00651426573057
 21
162.76418325063347
  0
LINE
  8
_1-2_
  6
CONTINUOUS
 62
    7
 10
157.25757083377323
 20
154.42944500897383
 11
164.43520623284419
 21
161.60708040804477
  0
LINE
  8
_1-2_
  6
CONTINUOUS
 62
    7
 10
154.68628754486909
 20
153.2723669103674
 11
161.86394768792232
 21
160.45001468142948
  0
LINE
  8
_1-2_
  6
CONTINUOUS
 62
    7
 10
152.11497951198268
 20
152.11528881176099
 11
159.29262728304477
 21
159.29292421083193
  0
LINE
  8
_1-2_
  6
CONTINUOUS
 62
    7
 10
149.54370859506969
 20
150.95821071315456
 11
156.72135636613177
 21
158.13584611222552
  0
LINE
  8
_1-2_
  6
CONTINUOUS
 62
    7
 10
146.97240056218328
 20
149.801120242557
 11
154.15004833324537
 21
156.97876801361909
  0
LINE
  8
_1-2_
  6
CONTINUOUS
 62
    7
 10
144.40110490128802
 20
148.64402977195948
 11
151.57874030035896
 21
155.82167754302154
  0
LINE
  8
_1-2_
  6
CONTINUOUS
 62
    7
 10
141.82980924039273
 20
147.48695167335305
 11
149.0074446394637
 21
154.66459944441513
  0
LINE
  8
_1-2_
  6
CONTINUOUS
 62
    7
 10
139.25850120750636
 20
146.3298612027555
 11
146.43613660657729
 21
153.50750897381758
  0
LINE
  8
_1-2_
  6
CONTINUOUS
 62
    7
 10
136.68720554661107
 20
145.17277073215794
 11
143.864840945682
 21
152.35041850322003
  0
LINE
  8
_1-2_
  6
CONTINUOUS
 62
    7
 10
134.11590988571581
 20
144.01569263355154
 11
141.29354528478675
 21
151.19332803262247
  0
LINE
  8
_1-2_
  6
CONTINUOUS
 62
    7
 10
131.54458948083825
 20
142.85860216295399
 11
138.72223725190034
 21
150.03624993401607
  0
LINE
  8
_1-2_
  6
CONTINUOUS
 62
    7
 10
128.97328144795188
 20
141.70151169235643
 11
136.15094159100508
 21
148.87917183540964
  0
LINE
  8
_1-2_
  6
CONTINUOUS
 62
    7
 10
126.40199815904772
 20
140.54443359375
 11
133.57964593010979
 21
147.72208136481208
  0
LINE
  8
_1-2_
  6
CONTINUOUS
 62
    7
 10
123.83071487014359
 20
139.38735549514359
 11
131.00836264120568
 21
146.56500326620568
  0
LINE
  8
_1-2_
  6
CONTINUOUS
 62
    7
 10
121.25941920924832
 20
138.23027739653716
 11
128.43705460831927
 21
145.40791279560813
  0
LINE
  8
_1-2_
  6
CONTINUOUS
 62
    7
 10
118.68812354835305
 20
137.07319929793076
 11
125.86578369140625
 21
144.25084706899284
  0
LINE
  8
_1-2_
  6
CONTINUOUS
 62
    7
 10
116.11684025944891
 20
135.9161088273332
 11
123.29447565851986
 21
143.09375659839529
  0
LINE
  8
_1-2_
  6
CONTINUOUS
 62
    7
 10
113.5455322265625
 20
134.75903072872677
 11
120.72316762563345
 21
141.93666612779774
  0
LINE
  8
_1-2_
  6
CONTINUOUS
 62
    7
 10
110.97422419367611
 20
133.60194025812922
 11
118.15187196473818
 21
140.7795880291913
  0
LINE
  8
_1-2_
  6
CONTINUOUS
 62
    7
 10
108.40292853278083
 20
132.44484978753167
 11
115.58057630384292
 21
139.62249755859375
  0
LINE
  8
_1-2_
  6
CONTINUOUS
 62
    7
 10
105.83163287188556
 20
131.28775931693414
 11
113.00928064294764
 21
138.4654070879962
  0
LINE
  8
_1-2_
  6
CONTINUOUS
 62
    7
 10
103.26032483899917
 20
130.13068121832771
 11
110.43797261006124
 21
137.30832898938979
  0
LINE
  8
_1-2_
  6
CONTINUOUS
 62
    7
 10
100.68903536409945
 20
128.9736031197213
 11
107.86667694916596
 21
136.15123851879224
  0
LINE
  8
_1-2_
  6
CONTINUOUS
 62
    7
 10
98.11773351720862
 20
127.81651264912374
 11
105.29536891627957
 21
134.99416042018581
  0
LINE
  8
_1-2_
  6
CONTINUOUS
 62
    7
 10
95.546425484322214
 20
126.65942217852619
 11
102.7240732553843
 21
133.83706994958825
  0
LINE
  8
_1-2_
  6
CONTINUOUS
 62
    7
 10
92.975142195418073
 20
125.50234407991977
 11
100.15277759448902
 21
132.67999185098185
  0
LINE
  8
_1-2_
  6
CONTINUOUS
 62
    7
 10
90.40384034852724
 20
124.34526598131335
 11
97.581494305584883
 21
131.5229013803843
  0
LINE
  8
_1-2_
  6
CONTINUOUS
 62
    7
 10
87.832532315640847
 20
123.18817551071579
 11
95.01018627269849
 21
130.36582328177789
  0
LINE
  8
_1-2_
  6
CONTINUOUS
 62
    7
 10
85.261267584723399
 20
122.03109741210937
 11
92.43890298379435
 21
129.20874518317146
  0
LINE
  8
_1-2_
  6
CONTINUOUS
 62
    7
 10
82.689953365841433
 20
120.87400694151184
 11
89.867607322899076
 21
128.05165471257391
  0
LINE
  8
_1-2_
  6
CONTINUOUS
 62
    7
 10
80.118657704946145
 20
119.71692884290542
 11
87.296311662003802
 21
126.89457661396749
  0
LINE
  8
_1-2_
  6
CONTINUOUS
 62
    7
 10
77.547362044050885
 20
118.559850744299
 11
84.72500362911741
 21
125.73748614336994
  0
LINE
  8
_1-2_
  6
CONTINUOUS
 62
    7
 10
74.976054011164479
 20
117.40276027370145
 11
82.153695596231003
 21
124.58039567277238
  0
LINE
  8
_1-2_
  6
CONTINUOUS
 62
    7
 10
72.404752164273646
 20
116.24566980310389
 11
79.582399935335729
 21
123.42331757416596
  0
LINE
  8
_1-2_
  6
CONTINUOUS
 62
    7
 10
69.833450317382813
 20
115.08857933250634
 11
77.01110427444047
 21
122.26622710356843
  0
LINE
  8
_1-2_
  6
CONTINUOUS
 62
    7
 10
67.262154656487553
 20
113.93150123389992
 11
74.439796241554063
 21
121.10914900496201
  0
LINE
  8
_1-2_
  6
CONTINUOUS
 62
    7
 10
64.690858995592293
 20
112.77441076330237
 11
71.868500580658804
 21
119.95205853436445
  0
LINE
  8
_1-2_
  6
CONTINUOUS
 62
    7
 10
62.119550962705887
 20
111.61733266469595
 11
69.297204919763516
 21
118.7949680637669
  0
LINE
  8
_1-2_
  6
CONTINUOUS
 62
    7
 10
59.548255301810599
 20
110.4602421940984
 11
66.725896886877109
 21
117.63788996516048
  0
LINE
  8
_1-2_
  6
CONTINUOUS
 62
    7
 10
56.976959640915339
 20
109.30316409549198
 11
64.154613597972968
 21
116.48081186655406
  0
LINE
  8
_1-2_
  6
CONTINUOUS
 62
    7
 10
54.405663980020051
 20
108.14607362489443
 11
61.583305565086562
 21
115.32372139595651
  0
LINE
  8
_1-2_
  6
CONTINUOUS
 62
    7
 10
51.834380691115939
 20
106.98899552628801
 11
59.012034648173568
 21
114.16665566934122
  0
LINE
  8
_1-2_
  6
CONTINUOUS
 62
    7
 10
49.263072658229532
 20
105.83191742768159
 11
56.440726615287161
 21
113.00955282675254
  0
LINE
  8
_1-2_
  6
CONTINUOUS
 62
    7
 10
46.691770811338699
 20
104.67482695708404
 11
53.869430954391902
 21
111.85247472814612
  0
LINE
  8
_1-2_
  6
CONTINUOUS
 62
    7
 10
44.120468964447866
 20
103.51774267248206
 11
51.298110549514377
 21
110.69538425754857
  0
LINE
  8
_1-2_
  6
CONTINUOUS
 62
    7
 10
41.549179489548152
 20
102.36065838788008
 11
48.726839632601354
 21
109.53830615894215
  0
LINE
  8
_1-2_
  6
CONTINUOUS
 62
    7
 10
38.977874549659532
 20
101.20357410327809
 11
46.155519227723829
 21
108.3812156883446
  0
LINE
  8
_1-2_
  6
CONTINUOUS
 62
    7
 10
36.406575795766457
 20
100.04648981867611
 11
43.584223566828541
 21
107.22413758973818
  0
LINE
  8
_1-2_
  6
CONTINUOUS
 62
    7
 10
33.835283227868985
 20
98.889405534074115
 11
41.012940277924429
 21
106.06705949113176
  0
LINE
  8
_1-2_
  6
CONTINUOUS
 62
    7
 10
31.263978287980365
 20
97.732321249472136
 11
38.441619873046875
 21
104.90995664854309
  0
LINE
  8
_1-2_
  6
CONTINUOUS
 62
    7
 10
28.692676441089532
 20
96.575230778874584
 11
35.870336584142734
 21
103.75287854993667
  0
LINE
  8
_1-2_
  6
CONTINUOUS
 62
    7
 10
26.121386966189817
 20
95.418152680268165
 11
33.299028551256328
 21
102.59579426533467
  0
LINE
  8
_1-2_
  6
CONTINUOUS
 62
    7
 10
24.199859000541068
 20
94.910839183910483
 11
30.727732890361068
 21
101.4387099807327
  0
LINE
  8
_1-2_
  6
CONTINUOUS
 62
    7
 10
23.760964161640885
 20
95.886160360800261
 11
28.15643722946578
 21
100.2816256961307
  0
LINE
  8
_1-2_
  6
CONTINUOUS
 62
    7
 10
23.322069322740703
 20
96.86148153769004
 11
25.585129196579402
 21
99.124541411528725
  0
LINE
  8
_1-2_
  6
CONTINUOUS
 62
    7
 10
22.883177576838307
 20
97.836796528584259
 11
23.013845907675261
 21
97.967463312922305
  0
LINE
  8
_1-2_
  6
CONTINUOUS
 62
    7
 10
23.301964837151615
 20
96.90615679766681
 11
25.203168714368672
 21
95.004952920449753
  0
LINE
  8
_1-2_
  6
CONTINUOUS
 62
    7
 10
23.455921894795182
 20
98.166398744325392
 11
26.178477519267318
 21
95.443843119853256
  0
LINE
  8
_1-2_
  6
CONTINUOUS
 62
    7
 10
24.431243071684975
 20
98.605288943728894
 11
27.153798696157082
 21
95.882739505252331
  0
LINE
  8
_1-2_
  6
CONTINUOUS
 62
    7
 10
25.406576620565886
 20
99.044191515123529
 11
28.129116780049088
 21
96.321629704655834
  0
LINE
  8
_1-2_
  6
CONTINUOUS
 62
    7
 10
26.381885425464532
 20
99.483075528531472
 11
29.104437956938881
 21
96.76052609005491
  0
LINE
  8
_1-2_
  6
CONTINUOUS
 62
    7
 10
27.357194230363177
 20
99.921965727934975
 11
30.079749854835313
 21
97.199416289458412
  0
LINE
  8
_1-2_
  6
CONTINUOUS
 62
    7
 10
28.33251540725297
 20
100.36086211333404
 11
31.055067938727291
 21
97.638306488861915
  0
LINE
  8
_1-2_
  6
CONTINUOUS
 62
    7
 10
29.307836584142734
 20
100.79975231273755
 11
32.030386022619297
 21
98.07720287426099
  0
LINE
  8
_1-2_
  6
CONTINUOUS
 62
    7
 10
30.283157761032527
 20
101.23864869813661
 11
33.005701013513516
 21
98.516093073664493
  0
LINE
  8
_1-2_
  6
CONTINUOUS
 62
    7
 10
31.258466565931172
 20
101.67754508353569
 11
33.981019097405522
 21
98.954983273067995
  0
LINE
  8
_1-2_
  6
CONTINUOUS
 62
    7
 10
32.233787742820937
 20
102.11643528293919
 11
34.956337181297499
 21
99.393879658467071
  0
LINE
  8
_1-2_
  6
CONTINUOUS
 62
    7
 10
33.209096547719582
 20
102.5553254823427
 11
35.931652172191718
 21
99.832769857870574
  0
LINE
  8
_1-2_
  6
CONTINUOUS
 62
    7
 10
34.184417724609375
 20
102.99422186774177
 11
36.906970256083724
 21
100.27166624326964
  0
LINE
  8
_1-2_
  6
CONTINUOUS
 62
    7
 10
35.159738901499168
 20
103.43311206714527
 11
37.88228833997573
 21
100.71055644267315
  0
LINE
  8
_1-2_
  6
CONTINUOUS
 62
    7
 10
36.135060078388932
 20
103.87200845254435
 11
38.857597144874376
 21
101.14944664207665
  0
LINE
  8
_1-2_
  6
CONTINUOUS
 62
    7
 10
37.110381255278725
 20
104.31090483794341
 11
39.83291832176414
 21
101.58834302747573
  0
LINE
  8
_1-2_
  6
CONTINUOUS
 62
    7
 10
38.085702432168489
 20
104.74978885135135
 11
40.808239498653933
 21
102.02723322687923
  0
LINE
  8
_1-2_
  6
CONTINUOUS
 62
    7
 10
39.060998865076016
 20
105.1886728647593
 11
41.783551396550365
 21
102.46612961227829
  0
LINE
  8
_1-2_
  6
CONTINUOUS
 62
    7
 10
40.03632004196578
 20
105.62758162214949
 11
42.758869480442343
 21
102.90501981168181
  0
LINE
  8
_1-2_
  6
CONTINUOUS
 62
    7
 10
41.011641218855573
 20
106.06646563555744
 11
43.734190657332135
 21
103.34391619708087
  0
LINE
  8
_1-2_
  6
CONTINUOUS
 62
    7
 10
41.986962395745365
 20
106.50536202095651
 11
44.709511834221928
 21
103.78280639648437
  0
LINE
  8
_1-2_
  6
CONTINUOUS
 62
    7
 10
42.96228357263513
 20
106.94425840635559
 11
45.684833011111692
 21
104.22170278188345
  0
LINE
  8
_1-2_
  6
CONTINUOUS
 62
    7
 10
43.937604749524922
 20
107.38315479175465
 11
46.660157280999272
 21
104.66059916728253
  0
LINE
  8
_1-2_
  6
CONTINUOUS
 62
    7
 10
44.912925926414687
 20
107.82205117715372
 11
47.635481550886823
 21
105.09949555268159
  0
LINE
  8
_1-2_
  6
CONTINUOUS
 62
    7
 10
45.888247103304479
 20
108.26093519056167
 11
48.610802727776615
 21
105.53839193808066
  0
LINE
  8
_1-2_
  6
CONTINUOUS
 62
    7
 10
46.863568280194272
 20
108.69984394795186
 11
49.586126997664167
 21
105.97728832347974
  0
LINE
  8
_1-2_
  6
CONTINUOUS
 62
    7
 10
47.838889457084036
 20
109.13872796135981
 11
50.561451267551718
 21
106.4161847088788
  0
LINE
  8
_1-2_
  6
CONTINUOUS
 62
    7
 10
48.814235377956095
 20
109.57763671875
 11
51.53677244444151
 21
106.85508109427788
  0
LINE
  8
_1-2_
  6
CONTINUOUS
 62
    7
 10
49.78954418285474
 20
110.01652073215794
 11
52.512099807326877
 21
107.29397747967695
  0
LINE
  8
_1-2_
  6
CONTINUOUS
 62
    7
 10
50.764865359744505
 20
110.45542948954815
 11
53.487420984216641
 21
107.73287386507602
  0
LINE
  8
_1-2_
  6
CONTINUOUS
 62
    7
 10
51.740186536634297
 20
110.89431350295608
 11
54.462742161106405
 21
108.17175787848396
  0
LINE
  8
_1-2_
  6
CONTINUOUS
 62
    7
 10
52.715507713524062
 20
111.33320988835516
 11
55.438063337996198
 21
108.61065426388303
  0
LINE
  8
_1-2_
  6
CONTINUOUS
 62
    7
 10
53.690828890413854
 20
111.77210627375423
 11
56.41338451488599
 21
109.0495506492821
  0
LINE
  8
_1-2_
  6
CONTINUOUS
 62
    7
 10
54.666150067303647
 20
112.21100265915329
 11
57.388705691775755
 21
109.48844703468117
  0
LINE
  8
_1-2_
  6
CONTINUOUS
 62
    7
 10
55.64148361618453
 20
112.64989904455237
 11
58.364026868665547
 21
109.92734342008025
  0
LINE
  8
_1-2_
  6
CONTINUOUS
 62
    7
 10
56.616804793074323
 20
113.08879542995145
 11
59.339354231550885
 21
110.36623980547931
  0
LINE
  8
_1-2_
  6
CONTINUOUS
 62
    7
 10
57.592125969964115
 20
113.52769181535051
 11
60.314675408440678
 21
110.80513619087839
  0
LINE
  8
_1-2_
  6
CONTINUOUS
 62
    7
 10
58.567434774862761
 20
113.96657582875845
 11
61.289996585330442
 21
111.24403257627746
  0
LINE
  8
_1-2_
  6
CONTINUOUS
 62
    7
 10
59.542755951752554
 20
114.40547221415753
 11
62.26532394821578
 21
111.68292896167652
  0
LINE
  8
_1-2_
  6
CONTINUOUS
 62
    7
 10
60.518089500633437
 20
114.84436859955659
 11
63.240638939109999
 21
112.12181297508447
  0
LINE
  8
_1-2_
  6
CONTINUOUS
 62
    7
 10
61.493410677523229
 20
115.28326498495566
 11
64.215966301995365
 21
112.56072173247466
  0
LINE
  8
_1-2_
  6
CONTINUOUS
 62
    7
 10
62.468744226404141
 20
115.72216137035474
 11
65.191287478885158
 21
112.9996057458826
  0
LINE
  8
_1-2_
  6
CONTINUOUS
 62
    7
 10
63.444065403293905
 20
116.1610577557538
 11
66.166608655774922
 21
113.43850213128168
  0
LINE
  8
_1-2_
  6
CONTINUOUS
 62
    7
 10
64.419386580183698
 20
116.59995414115288
 11
67.14193601866026
 21
113.87739851668076
  0
LINE
  8
_1-2_
  6
CONTINUOUS
 62
    7
 10
65.39470775707349
 20
117.03886289854309
 11
68.117257195550053
 21
114.31629490207982
  0
LINE
  8
_1-2_
  6
CONTINUOUS
 62
    7
 10
66.370028933963283
 20
117.47774691195102
 11
69.092578372439846
 21
114.75519128747889
  0
LINE
  8
_1-2_
  6
CONTINUOUS
 62
    7
 10
67.345350110853047
 20
117.91664329735009
 11
70.067905735325155
 21
115.19408767287796
  0
LINE
  8
_1-2_
  6
CONTINUOUS
 62
    7
 10
68.320683659733959
 20
118.35553968274917
 11
71.043226912214948
 21
115.63298405827703
  0
LINE
  8
_1-2_
  6
CONTINUOUS
 62
    7
 10
69.296004836623752
 20
118.79443606814823
 11
72.01854808910474
 21
116.07188044367611
  0
LINE
  8
_1-2_
  6
CONTINUOUS
 62
    7
 10
70.271326013513516
 20
119.23333245354731
 11
72.993869265994533
 21
116.51077682907517
  0
LINE
  8
_1-2_
  6
CONTINUOUS
 62
    7
 10
71.24664719040328
 20
119.67221646695525
 11
73.969190442884297
 21
116.94966084248311
  0
LINE
  8
_1-2_
  6
CONTINUOUS
 62
    7
 10
72.221955995301926
 20
120.11112522434544
 11
74.944511619774062
 21
117.38855722788219
  0
LINE
  8
_1-2_
  6
CONTINUOUS
 62
    7
 10
73.197277172191718
 20
120.55000923775339
 11
75.919832796663854
 21
117.82745361328125
  0
LINE
  8
_1-2_
  6
CONTINUOUS
 62
    7
 10
74.172598349081511
 20
120.98890562315246
 11
76.895160159549221
 21
118.26634999868033
  0
LINE
  8
_1-2_
  6
CONTINUOUS
 62
    7
 10
75.147931897962422
 20
121.42780200855152
 11
77.870481336438985
 21
118.7052463840794
  0
LINE
  8
_1-2_
  6
CONTINUOUS
 62
    7
 10
76.123253074852187
 20
121.8666983939506
 11
78.845814885319896
 21
119.14414276947846
  0
LINE
  8
_1-2_
  6
CONTINUOUS
 62
    7
 10
77.098586623733127
 20
122.30559477934968
 11
79.821129876214115
 21
119.58303915487754
  0
LINE
  8
_1-2_
  6
CONTINUOUS
 62
    7
 10
78.073907800622891
 20
122.74449116474874
 11
80.796457239099453
 21
120.02193554027662
  0
LINE
  8
_1-2_
  6
CONTINUOUS
 62
    7
 10
79.049216605521536
 20
123.18338755014781
 11
81.771778415989218
 21
120.46083192567568
  0
LINE
  8
_1-2_
  6
CONTINUOUS
 62
    7
 10
80.024550154402448
 20
123.62228393554687
 11
82.747105778874584
 21
120.89972831107475
  0
LINE
  8
_1-2_
  6
CONTINUOUS
 62
    7
 10
80.99987133129224
 20
124.06118032094595
 11
83.722426955764362
 21
121.33862469647383
  0
LINE
  8
_1-2_
  6
CONTINUOUS
 62
    7
 10
81.975204880173152
 20
124.50007670634503
 11
84.697754318649714
 21
121.77752108187289
  0
LINE
  8
_1-2_
  6
CONTINUOUS
 62
    7
 10
82.95052605706293
 20
124.93897309174409
 11
85.673075495539493
 21
122.21641746727197
  0
LINE
  8
_1-2_
  6
CONTINUOUS
 62
    7
 10
83.925847233952709
 20
125.37785710515203
 11
86.648402858424831
 21
122.65531385267104
  0
LINE
  8
_1-2_
  6
CONTINUOUS
 62
    7
 10
84.901168410842487
 20
125.81676586254224
 11
87.62371784931905
 21
123.0942102380701
  0
LINE
  8
_1-2_
  6
CONTINUOUS
 62
    7
 10
85.876477215741133
 20
126.25564987595017
 11
88.599045212204402
 21
123.53309425147805
  0
LINE
  8
_1-2_
  6
CONTINUOUS
 62
    7
 10
86.851798392630911
 20
126.69454626134925
 11
89.57436638909418
 21
123.97200300886826
  0
LINE
  8
_1-2_
  6
CONTINUOUS
 62
    7
 10
87.827144313502956
 20
127.13344264674832
 11
90.549687565983959
 21
124.41088702227619
  0
LINE
  8
_1-2_
  6
CONTINUOUS
 62
    7
 10
88.802465490392748
 20
127.57235140413852
 11
91.525008742873737
 21
124.84978340767526
  0
LINE
  8
_1-2_
  6
CONTINUOUS
 62
    7
 10
89.777786667282527
 20
128.01123541754646
 11
92.500336105759089
 21
125.28867979307434
  0
LINE
  8
_1-2_
  6
CONTINUOUS
 62
    7
 10
90.753107844172305
 20
128.45013180294552
 11
93.475657282648868
 21
125.7275761784734
  0
LINE
  8
_1-2_
  6
CONTINUOUS
 62
    7
 10
91.728429021062084
 20
128.88902818834461
 11
94.450972273543073
 21
126.16647256387247
  0
LINE
  8
_1-2_
  6
CONTINUOUS
 62
    7
 10
92.703737825960729
 20
129.32792457374367
 11
95.426305822423998
 21
126.60536894927155
  0
LINE
  8
_1-2_
  6
CONTINUOUS
 62
    7
 10
93.679071374841641
 20
129.76682095914273
 11
96.401620813318203
 21
127.04426533467061
  0
LINE
  8
_1-2_
  6
CONTINUOUS
 62
    7
 10
94.654380179740286
 20
130.20570497255068
 11
97.376941990207982
 21
127.48314934807856
  0
LINE
  8
_1-2_
  6
CONTINUOUS
 62
    7
 10
95.629713728621198
 20
130.64461372994089
 11
98.352256981102201
 21
127.92204573347763
  0
LINE
  8
_1-2_
  6
CONTINUOUS
 62
    7
 10
96.60503490551099
 20
131.08349774334883
 11
99.327590529983112
 21
128.36094211887669
  0
LINE
  8
_1-2_
  6
CONTINUOUS
 62
    7
 10
97.580356082400769
 20
131.52239412874789
 11
100.30291170687289
 21
128.79983850427575
  0
LINE
  8
_1-2_
  6
CONTINUOUS
 62
    7
 10
98.55568963128168
 20
131.96129051414698
 11
101.27823906975824
 21
129.23873488967484
  0
LINE
  8
_1-2_
  6
CONTINUOUS
 62
    7
 10
99.530998436180326
 20
132.40018689954604
 11
102.25355406065246
 21
129.67763127507391
  0
LINE
  8
_1-2_
  6
CONTINUOUS
 62
    7
 10
100.50633198506124
 20
132.8390832849451
 11
103.2288814235378
 21
130.11652766047297
  0
LINE
  8
_1-2_
  6
CONTINUOUS
 62
    7
 10
101.48165316195102
 20
133.27797967034417
 11
104.20419641443202
 21
130.55542404587206
  0
LINE
  8
_1-2_
  6
CONTINUOUS
 62
    7
 10
102.45697433884079
 20
133.71687605574326
 11
105.17952996331293
 21
130.99432043127112
  0
LINE
  8
_1-2_
  6
CONTINUOUS
 62
    7
 10
103.43229551573059
 20
134.15577244114232
 11
106.15483876821158
 21
131.43321681667018
  0
LINE
  8
_1-2_
  6
CONTINUOUS
 62
    7
 10
104.4076290646115
 20
134.59466882654138
 11
107.13017231709249
 21
131.87211320206927
  0
LINE
  8
_1-2_
  6
CONTINUOUS
 62
    7
 10
105.38293786951014
 20
135.03356521194047
 11
108.10549349398227
 21
132.31100958746833
  0
LINE
  8
_1-2_
  6
CONTINUOUS
 62
    7
 10
106.35827141839106
 20
135.47246159733953
 11
109.08081467087204
 21
132.7499059728674
  0
LINE
  8
_1-2_
  6
CONTINUOUS
 62
    7
 10
107.3335802232897
 20
135.91134561074747
 11
110.05613584776184
 21
133.18878998627534
  0
LINE
  8
_1-2_
  6
CONTINUOUS
 62
    7
 10
108.30890140017948
 20
136.35024199614654
 11
111.03145702465162
 21
133.62769874366555
  0
LINE
  8
_1-2_
  6
CONTINUOUS
 62
    7
 10
109.28422257706926
 20
136.78913838154563
 11
112.00677820154139
 21
134.06658275707349
  0
LINE
  8
_1-2_
  6
CONTINUOUS
 62
    7
 10
110.25955612595017
 20
137.22803476694469
 11
112.98211175042231
 21
134.50547914247255
  0
LINE
  8
_1-2_
  6
CONTINUOUS
 62
    7
 10
111.23487730283996
 20
137.66693115234375
 11
113.95743292731208
 21
134.94437552787164
  0
LINE
  8
_1-2_
  6
CONTINUOUS
 62
    7
 10
112.21019847972974
 20
138.10582753774284
 11
114.93274173221073
 21
135.3832719132707
  0
LINE
  8
_1-2_
  6
CONTINUOUS
 62
    7
 10
113.18553202861065
 20
138.5447239231419
 11
115.90807528109164
 21
135.82216829866977
  0
LINE
  8
_1-2_
  6
CONTINUOUS
 62
    7
 10
114.16085320550043
 20
138.98362030854096
 11
116.88340882997255
 21
136.26106468406886
  0
LINE
  8
_1-2_
  6
CONTINUOUS
 62
    7
 10
115.13617438239021
 20
139.42251669394005
 11
117.85873000686233
 21
136.69996106946792
  0
LINE
  8
_1-2_
  6
CONTINUOUS
 62
    7
 10
116.11150793127112
 20
139.86141307933912
 11
118.83405118375212
 21
137.13885745486698
  0
LINE
  8
_1-2_
  6
CONTINUOUS
 62
    7
 10
117.08681673616977
 20
140.30030946473818
 11
119.8093723606419
 21
137.57775384026604
  0
LINE
  8
_1-2_
  6
CONTINUOUS
 62
    7
 10
118.06213791305954
 20
140.73920585013727
 11
120.78469353753168
 21
138.01665022566513
  0
LINE
  8
_1-2_
  6
CONTINUOUS
 62
    7
 10
119.03745908994934
 20
141.17810223553633
 11
121.76002708641259
 21
138.45554661106419
  0
LINE
  8
_1-2_
  6
CONTINUOUS
 62
    7
 10
120.01278026683912
 20
141.61698624894427
 11
122.73533589131124
 21
138.89444299646325
  0
LINE
  8
_1-2_
  6
CONTINUOUS
 62
    7
 10
120.98811381572003
 20
142.05589500633448
 11
123.71066944019215
 21
139.33333938186234
  0
LINE
  8
_1-2_
  6
CONTINUOUS
 62
    7
 10
121.96343499260981
 20
142.4947790197424
 11
124.68599061708193
 21
139.77222339527029
  0
LINE
  8
_1-2_
  6
CONTINUOUS
 62
    7
 10
122.93875616949958
 20
142.93367540514149
 11
125.66131179397172
 21
140.21111978066935
  0
LINE
  8
_1-2_
  6
CONTINUOUS
 62
    7
 10
123.91407734638936
 20
143.37257179054055
 11
126.6366329708615
 21
140.65001616606841
  0
LINE
  8
_1-2_
  6
CONTINUOUS
 62
    7
 10
124.88939852327914
 20
143.81146817593961
 11
127.61194177576014
 21
141.0889125514675
  0
LINE
  8
_1-2_
  6
CONTINUOUS
 62
    7
 10
125.86471970016892
 20
144.2503645613387
 11
128.58727532464104
 21
141.52780893686656
  0
LINE
  8
_1-2_
  6
CONTINUOUS
 62
    7
 10
126.84005324904984
 20
144.68926094673776
 11
129.56259650153083
 21
141.96670532226562
  0
LINE
  8
_1-2_
  6
CONTINUOUS
 62
    7
 10
127.81536205394849
 20
145.12815733213682
 11
130.53790530642948
 21
142.40560170766472
  0
LINE
  8
_1-2_
  6
CONTINUOUS
 62
    7
 10
128.7906956028294
 20
145.56705371753591
 11
131.51323885531039
 21
142.84449809306378
  0
LINE
  8
_1-2_
  6
CONTINUOUS
 62
    7
 10
129.76601677971917
 20
146.00595010293497
 11
132.4885724041913
 21
143.28339447846284
  0
LINE
  8
_1-2_
  6
CONTINUOUS
 62
    7
 10
130.74133795660896
 20
146.44483411634292
 11
133.46389358108109
 21
143.72229086386193
  0
LINE
  8
_1-2_
  6
CONTINUOUS
 62
    7
 10
131.71665913349875
 20
146.88374287373313
 11
134.43920238597974
 21
144.16118724926099
  0
LINE
  8
_1-2_
  6
CONTINUOUS
 62
    7
 10
132.69198031038852
 20
147.32262688714107
 11
135.4145235628695
 21
144.60007126266893
  0
LINE
  8
_1-2_
  6
CONTINUOUS
 62
    7
 10
133.66731385926943
 20
147.76153564453125
 11
136.38985711175042
 21
145.03898002005914
  0
LINE
  8
_1-2_
  6
CONTINUOUS
 62
    7
 10
134.64262266416807
 20
148.20041965793919
 11
137.36519066063136
 21
145.47786403346706
  0
LINE
  8
_1-2_
  6
CONTINUOUS
 62
    7
 10
135.61794384105787
 20
148.63931604333825
 11
138.34049946553
 21
145.91676041886615
  0
LINE
  8
_1-2_
  6
CONTINUOUS
 62
    7
 10
136.59326501794763
 20
149.07821242873734
 11
139.31582064241977
 21
146.35565680426521
  0
LINE
  8
_1-2_
  6
CONTINUOUS
 62
    7
 10
137.56859856682854
 20
149.51710881413641
 11
140.29115419130068
 21
146.79456556165542
  0
LINE
  8
_1-2_
  6
CONTINUOUS
 62
    7
 10
138.54391974371833
 20
149.95600519953547
 11
141.26647536819047
 21
147.23344957506336
  0
LINE
  8
_1-2_
  6
CONTINUOUS
 62
    7
 10
139.51924092060813
 20
150.39490158493456
 11
142.24179654508023
 21
147.67234596046242
  0
LINE
  8
_1-2_
  6
CONTINUOUS
 62
    7
 10
140.49457446948904
 20
150.83379797033362
 11
143.21711772197003
 21
148.11124234586148
  0
LINE
  8
_1-2_
  6
CONTINUOUS
 62
    7
 10
141.46988327438768
 20
151.27269435573268
 11
144.19243889885979
 21
148.55012635926943
  0
LINE
  8
_1-2_
  6
CONTINUOUS
 62
    7
 10
142.44520445127745
 20
151.71157836914062
 11
145.16776007574958
 21
148.98903511665964
  0
LINE
  8
_1-2_
  6
CONTINUOUS
 62
    7
 10
143.42052562816724
 20
152.15047475453972
 11
146.14308125263938
 21
149.42791913006758
  0
LINE
  8
_1-2_
  6
CONTINUOUS
 62
    7
 10
144.395846805057
 20
152.58937113993878
 11
147.11839005753802
 21
149.86681551546664
  0
LINE
  8
_1-2_
  6
CONTINUOUS
 62
    7
 10
145.3711679819468
 20
153.02826752533784
 11
148.09371123442779
 21
150.30571190086573
  0
LINE
  8
_1-2_
  6
CONTINUOUS
 62
    7
 10
146.34650153082771
 20
153.46717628272805
 11
149.06905715529984
 21
150.74462065825591
  0
LINE
  8
_1-2_
  6
CONTINUOUS
 62
    7
 10
147.3218227077175
 20
153.90606029613599
 11
150.04437833218961
 21
151.18350467166385
  0
LINE
  8
_1-2_
  6
CONTINUOUS
 62
    7
 10
148.29714388460727
 20
154.34495668153505
 11
151.01968713708825
 21
151.62240105706294
  0
LINE
  8
_1-2_
  6
CONTINUOUS
 62
    7
 10
149.27247743348818
 20
154.78385306693414
 11
151.99500831397805
 21
152.06129744246201
  0
LINE
  8
_1-2_
  6
CONTINUOUS
 62
    7
 10
150.24778623838682
 20
155.2227494523332
 11
152.97032949086784
 21
152.50018145586995
  0
LINE
  8
_1-2_
  6
CONTINUOUS
 62
    7
 10
151.22311978726773
 20
155.66164583773227
 11
153.94567541173987
 21
152.93909021326013
  0
LINE
  8
_1-2_
  6
CONTINUOUS
 62
    7
 10
152.19845333614865
 20
156.10054222313136
 11
154.92098421663852
 21
153.37798659865922
  0
LINE
  8
_1-2_
  6
CONTINUOUS
 62
    7
 10
153.17376214104732
 20
156.53943860853042
 11
155.89631776551943
 21
153.81688298405828
  0
LINE
  8
_1-2_
  6
CONTINUOUS
 62
    7
 10
154.14908331793708
 20
156.97833499392948
 11
156.87162657041807
 21
154.25576699746622
  0
LINE
  8
_1-2_
  6
CONTINUOUS
 62
    7
 10
155.12440449482688
 20
157.41723137932857
 11
157.84696011929898
 21
154.69467575485643
  0
LINE
  8
_1-2_
  6
CONTINUOUS
 62
    7
 10
156.09973804370779
 20
157.85612776472763
 11
158.82228129618878
 21
155.13355976826438
  0
LINE
  8
_1-2_
  6
CONTINUOUS
 62
    7
 10
157.07504684860643
 20
158.29501177813557
 11
159.79760247307857
 21
155.57246852565456
  0
LINE
  8
_1-2_
  6
CONTINUOUS
 62
    7
 10
158.05038039748734
 20
158.73390816353464
 11
160.77292364996833
 21
156.0113525390625
  0
LINE
  8
_1-2_
  6
CONTINUOUS
 62
    7
 10
159.02568920238599
 20
159.1728045489337
 11
161.74824482685813
 21
156.45024892446159
  0
LINE
  8
_1-2_
  6
CONTINUOUS
 62
    7
 10
160.0010227512669
 20
159.61170093433279
 11
162.72356600374789
 21
156.88914530986065
  0
LINE
  8
_1-2_
  6
CONTINUOUS
 62
    7
 10
160.97634392815669
 20
160.05059731973185
 11
163.69888718063768
 21
157.32804169525971
  0
LINE
  8
_1-2_
  6
CONTINUOUS
 62
    7
 10
161.95166510504646
 20
160.48949370513091
 11
164.67420835752745
 21
157.7669380806588
  0
LINE
  8
_1-2_
  6
CONTINUOUS
 62
    7
 10
162.92698628193625
 20
160.92839009053
 11
165.64954190640836
 21
158.20583446605787
  0
LINE
  8
_1-2_
  6
CONTINUOUS
 62
    7
 10
163.90230745882602
 20
161.36728647592906
 11
166.62486308329815
 21
158.64473085145693
  0
LINE
  8
_1-2_
  6
CONTINUOUS
 62
    7
 10
164.87764100770693
 20
161.80618286132812
 11
167.60018426018794
 21
159.08362723685602
  0
LINE
  8
_1-2_
  6
CONTINUOUS
 62
    7
 10
165.85294981260557
 20
162.24507924672722
 11
168.57550543707771
 21
159.52252362225508
  0
LINE
  8
_1-2_
  6
CONTINUOUS
 62
    7
 10
166.82827098949537
 20
162.68396326013516
 11
169.5508266139675
 21
159.96140763566302
  0
LINE
  8
_1-2_
  6
CONTINUOUS
 62
    7
 10
167.80359216638516
 20
163.12285964553422
 11
170.52614779085727
 21
160.40030402106208
  0
LINE
  8
_1-2_
  6
CONTINUOUS
 62
    7
 10
168.77891334327492
 20
163.56175603093328
 11
171.50146896774706
 21
160.83920040646115
  0
LINE
  8
_1-2_
  6
CONTINUOUS
 62
    7
 10
169.75425926414698
 20
164.00065241633234
 11
172.47680251662797
 21
161.27810916385135
  0
LINE
  8
_1-2_
  6
CONTINUOUS
 62
    7
 10
170.72958044103675
 20
164.43954880173143
 11
173.45213606550888
 21
161.7169931772593
  0
LINE
  8
_1-2_
  6
CONTINUOUS
 62
    7
 10
171.70490161792654
 20
164.8784451871305
 11
174.42745724239865
 21
162.15590193464951
  0
LINE
  8
_1-2_
  6
CONTINUOUS
 62
    7
 10
172.6802227948163
 20
165.31734157252956
 11
175.40277841928844
 21
162.59478594805745
  0
LINE
  8
_1-2_
  6
CONTINUOUS
 62
    7
 10
173.65554397170609
 20
165.75623795792865
 11
176.37809959617823
 21
163.03369470544766
  0
LINE
  8
_1-2_
  6
CONTINUOUS
 62
    7
 10
174.63086514859586
 20
166.19513434332771
 11
177.353420773068
 21
163.47257871885557
  0
LINE
  8
_1-2_
  6
CONTINUOUS
 62
    7
 10
175.60618632548565
 20
166.63403072872677
 11
178.32874194995779
 21
163.91147510425466
  0
LINE
  8
_1-2_
  6
CONTINUOUS
 62
    7
 10
176.58150750237544
 20
167.07292711412586
 11
179.30406312684755
 21
164.35037148965372
  0
LINE
  8
_1-2_
  6
CONTINUOUS
 62
    7
 10
177.55682867926521
 20
167.51182349952492
 11
180.27939667572846
 21
164.78926787505279
  0
LINE
  8
_1-2_
  6
CONTINUOUS
 62
    7
 10
178.532149856155
 20
167.95070751293287
 11
181.25471785261826
 21
165.22816426045188
  0
LINE
  8
_1-2_
  6
CONTINUOUS
 62
    7
 10
179.50747103304477
 20
168.38960389833193
 11
182.23003902950802
 21
165.66704827385982
  0
LINE
  8
_1-2_
  6
CONTINUOUS
 62
    7
 10
180.48280458192568
 20
168.82850028373102
 11
183.20536020639781
 21
166.10595703125
  0
LINE
  8
_1-2_
  6
CONTINUOUS
 62
    7
 10
181.45812575881547
 20
169.26739666913008
 11
184.18066901129646
 21
166.54484104465794
  0
LINE
  8
_1-2_
  6
CONTINUOUS
 62
    7
 10
182.43344693570523
 20
169.70629305452914
 11
185.15599018818625
 21
166.98373743005703
  0
LINE
  8
_1-2_
  6
CONTINUOUS
 62
    7
 10
183.40876811259503
 20
170.14518943992823
 11
186.13133610905828
 21
167.42263381545609
  0
LINE
  8
_1-2_
  6
CONTINUOUS
 62
    7
 10
184.38410166147594
 20
170.58408582532729
 11
187.10664491395693
 21
167.8615425728463
  0
LINE
  8
_1-2_
  6
CONTINUOUS
 62
    7
 10
185.35942283836573
 20
171.02298221072635
 11
188.08196609084672
 21
168.30042658625422
  0
LINE
  8
_1-2_
  6
CONTINUOUS
 62
    7
 10
186.33473164326438
 20
171.46187859612544
 11
189.05728726773648
 21
168.73932297165331
  0
LINE
  8
_1-2_
  6
CONTINUOUS
 62
    7
 10
187.31006519214529
 20
171.90077498152451
 11
190.03260844462628
 21
169.17821935705237
  0
LINE
  8
_1-2_
  6
CONTINUOUS
 62
    7
 10
188.28538636903505
 20
172.33967136692357
 11
191.00794199350719
 21
169.61711574245143
  0
LINE
  8
_1-2_
  6
CONTINUOUS
 62
    7
 10
189.26070754592484
 20
172.77856775232266
 11
191.98326317039698
 21
170.05601212785052
  0
LINE
  8
_1-2_
  6
CONTINUOUS
 62
    7
 10
190.23602872281461
 20
173.21746413772172
 11
192.95858434728675
 21
170.49489614125847
  0
LINE
  8
_1-2_
  6
CONTINUOUS
 62
    7
 10
191.2113498997044
 20
173.65636052312078
 11
193.93390552417654
 21
170.93380489864865
  0
LINE
  8
_1-2_
  6
CONTINUOUS
 62
    7
 10
192.18667107659419
 20
174.09524453652872
 11
194.9092267010663
 21
171.37268891205659
  0
LINE
  8
_1-2_
  6
CONTINUOUS
 62
    7
 10
193.16199225348396
 20
174.53414092192779
 11
195.88454787795609
 21
171.81158529745568
  0
LINE
  8
_1-2_
  6
CONTINUOUS
 62
    7
 10
194.13732580236487
 20
174.97303730732688
 11
196.85988142683701
 21
172.25048168285474
  0
LINE
  8
_1-2_
  6
CONTINUOUS
 62
    7
 10
195.11264697925466
 20
175.41193369272594
 11
197.83520260372677
 21
172.68939044024495
  0
LINE
  8
_1-2_
  6
CONTINUOUS
 62
    7
 10
196.08796815614443
 20
175.850830078125
 11
198.81052378061656
 21
173.12827445365289
  0
LINE
  8
_1-2_
  6
CONTINUOUS
 62
    7
 10
197.06328933303422
 20
176.28972646352409
 11
199.78584495750636
 21
173.56717083905195
  0
LINE
  8
_1-2_
  6
CONTINUOUS
 62
    7
 10
198.03861050992398
 20
176.72862284892315
 11
200.761153762405
 21
174.00606722445102
  0
LINE
  8
_1-2_
  6
CONTINUOUS
 62
    7
 10
199.01393168681378
 20
177.16751923432221
 11
201.73648731128591
 21
174.44496360985011
  0
LINE
  8
_1-2_
  6
CONTINUOUS
 62
    7
 10
199.98925286370357
 20
177.6064156197213
 11
202.71182086016682
 21
174.88385999524917
  0
LINE
  8
_1-2_
  6
CONTINUOUS
 62
    7
 10
200.96458641258448
 20
178.04531200512037
 11
203.68714203705659
 21
175.32275638064823
  0
LINE
  8
_1-2_
  6
CONTINUOUS
 62
    7
 10
201.93990758947425
 20
178.48420839051943
 11
205.21580051731419
 21
175.20830309068836
  0
LINE
  8
_1-2_
  6
CONTINUOUS
 62
    7
 10
202.91521639437289
 20
178.92309240392737
 11
207.78709617820948
 21
174.05121262009081
  0
LINE
  8
_1-2_
  6
CONTINUOUS
 62
    7
 10
203.8905499432538
 20
179.36198878932643
 11
210.35841658308701
 21
172.89412214949326
  0
LINE
  8
_1-2_
  6
CONTINUOUS
 62
    7
 10
205.75207684491133
 20
178.91467944995779
 11
212.92971224398227
 21
171.73704405088682
  0
LINE
  8
_1-2_
  6
CONTINUOUS
 62
    7
 10
208.32339724978885
 20
177.75758897936024
 11
215.50103264885982
 21
170.57995358028927
  0
LINE
  8
_1-2_
  6
CONTINUOUS
 62
    7
 10
210.89469291068414
 20
176.6005108807538
 11
218.07232830975508
 21
169.42286310969172
  0
LINE
  8
_1-2_
  6
CONTINUOUS
 62
    7
 10
213.4659885715794
 20
175.44342041015625
 11
220.6436487146326
 21
168.26577263909419
  0
LINE
  8
_1-2_
  6
CONTINUOUS
 62
    7
 10
216.03728423247466
 20
174.28634231154984
 11
223.21494437552789
 21
167.10869454048776
  0
LINE
  8
_1-2_
  6
CONTINUOUS
 62
    7
 10
218.60860463735222
 20
173.12923946896115
 11
225.78626478040542
 21
165.95160406989021
  0
LINE
  8
_1-2_
  6
CONTINUOUS
 62
    7
 10
221.17992504222974
 20
171.97216137035474
 11
228.35756044130068
 21
164.79451359929266
  0
LINE
  8
_1-2_
  6
CONTINUOUS
 62
    7
 10
223.751220703125
 20
170.81508327174831
 11
230.92885610219597
 21
163.6374231286951
  0
LINE
  8
_1-2_
  6
CONTINUOUS
 62
    7
 10
226.32251636402029
 20
169.65798042915964
 11
233.50017650707349
 21
162.48033265809755
  0
LINE
  8
_1-2_
  6
CONTINUOUS
 62
    7
 10
228.89381202491555
 20
168.50090233055323
 11
236.07147216796875
 21
161.32325455949115
  0
LINE
  8
_1-2_
  6
CONTINUOUS
 62
    7
 10
231.46510768581084
 20
167.34381185995568
 11
238.64276782886404
 21
160.16616408889359
  0
LINE
  8
_1-2_
  6
CONTINUOUS
 62
    7
 10
234.03642809068836
 20
166.18672138935813
 11
241.2140634897593
 21
159.00907361829604
  0
LINE
  8
_1-2_
  6
CONTINUOUS
 62
    7
 10
236.60774849556589
 20
165.02964329075169
 11
243.78538389463685
 21
157.85198314769849
  0
LINE
  8
_1-2_
  6
CONTINUOUS
 62
    7
 10
239.17904415646117
 20
163.87254044816302
 11
246.35667955553211
 21
156.69490504909206
  0
LINE
  8
_1-2_
  6
CONTINUOUS
 62
    7
 10
241.75033981735643
 20
162.71546234955659
 11
248.92799996040964
 21
155.5378145784945
  0
LINE
  8
_1-2_
  6
CONTINUOUS
 62
    7
 10
244.32163547825169
 20
161.55837187895904
 11
251.49932036528719
 21
154.38072410789698
  0
LINE
  8
_1-2_
  6
CONTINUOUS
 62
    7
 10
246.89293113914698
 20
160.40129378035263
 11
254.07059128220018
 21
153.22364600929055
  0
LINE
  8
_1-2_
  6
CONTINUOUS
 62
    7
 10
249.46427628800677
 20
159.24419093776393
 11
256.64191168707771
 21
152.06654316670188
  0
LINE
  8
_1-2_
  6
CONTINUOUS
 62
    7
 10
252.03557194890203
 20
158.08711283915753
 11
259.21320734797297
 21
150.90946506809544
  0
LINE
  8
_1-2_
  6
CONTINUOUS
 62
    7
 10
254.60689235377959
 20
156.93002236855997
 11
261.78455249683276
 21
149.75236222550677
  0
LINE
  8
_1-2_
  6
CONTINUOUS
 62
    7
 10
257.17818801467484
 20
155.77294426995357
 11
264.35582341374578
 21
148.59528412690034
  0
LINE
  8
_1-2_
  6
CONTINUOUS
 62
    7
 10
259.7494836755701
 20
154.61584142736487
 11
266.92714381862334
 21
147.43819365630279
  0
LINE
  8
_1-2_
  6
CONTINUOUS
 62
    7
 10
262.32080408044766
 20
153.45876332875847
 11
269.49843947951859
 21
146.28111555769638
  0
LINE
  8
_1-2_
  6
CONTINUOUS
 62
    7
 10
264.89209974134292
 20
152.30166048616977
 11
272.06973514041385
 21
145.12402508709883
  0
LINE
  8
_1-2_
  6
CONTINUOUS
 62
    7
 10
267.46339540223818
 20
151.14458238756336
 11
274.64103080130911
 21
143.9669469884924
  0
LINE
  8
_1-2_
  6
CONTINUOUS
 62
    7
 10
270.03474055109797
 20
149.98749191696581
 11
277.21237595016896
 21
142.80984414590372
  0
LINE
  8
_1-2_
  6
CONTINUOUS
 62
    7
 10
272.60603621199328
 20
148.83041381835937
 11
279.78367161106422
 21
141.65276604729729
  0
LINE
  8
_1-2_
  6
CONTINUOUS
 62
    7
 10
275.17733187288854
 20
147.67332334776182
 11
282.35499201594172
 21
140.49566320470862
  0
LINE
  8
_1-2_
  6
CONTINUOUS
 62
    7
 10
277.7486275337838
 20
146.51623287716427
 11
284.92626293285474
 21
139.33858510610222
  0
LINE
  8
_1-2_
  6
CONTINUOUS
 62
    7
 10
280.31997268264359
 20
145.35914240656672
 11
287.49760808171453
 21
138.18149463550466
  0
LINE
  8
_1-2_
  6
CONTINUOUS
 62
    7
 10
282.89124359955662
 20
144.20206430796031
 11
290.06887899862755
 21
137.02441653689823
  0
LINE
  8
_1-2_
  6
CONTINUOUS
 62
    7
 10
285.46256400443411
 20
143.04496146537164
 11
292.64022414748734
 21
135.86731369430956
  0
LINE
  8
_1-2_
  6
CONTINUOUS
 62
    7
 10
288.03385966532943
 20
141.88788336676521
 11
295.21149506440037
 21
134.71024796769427
  0
LINE
  8
_1-2_
  6
CONTINUOUS
 62
    7
 10
290.60518007020693
 20
140.73079289616766
 11
297.78284021326016
 21
133.55313275311445
  0
LINE
  8
_1-2_
  6
CONTINUOUS
 62
    7
 10
293.17645098711995
 20
139.57371479756125
 11
300.35411113017318
 21
132.39606702649917
  0
LINE
  8
_1-2_
  6
CONTINUOUS
 62
    7
 10
295.74779613597974
 20
138.41661195497255
 11
302.92543153505068
 21
131.23896418391047
  0
LINE
  8
_1-2_
  6
CONTINUOUS
 62
    7
 10
298.31906705289276
 20
137.25953385636615
 11
305.4967024519637
 21
130.08188608530406
  0
LINE
  8
_1-2_
  6
CONTINUOUS
 62
    7
 10
300.89038745777026
 20
136.10244338576859
 11
308.06802285684125
 21
128.92479561470651
  0
LINE
  8
_1-2_
  6
CONTINUOUS
 62
    7
 10
303.46168311866558
 20
134.94536528716216
 11
310.63931851773651
 21
127.76771751610009
  0
LINE
  8
_1-2_
  6
CONTINUOUS
 62
    7
 10
306.03300352354307
 20
133.78827481656461
 11
313.2106636665963
 21
126.61061467351141
  0
LINE
  8
_1-2_
  6
CONTINUOUS
 62
    7
 10
308.60427444045609
 20
132.6311967179582
 11
315.78195932749156
 21
125.45353657490499
  0
LINE
  8
_1-2_
  6
CONTINUOUS
 62
    7
 10
311.17559484533365
 20
131.47410624736065
 11
318.35325498838682
 21
124.29644610430744
  0
LINE
  8
_1-2_
  6
CONTINUOUS
 62
    7
 10
313.74689050622891
 20
130.3170157767631
 11
320.92455064928214
 21
123.13935563370988
  0
LINE
  8
_1-2_
  6
CONTINUOUS
 62
    7
 10
316.3182356550887
 20
129.15991293417443
 11
323.49587105415964
 21
121.98226516311234
  0
LINE
  8
_1-2_
  6
CONTINUOUS
 62
    7
 10
318.88953131598396
 20
128.00282246357688
 11
326.06719145903719
 21
120.82518706450593
  0
LINE
  8
_1-2_
  6
CONTINUOUS
 62
    7
 10
321.46082697687922
 20
126.84574436497044
 11
328.63848711993245
 21
119.66808422191724
  0
LINE
  8
_1-2_
  6
CONTINUOUS
 62
    7
 10
324.03214738175677
 20
125.68866626636402
 11
331.20978278082771
 21
118.51100612331082
  0
LINE
  8
_1-2_
  6
CONTINUOUS
 62
    7
 10
326.60344304265203
 20
124.53157579576647
 11
333.78107844172297
 21
117.3539280247044
  0
LINE
  8
_1-2_
  6
CONTINUOUS
 62
    7
 10
329.17473870354729
 20
123.37448532516892
 11
336.35239884660052
 21
116.19682518211572
  0
LINE
  8
_1-2_
  6
CONTINUOUS
 62
    7
 10
331.74603436444261
 20
122.21739485457138
 11
338.92369450749578
 21
115.0397470835093
  0
LINE
  8
_1-2_
  6
CONTINUOUS
 62
    7
 10
334.3173547693201
 20
121.06030438397383
 11
341.49501491237334
 21
113.88266898490288
  0
LINE
  8
_1-2_
  6
CONTINUOUS
 62
    7
 10
336.88865043021536
 20
119.90322628536741
 11
344.06631057326859
 21
112.72556614231419
  0
LINE
  8
_1-2_
  6
CONTINUOUS
 62
    7
 10
339.45997083509292
 20
118.74613581476986
 11
346.63760623416385
 21
111.56848804370777
  0
LINE
  8
_1-2_
  6
CONTINUOUS
 62
    7
 10
342.03126649598818
 20
117.58905771616344
 11
349.20890189505911
 21
110.41140994510135
  0
LINE
  8
_1-2_
  6
CONTINUOUS
 62
    7
 10
344.60256215688344
 20
116.43196724556589
 11
351.78024704391896
 21
109.25430710251267
  0
LINE
  8
_1-2_
  6
CONTINUOUS
 62
    7
 10
347.17388256176099
 20
115.27487677496833
 11
354.35151796083193
 21
108.09722900390625
  0
LINE
  8
_1-2_
  6
CONTINUOUS
 62
    7
 10
349.74520296663854
 20
114.11778630437078
 11
356.92283836570948
 21
106.94013853330871
  0
LINE
  8
_1-2_
  6
CONTINUOUS
 62
    7
 10
352.3164986275338
 20
112.96069583377323
 11
359.49413402660474
 21
105.78304806271116
  0
LINE
  8
_1-2_
  6
CONTINUOUS
 62
    7
 10
354.88779428842906
 20
111.80361773516681
 11
362.0654296875
 21
104.62596996410474
  0
LINE
  8
_1-2_
  6
CONTINUOUS
 62
    7
 10
357.45908994932432
 20
110.64652726456926
 11
364.63675009237755
 21
103.46887330751161
  0
LINE
  8
_1-2_
  6
CONTINUOUS
 62
    7
 10
360.03038561021964
 20
109.48944916596284
 11
367.20807049725511
 21
102.31178283691406
  0
LINE
  8
_1-2_
  6
CONTINUOUS
 62
    7
 10
362.60173075907943
 20
108.33234632337417
 11
369.7794156461149
 21
101.15467999432539
  0
LINE
  8
_1-2_
  6
CONTINUOUS
 62
    7
 10
365.17302641997469
 20
107.17525585277662
 11
372.35071130701016
 21
99.997589523727839
  0
LINE
  8
_1-2_
  6
CONTINUOUS
 62
    7
 10
367.74434682485224
 20
106.01816538217906
 11
374.92200696790542
 21
98.84051142512142
  0
LINE
  8
_1-2_
  6
CONTINUOUS
 62
    7
 10
370.31566722972974
 20
104.86107491158151
 11
377.49330262880068
 21
97.683427140519427
  0
LINE
  8
_1-2_
  6
CONTINUOUS
 62
    7
 10
372.886962890625
 20
103.70398444098396
 11
380.06462303367823
 21
96.526330483926316
  0
LINE
  8
_1-2_
  6
CONTINUOUS
 62
    7
 10
375.45825855152032
 20
102.54690015638198
 11
382.63591869457349
 21
95.369246199324323
  0
LINE
  8
_1-2_
  6
CONTINUOUS
 62
    7
 10
378.02955421241558
 20
101.38982205777556
 11
383.85151631123313
 21
95.567866144953555
  0
LINE
  8
_1-2_
  6
CONTINUOUS
 62
    7
 10
380.60084987331084
 20
100.23273777317357
 11
384.29040032464104
 21
96.543193507838893
  0
LINE
  8
_1-2_
  6
CONTINUOUS
 62
    7
 10
383.17217027818839
 20
99.075641116580456
 11
384.72930908203125
 21
97.518514684728686
  0
LINE
  8
_1-0_
  6
CONTINUOUS
 62
    7
 10
365.15511177681589
 20
109.76189278267526
 11
366.48173564189193
 21
111.84996321394638
  0
LINE
  8
_1-0_
  6
CONTINUOUS
 62
    7
 10
366.48173564189193
 20
111.84996321394638
 11
369.62788349873313
 21
107.14443722286741
  0
LINE
  8
_1-2_
  6
CONTINUOUS
 62
    3
 10
83.123634956978464
 20
137.85690307617187
 11
146.01336092562289
 21
158.36895916913008
  0
LINE
  8
_1-0_
  6
CONTINUOUS
 62
    7
 10
43.493524499841641
 20
109.76189278267526
 11
42.166925378747891
 21
111.84996321394638
  0
LINE
  8
_1-0_
  6
CONTINUOUS
 62
    7
 10
42.166925378747891
 20
111.84996321394638
 11
39.020777521906666
 21
107.14443722286741
  0
ARC
  8
_1-5_
  6
CONTINUOUS
 62
    7
 10
185.23750923775339
 20
185.4579781197213
 40
0.52494773993621
 50
108.43473815917969
 51
288.43473815917969
  0
ARC
  8
_1-5_
  6
CONTINUOUS
 62
    7
 10
223.35172910948057
 20
185.35058923669766
 40
0.5298084826082797
 50
253.6175537109375
 51
70.821426391601577
  0
ARC
  8
_1-5_
  6
CONTINUOUS
 62
    7
 10
190.53421845307221
 20
188.68288607210727
 40
0.5657173169625772
 50
17.84393310546875
 51
197.84393310546875
  0
ARC
  8
_1-5_
  6
CONTINUOUS
 62
    7
 10
218.3565376900338
 20
188.59026934649495
 40
0.6031333594708829
 50
343.61056518554693
 51
160.89753723144534
  0
ARC
  8
_1-2_
  6
CONTINUOUS
 62
    3
 10
33.444399447054479
 20
112.16303644953548
 40
6.01062568458351
 50
107.38015747070314
 51
141.59829711914062
  0
ARC
  8
_1-2_
  6
CONTINUOUS
 62
    3
 10
32.366106187975078
 20
113.92576063001479
 40
0.9999999162313101
 50
108.06419372558594
 51
175.49896240234378
  0
ARC
  8
_1-2_
  6
CONTINUOUS
 62
    3
 10
84.511995057801954
 20
135.14346560916385
 40
6.01062568458351
 50
107.38015747070314
 51
141.59829711914062
  0
ARC
  8
_1-2_
  6
CONTINUOUS
 62
    3
 10
83.433701798722552
 20
136.90618978964318
 40
0.9999999162313101
 50
108.06419372558594
 51
175.49896240234378
  0
ARC
  8
_1-2_
  6
CONTINUOUS
 62
    3
 10
135.57959066854943
 20
158.12389476879224
 40
6.01062568458351
 50
107.38015747070314
 51
141.59829711914062
  0
ARC
  8
_1-2_
  6
CONTINUOUS
 62
    3
 10
134.50129740947003
 20
159.88660657728042
 40
0.9999999162313101
 50
108.06419372558594
 51
175.49896240234378
  0
ARC
  8
_1-2_
  6
CONTINUOUS
 62
    3
 10
375.20423682960308
 20
112.16303644953548
 40
6.01062568458351
 50
38.401657104492202
 51
72.619796752929702
  0
ARC
  8
_1-2_
  6
CONTINUOUS
 62
    3
 10
376.28253008868245
 20
113.92576063001479
 40
0.9999999162313101
 50
4.5005950927734588
 51
71.935363769531278
  0
ARC
  8
_1-2_
  6
CONTINUOUS
 62
    3
 10
324.13666596283787
 20
135.14346560916385
 40
6.01062568458351
 50
38.401657104492202
 51
72.619796752929702
  0
ARC
  8
_1-2_
  6
CONTINUOUS
 62
    3
 10
325.21495922191724
 20
136.90618978964318
 40
0.9999999162313101
 50
4.5005950927734588
 51
71.935363769531278
  0
ARC
  8
_1-2_
  6
CONTINUOUS
 62
    3
 10
273.06904560810813
 20
158.12389476879224
 40
6.01062568458351
 50
38.401657104492202
 51
72.619796752929702
  0
ARC
  8
_1-2_
  6
CONTINUOUS
 62
    3
 10
274.1473388671875
 20
159.88660657728042
 40
0.9999999162313101
 50
4.5005950927734588
 51
71.935363769531278
  0
ARC
  8
_1-4_
  6
CONTINUOUS
 62
    7
 10
205.52430848817568
 20
146.19404148411107
 40
0.599999959404404
 50
90
 51
180
  0
ARC
  8
_1-4_
  6
CONTINUOUS
 62
    7
 10
203.124340160473
 20
146.19404148411107
 40
0.599999959404404
 50
0
 51
90
  0
ARC
  8
_1-4_
  6
CONTINUOUS
 62
    7
 10
203.124340160473
 20
110.59403290619721
 40
0.599999959404404
 50
270
 51
0
  0
ARC
  8
_1-4_
  6
CONTINUOUS
 62
    7
 10
205.52430848817568
 20
110.59403290619721
 40
0.599999959404404
 50
180
 51
270
  0
ARC
  8
_1-4_
  6
CONTINUOUS
 62
    7
 10
213.72434049039273
 20
109.39404874234587
 40
0.599999959404404
 50
0
 51
90
  0
ARC
  8
_1-4_
  6
CONTINUOUS
 62
    7
 10
194.92430815825591
 20
109.39404874234587
 40
0.599999959404404
 50
90
 51
180
  0
ARC
  8
_1-4_
  6
CONTINUOUS
 62
    7
 10
194.92430815825591
 20
147.39402564796242
 40
0.599999959404404
 50
180
 51
270
  0
ARC
  8
_1-4_
  6
CONTINUOUS
 62
    7
 10
213.72434049039273
 20
147.39402564796242
 40
0.599999959404404
 50
270
 51
0
  0
TEXT
  8
_0-0_
 62
    7
 10
147.56756962956609
 20
22.702702702702709
 40
2.5
 41
1
 50
0
  1
図名
  0
TEXT
  8
_0-0_
 62
    7
 10
147.56756962956609
 20
12.972972972972968
 40
2.5
 41
1
 50
0
  1
縮尺
  0
TEXT
  8
_0-0_
 62
    7
 10
382.77784605284
 20
21.243871740392734
 40
2.5
 41
1
 50
0
  1
ＮＯ
  0
TEXT
  8
_0-0_
 62
    7
 10
20.270270012520456
 20
22.702702702702709
 40
2.5
 41
1
 50
0
  1
Ｆ形
  0
TEXT
  8
_0-0_
 62
    7
 10
389.99062615471917
 20
16.178650211643514
 40
2.5
 41
1
 50
0
  1
Ｆ
  0
TEXT
  8
_0-0_
 62
    7
 10
171.37221877639359
 20
12.362518826046511
 40
2.5
 41
1
 50
0
  1
1/5
  0
TEXT
  8
_0-1_
 62
    7
 10
41.891723323512736
 20
146.17057181693414
 40
2.5
 41
1
 50
0
  1
桟瓦
  0
TEXT
  8
_0-1_
 62
    7
 10
126.67201892749685
 20
97.929765855943842
 40
2.5
 41
1
 50
0
  1
瓦桟
  0
TEXT
  8
_0-1_
 62
    7
 10
126.67201686549831
 20
76.52154458535685
 40
2.5
 41
1
 50
0
  1
野地板
  0
TEXT
  8
_1-4_
 62
    7
 10
161.7856061780775
 20
238.03097286739867
 40
2.5
 41
1
 50
0
  1
メタル棟
  0
TEXT
  8
_1-4_
 62
    7
 10
145.62216887602938
 20
217.78705493823904
 40
2.5
 41
1
 50
0
  1
棟止木　15ｘ90
  0
TEXT
  8
_1-4_
 62
    7
 10
45.397582698512736
 20
13.77361400707349
 40
2.5
 41
1
 50
0
  1
棟　2
  0
TEXT
  8
_1-4_
 62
    7
 10
31.231869362496042
 20
18.589955922719582
 40
2.5
 41
1
 50
0
  1
Ｓ
  0
TEXT
  8
_1-4_
 62
    7
 10
141.05373691868138
 20
69.900426091374584
 40
2.5
 41
1
 50
0
  1
Ｃ－100ｘ50ｘ20ｘ2.3
  0
TEXT
  8
_1-0_
 62
    7
 10
141.05373691868138
 20
76.52154458535685
 40
2.5
 41
1
 50
0
  1
硬質木片セメント板　ｔ＝18
  0
TEXT
  8
_1-0_
 62
    7
 10
238.32515819652662
 20
202.82636075406461
 40
2.5
 41
1
 50
0
  1
改良ステンレススクリュウ釘
  0
TEXT
  8
_1-4_
 62
    7
 10
401.94177163613813
 20
13.740249839988905
 40
2.5
 41
1
 50
0
  1
38
  0
LINE
  8
_1-0_
  6
DASHED1
 62
    7
 10
22.155204979149062
 20
98.239028518264362
 11
204.32433669631547
 21
180.21514892578125
  0
LINE
  8
_1-0_
  6
DASHED1
 62
    7
 10
204.32433669631547
 20
180.21514892578125
 11
249.92040441610405
 21
159.69689830609016
  0
LINE
  8
_1-0_
  6
DASHED1
 62
    7
 10
204.32429958034209
 20
179.88617363285917
 11
385.17289137700573
 21
98.50426798616536
  0
LINE
  8
_1-0_
  6
DASHED1
 62
    7
 10
204.32429958034209
 20
179.88617363285917
 11
158.72822536442172
 21
159.36793744900845
  0
POINT
  8
_1-4_
 62
    7
 10
184.36799655522623
 20
135.86772391227134
  0
POINT
  8
_1-4_
 62
    7
 10
229.96407224297835
 20
115.3494909991669
  0
LINE
  8
_1-4_
  6
CONTINUOUS
 62
    7
 10
184.36799655522623
 20
135.86772391227134
 11
201.73394882734559
 21
174.45873111756194
  0
LINE
  8
_1-4_
  6
CONTINUOUS
 62
    7
 10
229.96407224297835
 20
115.3494909991669
 11
247.3300245150977
 21
153.9404982044575
  0
POINT
  8
_1-4_
 62
    7
 10
222.77412369926046
 20
138.88656807852465
  0
POINT
  8
_1-4_
 62
    7
 10
177.17804911448599
 20
118.36833271434963
  0
LINE
  8
_1-4_
  6
CONTINUOUS
 62
    7
 10
222.77412369926046
 20
138.88656807852465
 11
206.94660280622566
 21
174.05883364240137
  0
LINE
  8
_1-4_
  6
CONTINUOUS
 62
    7
 10
177.17804911448599
 20
118.36833271434963
 11
161.35052822145121
 21
153.54059827822635
  0
LINE
  8
_1-4_
  6
CONTINUOUS
 62
    7
 10
222.77412369926046
 20
138.88656807852465
 11
177.17804911448599
 21
118.36833271434963
  0
TEXT
  8
_1-4_
 62
    7
 10
189.73118695656001
 20
124.42423534973165
 40
2.5
 41
1
 50
24.227747200000017
  1
250
  0
LINE
  8
_1-4_
  6
CONTINUOUS
 62
    7
 10
184.36799655522623
 20
135.86772391227134
 11
229.96407224297835
 21
115.3494909991669
  0
TEXT
  8
_1-4_
 62
    7
 10
209.66020150818107
 20
124.81775724386631
 40
2.5
 41
1
 50
-24.227744120000025
  1
250
  0
TEXT
  8
_1-4_
 62
    7
 10
165.99663345339576
 20
98.470778043250164
 40
2.5
 41
1
 50
0
  1
※　地域により瓦桟木の大きさは、異なります
  0
TEXT
  8
_1-4_
 62
    7
 10
140.43652979919767
 20
98.149267305461507
 40
2.5
 41
1
 50
0
  1
15×21　（樹脂桟木）
  0
TEXT
  8
_0-1_
 62
    7
 10
126.67201686549831
 20
90.425856306746198
 40
2.5
 41
1
 50
0
  1
縦桟
  0
TEXT
  8
_0-1_
 62
    7
 10
126.67201480349979
 20
83.14263833535685
 40
2.5
 41
1
 50
0
  1
ルーフィング
  0
TEXT
  8
_0-1_
 62
    7
 10
126.67201892749685
 20
69.900426091374584
 40
2.5
 41
1
 50
0
  1
たる木
  0
TEXT
  8
_1-0_
 62
    7
 10
147.10668653819332
 20
49.573964829120428
 40
2.5
 41
1
 50
0
  1
棟部分のルーフィングは、両方向へそれぞれ250ｍｍ以上重ね合わせること。
  0
TEXT
  8
_1-0_
 62
    7
 10
147.19447818726425
 20
45.462640828117472
 40
2.5
 41
1
 50
0
  1
隅棟部分のルーフィングは、重ね貼りの上に両方向へそれぞれ250ｍｍ以上増し貼りをすること。
  0
TEXT
  8
_1-4_
 62
    7
 10
235.03539580455202
 20
212.0451729092666
 40
2.5
 41
1
 50
0
  1
シーラー
  0
ENDSEC
  0
EOF
