  0
SECTION
  2
HEADER
  9
$ACADVER
  1
AC1009
  9
$INSBASE
 10
0
 20
0
 30
0
  9
$EXTMIN
 10
0
 20
0
  9
$EXTMAX
 10
420
 20
297
  9
$LIMMIN
 10
0
 20
0
  9
$LIMMAX
 10
420
 20
297
  9
$LTSCALE
 40
1
  0
ENDSEC
  0
SECTION
  2
TABLES
  0
TABLE
  2
LTYPE
 70
     9
  0
LTYPE
  2
CONTINUOUS
 70
    64
  3
実線
 72
    65
 73
     0
 40
0.0
  0
LTYPE
  2
DASHED1
 70
    64
  3
--  --  --  --  --  --  --  --  
 72
    65
 73
     2
 40
2.5
 49
1.25
 49
-1.25
  0
LTYPE
  2
DASHED2
 70
    64
  3
----    ----    ----    ----    
 72
    65
 73
     2
 40
5.0
 49
2.5
 49
-2.5
  0
LTYPE
  2
DASHED3
 70
    64
  3
------  ------  ------  ------  
 72
    65
 73
     2
 40
5.0
 49
3.75
 49
-1.25
  0
LTYPE
  2
CENTER1
 70
    64
  3
----- - ----- - ----- - ----- - 
 72
    65
 73
     4
 40
10.0
 49
6.25
 49
-1.25
 49
1.25
 49
-1.25
  0
LTYPE
  2
CENTER2
 70
    64
  3
----------  --  ----------  --  
 72
    65
 73
     4
 40
20.0
 49
12.5
 49
-2.5
 49
2.5
 49
-2.5
  0
LTYPE
  2
PHANTOM1
 70
    64
  3
--- - - --- - - --- - - --- - - 
 72
    65
 73
     6
 40
10.0
 49
3.25
 49
-1.25
 49
1.25
 49
-1.25
 49
1.25
 49
-1.25
  0
LTYPE
  2
PHANTOM2
 70
    64
  3
--------  -  -  --------  -  -  
 72
    65
 73
     6
 40
20.0
 49
10.0
 49
-2.5
 49
1.25
 49
-2.5
 49
1.25
 49
-2.5
  0
LTYPE
  2
DOT
 70
    64
  3
-   -   -   -   -   -   -   -   
 72
    65
 73
     2
 40
2.5
 49
0.625
 49
-1.875
  0
LTYPE
  2
DUMMY
 70
    64
  3
ダミー
 72
    65
 73
     0
 40
0.0
  0
LTYPE
  2
RAND1
 70
    64
  3
ランダム線1
 72
    65
 73
     4
 40
10.0
 49
1.0
 49
-2.0
 49
3.0
 49
-4.0
  0
LTYPE
  2
RAND2
 70
    64
  3
ランダム線2
 72
    65
 73
     4
 40
14.0
 49
2.0
 49
-3.0
 49
4.0
 49
-5.0
  0
LTYPE
  2
RAND3
 70
    64
  3
ランダム線3
 72
    65
 73
     4
 40
18.0
 49
3.0
 49
-4.0
 49
5.0
 49
-6.0
  0
LTYPE
  2
RAND4
 70
    64
  3
ランダム線4
 72
    65
 73
     4
 40
22.0
 49
4.0
 49
-5.0
 49
6.0
 49
-7.0
  0
LTYPE
  2
RAND5
 70
    64
  3
ランダム線5
 72
    65
 73
     4
 40
26.0
 49
5.0
 49
-6.0
 49
7.0
 49
-8.0
  0
LTYPE
  2
LONG1
 70
    64
  3
----------  --  ----------  --  
 72
    65
 73
     4
 40
40.0
 49
32.5
 49
-2.5
 49
2.5
 49
-2.5
  0
LTYPE
  2
LONG2
 70
    64
  3
--------  -  -  --------  -  -  
 72
    65
 73
     6
 40
40.0
 49
30.0
 49
-2.5
 49
1.25
 49
-2.5
 49
1.25
 49
-2.5
  0
LTYPE
  2
LONG3
 70
    64
  3
+++++++++++++++..+++++++++++++++
 72
    65
 73
     2
 40
40.0
 49
37.5
 49
-2.5
  0
LTYPE
  2
LONG4
 70
    64
  3
+++++++++++++++..+++++++++++++++
 72
    65
 73
     2
 40
80.0
 49
75.0
 49
-5.0
  0
LTYPE
  2
LONG5
 70
    64
  3
----------  --  ----------  --  
 72
    65
 73
     4
 40
60.0
 49
37.5
 49
-7.5
 49
7.5
 49
-7.5
  0
LTYPE
  2
dashed
 70
   64
  3
-------   -------------   ------
 72
   65
 73
    2
 40
7.5
 49
6
 49
-1.5
  0
LTYPE
  2
dashed_spaced
 70
   64
  3
----        --------        ----
 72
   65
 73
    2
 40
12
 49
6
 49
-6
  0
LTYPE
  2
long_dashed_dotted
 70
   64
  3
------------- --- --------------
 72
   65
 73
    4
 40
15.25
 49
12
 49
-1.5
 49
0.25
 49
-1.5
  0
LTYPE
  2
long_dashed_double-dotted
 70
   64
  3
----------- --- --- ------------
 72
   65
 73
    6
 40
17
 49
12
 49
-1.5
 49
0.25
 49
-1.5
 49
0.25
 49
-1.5
  0
LTYPE
  2
long_dashed_triplicate-dotted
 70
   64
  3
--------- --- --- --- ----------
 72
   65
 73
    8
 40
18.75
 49
12
 49
-1.5
 49
0.25
 49
-1.5
 49
0.25
 49
-1.5
 49
0.25
 49
-1.5
  0
LTYPE
  2
dotted
 70
   64
  3
   -       -       -       -    
 72
   65
 73
    2
 40
1.75
 49
0.25
 49
-1.5
  0
LTYPE
  2
chain
 70
   64
  3
-------------- -- --------------
 72
   65
 73
    4
 40
18.5
 49
12
 49
-1.5
 49
3.5
 49
-1.5
  0
LTYPE
  2
chain_double_dash
 70
   64
  3
------------ -- -- -------------
 72
   65
 73
    6
 40
23.5
 49
12
 49
-1.5
 49
3.5
 49
-1.5
 49
3.5
 49
-1.5
  0
LTYPE
  2
dashed_dotted
 70
   64
  3
-----------     -     ----------
 72
   65
 73
    4
 40
9.25
 49
6
 49
-1.5
 49
0.25
 49
-1.5
  0
LTYPE
  2
double-dashed_dotted
 70
   64
  3
------   -----------   -   -----
 72
   65
 73
    6
 40
16.75
 49
6
 49
-1.5
 49
6
 49
-1.5
 49
0.25
 49
-1.5
  0
LTYPE
  2
dashed_double-dotted
 70
   64
  3
---------    -    -    ---------
 72
   65
 73
    6
 40
11
 49
6
 49
-1.5
 49
0.25
 49
-1.5
 49
0.25
 49
-1.5
  0
LTYPE
  2
double-dashed_double-dotted
 70
   64
  3
-----   ---------   -   -   ----
 72
   65
 73
    8
 40
18.5
 49
6
 49
-1.5
 49
6
 49
-1.5
 49
0.25
 49
-1.5
 49
0.25
 49
-1.5
  0
LTYPE
  2
dashed_triplicate-dotted
 70
   64
  3
-------    -    -    -    ------
 72
   65
 73
    8
 40
12.75
 49
6
 49
-1.5
 49
0.25
 49
-1.5
 49
0.25
 49
-1.5
 49
0.25
 49
-1.5
  0
LTYPE
  2
double-dashed_triplicate-dotted
 70
   64
  3
-----  ---------  -  -  -  -----
 72
   65
 73
   10
 40
20.25
 49
6
 49
-1.5
 49
6
 49
-1.5
 49
0.25
 49
-1.5
 49
0.25
 49
-1.5
 49
0.25
 49
-1.5
  0
LTYPE
  2
undefined
 70
   64
  3
--------------------------------
 72
   65
 73
    0
 40
0
  0
ENDTAB
  0
TABLE
  2
STYLE
  5
3
100
AcDbSymbolTable
 70
     1
  0
STYLE
  5
10
100
AcDbSymbolTableRecord
100
AcDbTextStyleTableRecord
  2
STANDARD
 70
     0
 40
0.0
 41
1.0
 50
0.0
 71
     0
 42
0.2
  3
txt
  4
bigfont.shx
  0
STYLE
  5
26
100
AcDbSymbolTableRecord
100
AcDbTextStyleTableRecord
  2
TATEGAKI
 70
    68
 40
0.0
 41
1.0
 50
0.0
 71
     0
 42
1.0
  3
txt
  4
bigfont.shx
  0
ENDTAB
  0
TABLE
  2
LAYER
 70
    7
  0
LAYER
  2
_0-0_
 70
   64
 62
    7
  6
CONTINUOUS
  0
LAYER
  2
_0-1_
 70
   64
 62
    7
  6
CONTINUOUS
  0
LAYER
  2
_1-0_
 70
   64
 62
    7
  6
CONTINUOUS
  0
LAYER
  2
_1-1_
 70
   64
 62
    7
  6
CONTINUOUS
  0
LAYER
  2
_1-2_
 70
   64
 62
    7
  6
CONTINUOUS
  0
LAYER
  2
_1-3_
 70
   64
 62
    7
  6
CONTINUOUS
  0
LAYER
  2
ADD_LINE
 70
   64
 62
    7
  6
CONTINUOUS
  0
ENDTAB
  0
ENDSEC
  0
SECTION
  2
BLOCKS
  0
ENDSEC
  0
SECTION
  2
ENTITIES
  0
LINE
  8
_0-0_
  6
CONTINUOUS
 62
    5
 10
12.432428308435391
 20
278.51351351351354
 11
412.43244892842063
 21
278.51351351351354
  0
LINE
  8
_0-0_
  6
CONTINUOUS
 62
    5
 10
412.43244892842063
 20
8.5135135135135158
 11
12.432428308435391
 21
8.5135135135135158
  0
LINE
  8
_0-0_
  6
CONTINUOUS
 62
    5
 10
412.43244892842063
 20
28.513511451515001
 11
12.432415936444272
 21
28.513511451515001
  0
LINE
  8
_0-0_
  6
CONTINUOUS
 62
    5
 10
377.43248192039698
 20
8.5135135135135158
 11
377.43248192039698
 21
28.513511451515001
  0
LINE
  8
_0-0_
  6
CONTINUOUS
 62
    5
 10
142.70271507469386
 20
28.513511451515001
 11
142.70271507469386
 21
8.5135135135135158
  0
LINE
  8
_0-0_
  6
CONTINUOUS
 62
    5
 10
220.54054054054055
 20
28.513511451515001
 11
220.54054054054055
 21
8.5135135135135158
  0
LINE
  8
_0-0_
  6
CONTINUOUS
 62
    5
 10
142.70271507469386
 20
18.513512482514244
 11
220.54054054054055
 21
18.513512482514244
  0
LINE
  8
_0-0_
  6
CONTINUOUS
 62
    5
 10
402.16218690614443
 20
24.324325870823216
 11
389.59456985061234
 21
11.756758303255651
  0
LINE
  8
_1-0_
  6
CONTINUOUS
 62
    7
 10
80.27027027027026
 20
167.05945401578336
 11
92.270272744668503
 21
167.05945401578336
  0
LINE
  8
_1-0_
  6
CONTINUOUS
 62
    7
 10
140.87026235219597
 20
155.05945154138513
 11
140.87026235219597
 21
167.05945401578336
  0
LINE
  8
_1-0_
  6
CONTINUOUS
 62
    7
 10
140.87026235219597
 20
167.05945401578336
 11
152.87026482659419
 21
167.05945401578336
  0
LINE
  8
_1-0_
  6
CONTINUOUS
 62
    7
 10
152.87026482659419
 20
167.05945401578336
 11
152.87026482659419
 21
155.05945154138513
  0
LINE
  8
_1-0_
  6
CONTINUOUS
 62
    7
 10
152.87026482659419
 20
155.05945154138513
 11
140.87026235219597
 21
155.05945154138513
  0
LINE
  8
_1-0_
  6
CONTINUOUS
 62
    7
 10
152.87026482659419
 20
167.05945401578336
 11
140.87026235219597
 21
155.05945154138513
  0
LINE
  8
_1-0_
  6
CONTINUOUS
 62
    7
 10
201.47025443412164
 20
155.05945154138513
 11
201.47025443412164
 21
167.05945401578336
  0
LINE
  8
_1-0_
  6
CONTINUOUS
 62
    7
 10
201.47025443412164
 20
167.05945401578336
 11
213.47024453652872
 21
167.05945401578336
  0
LINE
  8
_1-0_
  6
CONTINUOUS
 62
    7
 10
213.47024453652872
 20
167.05945401578336
 11
213.47024453652872
 21
155.05945154138513
  0
LINE
  8
_1-0_
  6
CONTINUOUS
 62
    7
 10
213.47024453652872
 20
155.05945154138513
 11
201.47025443412164
 21
155.05945154138513
  0
LINE
  8
_1-0_
  6
CONTINUOUS
 62
    7
 10
213.47024453652872
 20
167.05945401578336
 11
201.47025443412164
 21
155.05945154138513
  0
LINE
  8
_1-0_
  6
CONTINUOUS
 62
    7
 10
262.07024651604729
 20
155.05945154138513
 11
262.07024651604729
 21
167.05945401578336
  0
LINE
  8
_1-0_
  6
CONTINUOUS
 62
    7
 10
262.07024651604729
 20
167.05945401578336
 11
274.07023661845443
 21
167.05945401578336
  0
LINE
  8
_1-0_
  6
CONTINUOUS
 62
    7
 10
274.07023661845443
 20
167.05945401578336
 11
274.07023661845443
 21
155.05945154138513
  0
LINE
  8
_1-0_
  6
CONTINUOUS
 62
    7
 10
274.07023661845443
 20
155.05945154138513
 11
262.07024651604729
 21
155.05945154138513
  0
LINE
  8
_1-0_
  6
CONTINUOUS
 62
    7
 10
274.07023661845443
 20
167.05945401578336
 11
262.07024651604729
 21
155.05945154138513
  0
LINE
  8
_1-0_
  6
CONTINUOUS
 62
    7
 10
322.67023859797297
 20
155.05945154138513
 11
322.67023859797297
 21
167.05945401578336
  0
LINE
  8
_1-0_
  6
CONTINUOUS
 62
    7
 10
322.67023859797297
 20
167.05945401578336
 11
334.67022870038011
 21
167.05945401578336
  0
LINE
  8
_1-0_
  6
CONTINUOUS
 62
    7
 10
334.67022870038011
 20
167.05945401578336
 11
334.67022870038011
 21
155.05945154138513
  0
LINE
  8
_1-0_
  6
CONTINUOUS
 62
    7
 10
334.67022870038011
 20
155.05945154138513
 11
322.67023859797297
 21
155.05945154138513
  0
LINE
  8
_1-0_
  6
CONTINUOUS
 62
    7
 10
334.67022870038011
 20
167.05945401578336
 11
322.67023859797297
 21
155.05945154138513
  0
LINE
  8
_1-0_
  6
CONTINUOUS
 62
    7
 10
383.27023067989865
 20
155.05945154138513
 11
383.27023067989865
 21
167.05945401578336
  0
LINE
  8
_1-0_
  6
CONTINUOUS
 62
    7
 10
391.09257053684547
 20
162.88180377032307
 11
383.27023067989865
 21
155.05945154138513
  0
LINE
  8
_1-0_
  6
CONTINUOUS
 62
    7
 10
80.27027027027026
 20
167.05945401578336
 11
391.09257053684547
 21
167.05945401578336
  0
LINE
  8
_1-0_
  6
CONTINUOUS
 62
    7
 10
80.27027027027026
 20
169.45945945945948
 11
391.09257053684547
 21
169.45945945945948
  0
LINE
  8
_1-0_
  6
CONTINUOUS
 62
    7
 10
383.27023067989865
 20
167.05945401578336
 11
391.09257053684547
 21
167.05945401578336
  0
LINE
  8
_1-0_
  6
CONTINUOUS
 62
    7
 10
383.27023067989865
 20
155.05945154138513
 11
391.09257053684547
 21
155.05945154138513
  0
LINE
  8
_1-0_
  6
CONTINUOUS
 62
    7
 10
147.47027422930745
 20
170.65946836729307
 11
147.47027422930745
 21
171.2594728212099
  0
LINE
  8
_1-0_
  6
CONTINUOUS
 62
    7
 10
147.47027422930745
 20
171.2594728212099
 11
152.27027274466852
 21
171.2594728212099
  0
LINE
  8
_1-0_
  6
CONTINUOUS
 62
    7
 10
152.27027274466852
 20
171.2594728212099
 11
152.27027274466852
 21
170.65946836729307
  0
LINE
  8
_1-0_
  6
CONTINUOUS
 62
    7
 10
152.27027274466852
 20
170.65946836729307
 11
147.47027422930745
 21
170.65946836729307
  0
LINE
  8
_1-0_
  6
CONTINUOUS
 62
    7
 10
147.47027422930745
 20
171.2594728212099
 11
152.27027274466852
 21
170.65946836729307
  0
LINE
  8
_1-0_
  6
CONTINUOUS
 62
    7
 10
208.07026631123313
 20
170.65946836729307
 11
208.07026631123313
 21
171.2594728212099
  0
LINE
  8
_1-0_
  6
CONTINUOUS
 62
    7
 10
208.07026631123313
 20
171.2594728212099
 11
212.87025245460305
 21
171.2594728212099
  0
LINE
  8
_1-0_
  6
CONTINUOUS
 62
    7
 10
212.87025245460305
 20
171.2594728212099
 11
212.87025245460305
 21
170.65946836729307
  0
LINE
  8
_1-0_
  6
CONTINUOUS
 62
    7
 10
212.87025245460305
 20
170.65946836729307
 11
208.07026631123313
 21
170.65946836729307
  0
LINE
  8
_1-0_
  6
CONTINUOUS
 62
    7
 10
208.07026631123313
 20
171.2594728212099
 11
212.87025245460305
 21
170.65946836729307
  0
LINE
  8
_1-0_
  6
CONTINUOUS
 62
    7
 10
268.6702583931588
 20
170.65946836729307
 11
268.6702583931588
 21
171.2594728212099
  0
LINE
  8
_1-0_
  6
CONTINUOUS
 62
    7
 10
268.6702583931588
 20
171.2594728212099
 11
273.47024453652875
 21
171.2594728212099
  0
LINE
  8
_1-0_
  6
CONTINUOUS
 62
    7
 10
273.47024453652875
 20
171.2594728212099
 11
273.47024453652875
 21
170.65946836729307
  0
LINE
  8
_1-0_
  6
CONTINUOUS
 62
    7
 10
273.47024453652875
 20
170.65946836729307
 11
268.6702583931588
 21
170.65946836729307
  0
LINE
  8
_1-0_
  6
CONTINUOUS
 62
    7
 10
268.6702583931588
 20
171.2594728212099
 11
273.47024453652875
 21
170.65946836729307
  0
LINE
  8
_1-0_
  6
CONTINUOUS
 62
    7
 10
329.27025047508448
 20
170.65946836729307
 11
329.27025047508448
 21
171.2594728212099
  0
LINE
  8
_1-0_
  6
CONTINUOUS
 62
    7
 10
329.27025047508448
 20
171.2594728212099
 11
334.07023661845443
 21
171.2594728212099
  0
LINE
  8
_1-0_
  6
CONTINUOUS
 62
    7
 10
334.07023661845443
 20
171.2594728212099
 11
334.07023661845443
 21
170.65946836729307
  0
LINE
  8
_1-0_
  6
CONTINUOUS
 62
    7
 10
334.07023661845443
 20
170.65946836729307
 11
329.27025047508448
 21
170.65946836729307
  0
LINE
  8
_1-0_
  6
CONTINUOUS
 62
    7
 10
329.27025047508448
 20
171.2594728212099
 11
334.07023661845443
 21
170.65946836729307
  0
LINE
  8
_1-0_
  6
CONTINUOUS
 62
    7
 10
389.87024255701016
 20
170.65946836729307
 11
389.87024255701016
 21
171.2594728212099
  0
LINE
  8
_1-0_
  6
CONTINUOUS
 62
    7
 10
391.09259528082771
 20
170.65946836729307
 11
389.87024255701016
 21
170.65946836729307
  0
LINE
  8
_1-0_
  6
CONTINUOUS
 62
    7
 10
389.87024255701016
 20
171.2594728212099
 11
391.09257053684547
 21
171.10667873073268
  0
LINE
  8
_1-0_
  6
CONTINUOUS
 62
    7
 10
389.87024255701016
 20
171.2594728212099
 11
391.09259528082771
 21
171.2594728212099
  0
LINE
  8
_1-2_
  6
CONTINUOUS
 62
    7
 10
205.69081074482688
 20
177.17077306798987
 11
237.31799976245779
 21
90.27581498429582
  0
LINE
  8
_1-2_
  6
CONTINUOUS
 62
    7
 10
237.31799976245779
 20
90.27581498429582
 11
243.24324324324326
 21
90.27581498429582
  0
LINE
  8
_0-1_
  6
CONTINUOUS
 62
    7
 10
224.57903062975086
 20
125.27581292229731
 11
243.24324324324326
 21
125.27581292229731
  0
LINE
  8
_0-1_
  6
CONTINUOUS
 62
    7
 10
227.12681950749578
 20
118.27581457189612
 11
243.24324324324326
 21
118.27581457189612
  0
LINE
  8
_0-1_
  6
CONTINUOUS
 62
    7
 10
229.674633129223
 20
111.27581622149494
 11
243.24324324324326
 21
111.27581622149494
  0
LINE
  8
_0-1_
  6
CONTINUOUS
 62
    7
 10
232.22242200696792
 20
104.27581787109375
 11
243.24324324324326
 21
104.27581787109375
  0
LINE
  8
_0-1_
  6
CONTINUOUS
 62
    7
 10
234.77021088471284
 20
97.275813334697006
 11
243.24324324324326
 21
97.275813334697006
  0
LINE
  8
_1-0_
  6
CONTINUOUS
 62
    7
 10
80.27027027027026
 20
167.05945401578336
 11
72.270262434675885
 21
167.05945401578336
  0
LINE
  8
_1-0_
  6
CONTINUOUS
 62
    7
 10
80.27027027027026
 20
169.45945945945948
 11
72.270262434675885
 21
169.45945945945948
  0
LINE
  8
_1-0_
  6
CONTINUOUS
 62
    7
 10
84.253358583192579
 20
155.05945154138513
 11
391.09257053684547
 21
155.05945154138513
  0
LINE
  8
_1-0_
  6
CONTINUOUS
 62
    7
 10
84.253358583192579
 20
155.05945154138513
 11
84.253358583192579
 21
153.85945500554266
  0
LINE
  8
_1-0_
  6
CONTINUOUS
 62
    7
 10
84.253358583192579
 20
153.85945500554266
 11
391.09257053684547
 21
153.85945500554266
  0
LINE
  8
_1-0_
  6
CONTINUOUS
 62
    7
 10
78.270263671875
 20
149.85945418074326
 11
86.270265321473829
 21
149.85945418074326
  0
LINE
  8
_1-0_
  6
CONTINUOUS
 62
    7
 10
86.270265321473829
 20
153.85945500554266
 11
86.270265321473829
 21
149.85945418074326
  0
LINE
  8
_1-0_
  6
CONTINUOUS
 62
    7
 10
78.270263671875
 20
167.05945401578336
 11
78.270263671875
 21
149.85945418074326
  0
LINE
  8
_1-0_
  6
CONTINUOUS
 62
    7
 10
86.270265321473829
 20
167.05945401578336
 11
86.270265321473829
 21
155.05945154138513
  0
LINE
  8
_1-0_
  6
CONTINUOUS
 62
    7
 10
92.270272744668503
 20
155.05945154138513
 11
84.253358583192579
 21
155.05945154138513
  0
LINE
  8
_1-0_
  6
CONTINUOUS
 62
    7
 10
90.27025996027767
 20
169.45945945945948
 11
90.27025996027767
 21
167.05945401578336
  0
LINE
  8
_1-0_
  6
CONTINUOUS
 62
    7
 10
84.80563189532306
 20
149.85945418074326
 11
86.270265321473829
 21
151.32408760689401
  0
LINE
  8
_1-0_
  6
CONTINUOUS
 62
    7
 10
81.977196770745365
 20
149.85945418074326
 11
85.977197595544766
 21
153.85945500554266
  0
LINE
  8
_1-0_
  6
CONTINUOUS
 62
    7
 10
79.148780204154349
 20
149.85945418074326
 11
84.253358583192579
 21
154.96403874577703
  0
LINE
  8
_1-0_
  6
CONTINUOUS
 62
    7
 10
84.348771378800677
 20
155.05945154138513
 11
86.270265321473829
 21
156.98094548405828
  0
LINE
  8
_1-0_
  6
CONTINUOUS
 62
    7
 10
78.270263671875
 20
151.80936658704604
 11
86.270265321473829
 21
159.80936823664484
  0
LINE
  8
_1-0_
  6
CONTINUOUS
 62
    7
 10
78.270263671875
 20
154.6377893396326
 11
86.270265321473829
 21
162.63779098923143
  0
LINE
  8
_1-0_
  6
CONTINUOUS
 62
    7
 10
78.270263671875
 20
157.46622446421031
 11
86.270265321473829
 21
165.46622611380914
  0
LINE
  8
_1-0_
  6
CONTINUOUS
 62
    7
 10
78.270263671875
 20
160.29464721679687
 11
85.035076656857058
 21
167.05945401578336
  0
LINE
  8
_1-0_
  6
CONTINUOUS
 62
    7
 10
78.270263671875
 20
163.12308234137458
 11
82.206641532279349
 21
167.05945401578336
  0
LINE
  8
_1-0_
  6
CONTINUOUS
 62
    7
 10
78.270263671875
 20
165.95150509396115
 11
79.378212593697214
 21
167.05945401578336
  0
LINE
  8
_1-0_
  6
CONTINUOUS
 62
    7
 10
72.270262434675885
 20
168.14596227697425
 11
73.356776881862345
 21
167.05945401578336
  0
LINE
  8
_1-0_
  6
CONTINUOUS
 62
    7
 10
73.785200376768387
 20
169.45945945945948
 11
76.18520582044448
 21
167.05945401578336
  0
LINE
  8
_1-0_
  6
CONTINUOUS
 62
    7
 10
76.613616943359375
 20
169.45945945945948
 11
79.013622387035468
 21
167.05945401578336
  0
LINE
  8
_1-0_
  6
CONTINUOUS
 62
    7
 10
79.442027323954818
 20
169.45945945945948
 11
81.842032767630911
 21
167.05945401578336
  0
LINE
  8
_1-0_
  6
CONTINUOUS
 62
    7
 10
82.270456262536953
 20
169.45945945945948
 11
84.670461706213047
 21
167.05945401578336
  0
LINE
  8
_1-0_
  6
CONTINUOUS
 62
    7
 10
85.098872829127956
 20
169.45945945945948
 11
87.498878272804063
 21
167.05945401578336
  0
LINE
  8
_1-0_
  6
CONTINUOUS
 62
    7
 10
87.927289395718972
 20
169.45945945945948
 11
90.27025996027767
 21
167.11648889490078
  0
LINE
  8
_0-1_
  6
CONTINUOUS
 62
    7
 10
81.081081081081095
 20
151.62162162162164
 11
93.851883346970027
 21
116.53412277634079
  0
LINE
  8
_0-1_
  6
CONTINUOUS
 62
    7
 10
93.851883346970027
 20
116.53412277634079
 11
97.297297297297305
 21
116.53412277634079
  0
LINE
  8
_1-3_
  6
CONTINUOUS
 62
    7
 10
78.270263671875
 20
132.94939195787586
 11
72.270262434675885
 21
132.94939195787586
  0
LINE
  8
_1-3_
  6
CONTINUOUS
 62
    7
 10
78.270263671875
 20
144.10120783625422
 11
78.270263671875
 21
132.94939195787586
  0
LINE
  8
_1-3_
  6
CONTINUOUS
 62
    7
 10
72.270262434675885
 20
144.10120783625422
 11
72.270262434675885
 21
132.94939195787586
  0
LINE
  8
_1-3_
  6
CONTINUOUS
 62
    7
 10
72.270262434675885
 20
132.94939195787586
 11
71.270265321473801
 21
132.94939195787586
  0
LINE
  8
_1-3_
  6
CONTINUOUS
 62
    7
 10
71.270265321473801
 20
144.10120783625422
 11
71.270265321473801
 21
132.94939195787586
  0
LINE
  8
_1-0_
  6
CONTINUOUS
 62
    7
 10
72.270262434675885
 20
167.05945401578336
 11
72.270262434675885
 21
174.25947034681167
  0
LINE
  8
_1-0_
  6
CONTINUOUS
 62
    7
 10
81.270261197476771
 20
169.45945945945948
 11
81.270261197476771
 21
174.25947034681167
  0
LINE
  8
_1-0_
  6
CONTINUOUS
 62
    7
 10
81.270261197476771
 20
174.25947034681167
 11
72.270262434675885
 21
174.25947034681167
  0
LINE
  8
_1-0_
  6
DASHED1
 62
    3
 10
72.221188931851771
 20
174.51773566168708
 11
81.504196991791616
 21
174.51773566168708
  0
LINE
  8
_1-0_
  6
DASHED1
 62
    3
 10
72.221188931851771
 20
174.51773566168708
 11
71.971138619087839
 21
174.51773566168708
  0
LINE
  8
_1-0_
  6
DASHED1
 62
    3
 10
71.971138619087839
 20
174.51773566168708
 11
71.971138619087839
 21
169.51679126636404
  0
LINE
  8
_1-0_
  6
DASHED1
 62
    3
 10
81.504196991791616
 20
174.51773566168708
 11
81.504196991791616
 21
170.05946391337628
  0
LINE
  8
_1-0_
  6
DASHED1
 62
    3
 10
81.504196991791616
 20
170.05946391337628
 11
391.09257053684547
 21
170.05946391337628
  0
LINE
  8
_1-0_
  6
CONTINUOUS
 62
    7
 10
82.004297617319466
 20
170.65946836729307
 11
391.09257053684547
 21
170.65946836729307
  0
LINE
  8
_1-0_
  6
CONTINUOUS
 62
    7
 10
82.004297617319466
 20
171.2594728212099
 11
391.09259528082771
 21
171.2594728212099
  0
LINE
  8
_1-0_
  6
CONTINUOUS
 62
    7
 10
82.004297617319466
 20
171.2594728212099
 11
82.004297617319466
 21
170.65946836729307
  0
LINE
  8
_1-0_
  6
CONTINUOUS
 62
    7
 10
82.004297617319466
 20
174.25947034681167
 11
82.004297617319466
 21
171.2594728212099
  0
LINE
  8
_1-0_
  6
CONTINUOUS
 62
    7
 10
82.004297617319466
 20
170.65946836729307
 11
82.004297617319466
 21
171.2594728212099
  0
LINE
  8
_1-0_
  6
CONTINUOUS
 62
    7
 10
82.004297617319466
 20
171.2594728212099
 11
86.804296132680534
 21
171.2594728212099
  0
LINE
  8
_1-0_
  6
CONTINUOUS
 62
    7
 10
86.804296132680534
 20
171.2594728212099
 11
86.804296132680534
 21
170.65946836729307
  0
LINE
  8
_1-0_
  6
CONTINUOUS
 62
    7
 10
86.804296132680534
 20
170.65946836729307
 11
82.004297617319466
 21
170.65946836729307
  0
LINE
  8
_1-0_
  6
CONTINUOUS
 62
    7
 10
82.004297617319466
 20
171.2594728212099
 11
86.804296132680534
 21
170.65946836729307
  0
LINE
  8
_1-0_
  6
CONTINUOUS
 62
    7
 10
82.004297617319466
 20
174.25947034681167
 11
391.09259528082771
 21
174.25947034681167
  0
LINE
  8
ADD_LINE
  6
DOT
 62
    4
 10
71.270265321473801
 20
180.16444850612331
 11
71.270265321473801
 21
157.40636877111487
  0
LINE
  8
_1-1_
  6
CONTINUOUS
 62
    7
 10
116.2702529494827
 20
179.65019432274073
 11
116.2702529494827
 21
177.25020125105576
  0
LINE
  8
_1-1_
  6
CONTINUOUS
 62
    7
 10
116.2702529494827
 20
179.65019432274073
 11
116.2702529494827
 21
177.25020125105576
  0
LINE
  8
_1-1_
  6
CONTINUOUS
 62
    7
 10
114.07026548643371
 20
177.4501944877006
 11
114.27027109506969
 21
177.25020125105576
  0
LINE
  8
_1-1_
  6
CONTINUOUS
 62
    7
 10
114.27027109506969
 20
177.25020125105576
 11
116.2702529494827
 21
177.25020125105576
  0
LINE
  8
_1-1_
  6
CONTINUOUS
 62
    7
 10
108.27025129988388
 20
176.45020356049409
 11
108.67476592192779
 21
177.4501944877006
  0
LINE
  8
_1-1_
  6
CONTINUOUS
 62
    7
 10
108.67476592192779
 20
177.4501944877006
 11
114.07026548643371
 21
177.4501944877006
  0
LINE
  8
_1-1_
  6
CONTINUOUS
 62
    7
 10
71.270265321473801
 20
176.45020356049409
 11
71.270265321473801
 21
162.65020009633659
  0
LINE
  8
_1-1_
  6
CONTINUOUS
 62
    7
 10
68.870259877797707
 20
162.65020009633659
 11
71.270265321473801
 21
162.65020009633659
  0
LINE
  8
_1-1_
  6
CONTINUOUS
 62
    7
 10
68.270255423880911
 20
163.25020455025339
 11
68.270255423880911
 21
179.65019432274073
  0
LINE
  8
_1-1_
  6
CONTINUOUS
 62
    7
 10
68.870259877797707
 20
162.65020009633659
 11
68.270255423880911
 21
163.25020455025339
  0
LINE
  8
_1-1_
  6
CONTINUOUS
 62
    7
 10
85.070256413640209
 20
176.45020356049409
 11
71.270265321473801
 21
176.45020356049409
  0
LINE
  8
_1-1_
  6
CONTINUOUS
 62
    7
 10
108.27025129988388
 20
176.45020356049409
 11
103.67027076514992
 21
176.45020356049409
  0
LINE
  8
_1-1_
  6
CONTINUOUS
 62
    7
 10
102.27025624868033
 20
176.45020356049409
 11
86.470258558118672
 21
176.45020356049409
  0
LINE
  8
_1-1_
  6
CONTINUOUS
 62
    7
 10
68.270255423880911
 20
179.65019432274073
 11
73.263591044657943
 21
179.65019432274073
  0
LINE
  8
_1-1_
  6
CONTINUOUS
 62
    7
 10
77.580587026235207
 20
179.65019432274073
 11
116.2702529494827
 21
179.65019432274073
  0
LINE
  8
_1-1_
  6
CONTINUOUS
 62
    7
 10
103.47026515651395
 20
174.25020372545399
 11
102.4702618573163
 21
174.25020372545399
  0
LINE
  8
_1-1_
  6
CONTINUOUS
 62
    7
 10
86.270265321473829
 20
174.25020372545399
 11
85.270262022276185
 21
174.25020372545399
  0
LINE
  8
_1-1_
  6
CONTINUOUS
 62
    7
 10
85.070256413640209
 20
176.45020356049409
 11
85.270262022276185
 21
174.25020372545399
  0
LINE
  8
_1-1_
  6
CONTINUOUS
 62
    7
 10
86.270265321473829
 20
174.25020372545399
 11
86.470258558118672
 21
176.45020356049409
  0
LINE
  8
_1-1_
  6
CONTINUOUS
 62
    7
 10
102.27025624868033
 20
176.45020356049409
 11
102.4702618573163
 21
174.25020372545399
  0
LINE
  8
_1-1_
  6
CONTINUOUS
 62
    7
 10
103.47026515651395
 20
174.25020372545399
 11
103.67027076514992
 21
176.45020356049409
  0
LINE
  8
_1-2_
  6
CONTINUOUS
 62
    7
 10
116.2702529494827
 20
179.65019432274073
 11
177.4702618573163
 21
179.65019432274073
  0
LINE
  8
_1-2_
  6
CONTINUOUS
 62
    7
 10
177.4702618573163
 20
179.65019432274073
 11
177.4702618573163
 21
178.0501989416174
  0
LINE
  8
_1-2_
  6
CONTINUOUS
 62
    7
 10
176.07024734084672
 20
178.0501989416174
 11
176.07024734084672
 21
177.85019333298143
  0
LINE
  8
_1-2_
  6
CONTINUOUS
 62
    7
 10
176.87024503140836
 20
178.0501989416174
 11
176.87024503140836
 21
177.85019333298143
  0
LINE
  8
_1-2_
  6
CONTINUOUS
 62
    7
 10
174.07024074245143
 20
178.0501989416174
 11
174.07024074245143
 21
177.85019333298143
  0
LINE
  8
_1-2_
  6
CONTINUOUS
 62
    7
 10
173.47024866052578
 20
178.0501989416174
 11
173.47024866052578
 21
177.85019333298143
  0
LINE
  8
_1-2_
  6
CONTINUOUS
 62
    7
 10
173.47024866052578
 20
177.85019333298143
 11
174.07024074245143
 21
177.85019333298143
  0
LINE
  8
_1-2_
  6
CONTINUOUS
 62
    7
 10
176.07024734084672
 20
177.85019333298143
 11
176.87024503140836
 21
177.85019333298143
  0
LINE
  8
_1-2_
  6
CONTINUOUS
 62
    7
 10
174.07024074245143
 20
178.0501989416174
 11
176.07024734084672
 21
178.0501989416174
  0
LINE
  8
_1-2_
  6
CONTINUOUS
 62
    7
 10
176.87024503140836
 20
178.0501989416174
 11
177.4702618573163
 21
178.0501989416174
  0
LINE
  8
_1-2_
  6
CONTINUOUS
 62
    7
 10
169.07743711729307
 20
178.0501989416174
 11
169.14613878404774
 21
178.0501989416174
  0
LINE
  8
_1-2_
  6
CONTINUOUS
 62
    7
 10
168.67025014516472
 20
178.0501989416174
 11
169.07743711729307
 21
178.0501989416174
  0
LINE
  8
_1-2_
  6
CONTINUOUS
 62
    7
 10
152.67024684596706
 20
176.65019679713893
 11
165.67025261956294
 21
176.65019679713893
  0
LINE
  8
_1-2_
  6
CONTINUOUS
 62
    7
 10
134.27025047508448
 20
176.65019679713893
 11
135.27025377428211
 21
174.25019135346284
  0
LINE
  8
_1-2_
  6
CONTINUOUS
 62
    7
 10
136.27025707347974
 20
174.25019135346284
 11
137.27024800068625
 21
176.65019679713893
  0
LINE
  8
_1-2_
  6
CONTINUOUS
 62
    7
 10
149.67024932036529
 20
176.65019679713893
 11
150.67025261956294
 21
174.25019135346284
  0
LINE
  8
_1-2_
  6
CONTINUOUS
 62
    7
 10
151.67025591876057
 20
174.25019135346284
 11
152.67024684596706
 21
176.65019679713893
  0
LINE
  8
_1-2_
  6
CONTINUOUS
 62
    7
 10
165.67025261956294
 20
176.65019679713893
 11
166.67025591876057
 21
174.25019135346284
  0
LINE
  8
_1-2_
  6
CONTINUOUS
 62
    7
 10
168.67025014516472
 20
178.0501989416174
 11
173.47024866052578
 21
178.0501989416174
  0
LINE
  8
_1-2_
  6
CONTINUOUS
 62
    7
 10
135.27025377428211
 20
174.25019135346284
 11
136.27025707347974
 21
174.25019135346284
  0
LINE
  8
_1-2_
  6
CONTINUOUS
 62
    7
 10
150.67025261956294
 20
174.25019135346284
 11
151.67025591876057
 21
174.25019135346284
  0
LINE
  8
_1-2_
  6
CONTINUOUS
 62
    7
 10
167.67024684596706
 20
174.25019135346284
 11
167.96856029613599
 21
175.38376266891893
  0
LINE
  8
_1-2_
  6
CONTINUOUS
 62
    7
 10
167.97161617794552
 20
175.39537996859164
 11
168.67025014516472
 21
178.0501989416174
  0
LINE
  8
_1-2_
  6
CONTINUOUS
 62
    7
 10
166.67025591876057
 20
174.25019135346284
 11
167.67024684596706
 21
174.25019135346284
  0
LINE
  8
_1-2_
  6
CONTINUOUS
 62
    7
 10
118.99962554106843
 20
176.65019679713893
 11
134.27025047508448
 21
176.65019679713893
  0
LINE
  8
_1-2_
  6
CONTINUOUS
 62
    7
 10
137.27024800068625
 20
176.65019679713893
 11
149.67024932036529
 21
176.65019679713893
  0
LINE
  8
_1-2_
  6
CONTINUOUS
 62
    7
 10
116.2702529494827
 20
179.65019432274073
 11
116.2702529494827
 21
175.6501934979413
  0
LINE
  8
_1-2_
  6
CONTINUOUS
 62
    7
 10
117.31980607316301
 20
174.52806627428211
 11
118.49342552391259
 21
176.37232187631969
  0
LINE
  8
_1-2_
  6
CONTINUOUS
 62
    7
 10
108.47025690851986
 20
176.25019795185813
 11
109.47026020771749
 21
176.25019795185813
  0
LINE
  8
_1-2_
  6
CONTINUOUS
 62
    7
 10
109.47026020771749
 20
176.25019795185813
 11
109.47026020771749
 21
175.6501934979413
  0
LINE
  8
_1-2_
  6
CONTINUOUS
 62
    7
 10
108.47025690851986
 20
176.25019795185813
 11
108.47025690851986
 21
174.25019135346284
  0
LINE
  8
_1-2_
  6
CONTINUOUS
 62
    7
 10
116.81360605600719
 20
174.25019135346284
 11
108.47025690851986
 21
174.25019135346284
  0
LINE
  8
_1-2_
  6
CONTINUOUS
 62
    7
 10
111.97025608372044
 20
176.25019795185813
 11
112.7702537742821
 21
176.25019795185813
  0
LINE
  8
_1-2_
  6
CONTINUOUS
 62
    7
 10
111.97025608372044
 20
176.25019795185813
 11
111.97025608372044
 21
175.6501934979413
  0
LINE
  8
_1-2_
  6
CONTINUOUS
 62
    7
 10
112.7702537742821
 20
176.25019795185813
 11
112.7702537742821
 21
175.6501934979413
  0
LINE
  8
_1-2_
  6
CONTINUOUS
 62
    7
 10
112.7702537742821
 20
175.6501934979413
 11
116.2702529494827
 21
175.6501934979413
  0
LINE
  8
_1-2_
  6
CONTINUOUS
 62
    7
 10
109.47026020771749
 20
175.6501934979413
 11
111.97025608372044
 21
175.6501934979413
  0
LINE
  8
_1-2_
  6
CONTINUOUS
 62
    7
 10
177.4702618573163
 20
179.65019432274073
 11
238.6702583931588
 21
179.65019432274073
  0
LINE
  8
_1-2_
  6
CONTINUOUS
 62
    7
 10
238.6702583931588
 20
179.65019432274073
 11
238.6702583931588
 21
178.0501989416174
  0
LINE
  8
_1-2_
  6
CONTINUOUS
 62
    7
 10
237.27024387668919
 20
178.0501989416174
 11
237.27024387668919
 21
177.85019333298143
  0
LINE
  8
_1-2_
  6
CONTINUOUS
 62
    7
 10
238.07024156725086
 20
178.0501989416174
 11
238.07024156725086
 21
177.85019333298143
  0
LINE
  8
_1-2_
  6
CONTINUOUS
 62
    7
 10
235.27023727829393
 20
178.0501989416174
 11
235.27023727829393
 21
177.85019333298143
  0
LINE
  8
_1-2_
  6
CONTINUOUS
 62
    7
 10
234.67024519636826
 20
178.0501989416174
 11
234.67024519636826
 21
177.85019333298143
  0
LINE
  8
_1-2_
  6
CONTINUOUS
 62
    7
 10
234.67024519636826
 20
177.85019333298143
 11
235.27023727829393
 21
177.85019333298143
  0
LINE
  8
_1-2_
  6
CONTINUOUS
 62
    7
 10
237.27024387668919
 20
177.85019333298143
 11
238.07024156725086
 21
177.85019333298143
  0
LINE
  8
_1-2_
  6
CONTINUOUS
 62
    7
 10
235.27023727829393
 20
178.0501989416174
 11
237.27024387668919
 21
178.0501989416174
  0
LINE
  8
_1-2_
  6
CONTINUOUS
 62
    7
 10
238.07024156725086
 20
178.0501989416174
 11
238.6702583931588
 21
178.0501989416174
  0
LINE
  8
_1-2_
  6
CONTINUOUS
 62
    7
 10
230.27744602512669
 20
178.0501989416174
 11
230.34613531989021
 21
178.0501989416174
  0
LINE
  8
_1-2_
  6
CONTINUOUS
 62
    7
 10
229.87025905299834
 20
178.0501989416174
 11
230.27744602512669
 21
178.0501989416174
  0
LINE
  8
_1-2_
  6
CONTINUOUS
 62
    7
 10
213.87025575380068
 20
176.65019679713893
 11
226.87024915540542
 21
176.65019679713893
  0
LINE
  8
_1-2_
  6
CONTINUOUS
 62
    7
 10
195.47025938291807
 20
176.65019679713893
 11
196.47026268211573
 21
174.25019135346284
  0
LINE
  8
_1-2_
  6
CONTINUOUS
 62
    7
 10
197.47026598131336
 20
174.25019135346284
 11
198.47025690851987
 21
176.65019679713893
  0
LINE
  8
_1-2_
  6
CONTINUOUS
 62
    7
 10
210.87024585620779
 20
176.65019679713893
 11
211.87024915540542
 21
174.25019135346284
  0
LINE
  8
_1-2_
  6
CONTINUOUS
 62
    7
 10
212.87025245460305
 20
174.25019135346284
 11
213.87025575380068
 21
176.65019679713893
  0
LINE
  8
_1-2_
  6
CONTINUOUS
 62
    7
 10
226.87024915540542
 20
176.65019679713893
 11
227.87025245460305
 21
174.25019135346284
  0
LINE
  8
_1-2_
  6
CONTINUOUS
 62
    7
 10
229.87025905299834
 20
178.0501989416174
 11
234.67024519636826
 21
178.0501989416174
  0
LINE
  8
_1-2_
  6
CONTINUOUS
 62
    7
 10
196.47026268211573
 20
174.25019135346284
 11
197.47026598131336
 21
174.25019135346284
  0
LINE
  8
_1-2_
  6
CONTINUOUS
 62
    7
 10
211.87024915540542
 20
174.25019135346284
 11
212.87025245460305
 21
174.25019135346284
  0
LINE
  8
_1-2_
  6
CONTINUOUS
 62
    7
 10
228.87025575380068
 20
174.25019135346284
 11
229.16856920396961
 21
175.38376266891893
  0
LINE
  8
_1-2_
  6
CONTINUOUS
 62
    7
 10
229.17161271378802
 20
175.39537996859164
 11
229.87025905299834
 21
178.0501989416174
  0
LINE
  8
_1-2_
  6
CONTINUOUS
 62
    7
 10
227.87025245460305
 20
174.25019135346284
 11
228.87025575380068
 21
174.25019135346284
  0
LINE
  8
_1-2_
  6
CONTINUOUS
 62
    7
 10
180.19963444890203
 20
176.65019679713893
 11
195.47025938291807
 21
176.65019679713893
  0
LINE
  8
_1-2_
  6
CONTINUOUS
 62
    7
 10
198.47025690851987
 20
176.65019679713893
 11
210.87024585620779
 21
176.65019679713893
  0
LINE
  8
_1-2_
  6
CONTINUOUS
 62
    7
 10
177.4702618573163
 20
179.65019432274073
 11
177.4702618573163
 21
175.6501934979413
  0
LINE
  8
_1-2_
  6
CONTINUOUS
 62
    7
 10
178.51981498099664
 20
174.52806627428211
 11
179.6934344317462
 21
176.37232187631969
  0
LINE
  8
_1-2_
  6
CONTINUOUS
 62
    7
 10
169.67026581635346
 20
176.25019795185813
 11
170.67026911555109
 21
176.25019795185813
  0
LINE
  8
_1-2_
  6
CONTINUOUS
 62
    7
 10
170.67026911555109
 20
176.25019795185813
 11
170.67026911555109
 21
175.6501934979413
  0
LINE
  8
_1-2_
  6
CONTINUOUS
 62
    7
 10
169.67026581635346
 20
176.25019795185813
 11
169.67026581635346
 21
174.25019135346284
  0
LINE
  8
_1-2_
  6
CONTINUOUS
 62
    7
 10
178.01361496384081
 20
174.25019135346284
 11
169.67026581635346
 21
174.25019135346284
  0
LINE
  8
_1-2_
  6
CONTINUOUS
 62
    7
 10
173.17026499155406
 20
176.25019795185813
 11
173.97026268211573
 21
176.25019795185813
  0
LINE
  8
_1-2_
  6
CONTINUOUS
 62
    7
 10
173.17026499155406
 20
176.25019795185813
 11
173.17026499155406
 21
175.6501934979413
  0
LINE
  8
_1-2_
  6
CONTINUOUS
 62
    7
 10
173.97026268211573
 20
176.25019795185813
 11
173.97026268211573
 21
175.6501934979413
  0
LINE
  8
_1-2_
  6
CONTINUOUS
 62
    7
 10
173.97026268211573
 20
175.6501934979413
 11
177.4702618573163
 21
175.6501934979413
  0
LINE
  8
_1-2_
  6
CONTINUOUS
 62
    7
 10
170.67026911555109
 20
175.6501934979413
 11
173.17026499155406
 21
175.6501934979413
  0
LINE
  8
_1-2_
  6
CONTINUOUS
 62
    7
 10
238.6702583931588
 20
179.65019432274073
 11
299.8702673009924
 21
179.65019432274073
  0
LINE
  8
_1-2_
  6
CONTINUOUS
 62
    7
 10
299.8702673009924
 20
179.65019432274073
 11
299.8702673009924
 21
178.0501989416174
  0
LINE
  8
_1-2_
  6
CONTINUOUS
 62
    7
 10
298.47025278452281
 20
178.0501989416174
 11
298.47025278452281
 21
177.85019333298143
  0
LINE
  8
_1-2_
  6
CONTINUOUS
 62
    7
 10
299.27025047508448
 20
178.0501989416174
 11
299.27025047508448
 21
177.85019333298143
  0
LINE
  8
_1-2_
  6
CONTINUOUS
 62
    7
 10
296.47024618612755
 20
178.0501989416174
 11
296.47024618612755
 21
177.85019333298143
  0
LINE
  8
_1-2_
  6
CONTINUOUS
 62
    7
 10
295.87025410420188
 20
178.0501989416174
 11
295.87025410420188
 21
177.85019333298143
  0
LINE
  8
_1-2_
  6
CONTINUOUS
 62
    7
 10
295.87025410420188
 20
177.85019333298143
 11
296.47024618612755
 21
177.85019333298143
  0
LINE
  8
_1-2_
  6
CONTINUOUS
 62
    7
 10
298.47025278452281
 20
177.85019333298143
 11
299.27025047508448
 21
177.85019333298143
  0
LINE
  8
_1-2_
  6
CONTINUOUS
 62
    7
 10
296.47024618612755
 20
178.0501989416174
 11
298.47025278452281
 21
178.0501989416174
  0
LINE
  8
_1-2_
  6
CONTINUOUS
 62
    7
 10
299.27025047508448
 20
178.0501989416174
 11
299.8702673009924
 21
178.0501989416174
  0
LINE
  8
_1-2_
  6
CONTINUOUS
 62
    7
 10
291.47745493296031
 20
178.0501989416174
 11
291.54614422772386
 21
178.0501989416174
  0
LINE
  8
_1-2_
  6
CONTINUOUS
 62
    7
 10
291.07026796083193
 20
178.0501989416174
 11
291.47745493296031
 21
178.0501989416174
  0
LINE
  8
_1-2_
  6
CONTINUOUS
 62
    7
 10
275.07026466163433
 20
176.65019679713893
 11
288.07025806323901
 21
176.65019679713893
  0
LINE
  8
_1-2_
  6
CONTINUOUS
 62
    7
 10
256.67026829075172
 20
176.65019679713893
 11
257.67027158994932
 21
174.25019135346284
  0
LINE
  8
_1-2_
  6
CONTINUOUS
 62
    7
 10
258.67027488914698
 20
174.25019135346284
 11
259.67025344436234
 21
176.65019679713893
  0
LINE
  8
_1-2_
  6
CONTINUOUS
 62
    7
 10
272.07025476404141
 20
176.65019679713893
 11
273.07025806323901
 21
174.25019135346284
  0
LINE
  8
_1-2_
  6
CONTINUOUS
 62
    7
 10
274.07026136243667
 20
174.25019135346284
 11
275.07026466163433
 21
176.65019679713893
  0
LINE
  8
_1-2_
  6
CONTINUOUS
 62
    7
 10
288.07025806323901
 20
176.65019679713893
 11
289.07026136243667
 21
174.25019135346284
  0
LINE
  8
_1-2_
  6
CONTINUOUS
 62
    7
 10
291.07026796083193
 20
178.0501989416174
 11
295.87025410420188
 21
178.0501989416174
  0
LINE
  8
_1-2_
  6
CONTINUOUS
 62
    7
 10
257.67027158994932
 20
174.25019135346284
 11
258.67027488914698
 21
174.25019135346284
  0
LINE
  8
_1-2_
  6
CONTINUOUS
 62
    7
 10
273.07025806323901
 20
174.25019135346284
 11
274.07026136243667
 21
174.25019135346284
  0
LINE
  8
_1-2_
  6
CONTINUOUS
 62
    7
 10
290.07026466163433
 20
174.25019135346284
 11
290.36857811180323
 21
175.38376266891893
  0
LINE
  8
_1-2_
  6
CONTINUOUS
 62
    7
 10
290.37162162162161
 20
175.39537996859164
 11
291.07026796083193
 21
178.0501989416174
  0
LINE
  8
_1-2_
  6
CONTINUOUS
 62
    7
 10
289.07026136243667
 20
174.25019135346284
 11
290.07026466163433
 21
174.25019135346284
  0
LINE
  8
_1-2_
  6
CONTINUOUS
 62
    7
 10
241.39964335673565
 20
176.65019679713893
 11
256.67026829075172
 21
176.65019679713893
  0
LINE
  8
_1-2_
  6
CONTINUOUS
 62
    7
 10
259.67025344436234
 20
176.65019679713893
 11
272.07025476404141
 21
176.65019679713893
  0
LINE
  8
_1-2_
  6
CONTINUOUS
 62
    7
 10
238.6702583931588
 20
179.65019432274073
 11
238.6702583931588
 21
175.6501934979413
  0
LINE
  8
_1-2_
  6
CONTINUOUS
 62
    7
 10
239.71982388883026
 20
174.52806627428211
 11
240.8934309675887
 21
176.37232187631969
  0
LINE
  8
_1-2_
  6
CONTINUOUS
 62
    7
 10
230.87026235219597
 20
176.25019795185813
 11
231.87026565139359
 21
176.25019795185813
  0
LINE
  8
_1-2_
  6
CONTINUOUS
 62
    7
 10
231.87026565139359
 20
176.25019795185813
 11
231.87026565139359
 21
175.6501934979413
  0
LINE
  8
_1-2_
  6
CONTINUOUS
 62
    7
 10
230.87026235219597
 20
176.25019795185813
 11
230.87026235219597
 21
174.25019135346284
  0
LINE
  8
_1-2_
  6
CONTINUOUS
 62
    7
 10
239.21361149968328
 20
174.25019135346284
 11
230.87026235219597
 21
174.25019135346284
  0
LINE
  8
_1-2_
  6
CONTINUOUS
 62
    7
 10
234.37027389938768
 20
176.25019795185813
 11
235.17027158994935
 21
176.25019795185813
  0
LINE
  8
_1-2_
  6
CONTINUOUS
 62
    7
 10
234.37027389938768
 20
176.25019795185813
 11
234.37027389938768
 21
175.6501934979413
  0
LINE
  8
_1-2_
  6
CONTINUOUS
 62
    7
 10
235.17027158994935
 20
176.25019795185813
 11
235.17027158994935
 21
175.6501934979413
  0
LINE
  8
_1-2_
  6
CONTINUOUS
 62
    7
 10
235.17027158994935
 20
175.6501934979413
 11
238.6702583931588
 21
175.6501934979413
  0
LINE
  8
_1-2_
  6
CONTINUOUS
 62
    7
 10
231.87026565139359
 20
175.6501934979413
 11
234.37027389938768
 21
175.6501934979413
  0
LINE
  8
_1-2_
  6
CONTINUOUS
 62
    7
 10
299.8702673009924
 20
179.65019432274073
 11
361.07027620882604
 21
179.65019432274073
  0
LINE
  8
_1-2_
  6
CONTINUOUS
 62
    7
 10
361.07027620882604
 20
179.65019432274073
 11
361.07027620882604
 21
178.0501989416174
  0
LINE
  8
_1-2_
  6
CONTINUOUS
 62
    7
 10
359.67026169235646
 20
178.0501989416174
 11
359.67026169235646
 21
177.85019333298143
  0
LINE
  8
_1-2_
  6
CONTINUOUS
 62
    7
 10
360.47025938291807
 20
178.0501989416174
 11
360.47025938291807
 21
177.85019333298143
  0
LINE
  8
_1-2_
  6
CONTINUOUS
 62
    7
 10
357.67025509396115
 20
178.0501989416174
 11
357.67025509396115
 21
177.85019333298143
  0
LINE
  8
_1-2_
  6
CONTINUOUS
 62
    7
 10
357.07026301203547
 20
178.0501989416174
 11
357.07026301203547
 21
177.85019333298143
  0
LINE
  8
_1-2_
  6
CONTINUOUS
 62
    7
 10
357.07026301203547
 20
177.85019333298143
 11
357.67025509396115
 21
177.85019333298143
  0
LINE
  8
_1-2_
  6
CONTINUOUS
 62
    7
 10
359.67026169235646
 20
177.85019333298143
 11
360.47025938291807
 21
177.85019333298143
  0
LINE
  8
_1-2_
  6
CONTINUOUS
 62
    7
 10
357.67025509396115
 20
178.0501989416174
 11
359.67026169235646
 21
178.0501989416174
  0
LINE
  8
_1-2_
  6
CONTINUOUS
 62
    7
 10
360.47025938291807
 20
178.0501989416174
 11
361.07027620882604
 21
178.0501989416174
  0
LINE
  8
_1-2_
  6
CONTINUOUS
 62
    7
 10
352.67746384079396
 20
178.0501989416174
 11
352.74615313555745
 21
178.0501989416174
  0
LINE
  8
_1-2_
  6
CONTINUOUS
 62
    7
 10
352.27027686866558
 20
178.0501989416174
 11
352.67746384079396
 21
178.0501989416174
  0
LINE
  8
_1-2_
  6
CONTINUOUS
 62
    7
 10
336.27027356946792
 20
176.65019679713893
 11
349.27026697107266
 21
176.65019679713893
  0
LINE
  8
_1-2_
  6
CONTINUOUS
 62
    7
 10
317.87027719858531
 20
176.65019679713893
 11
318.87028049778297
 21
174.25019135346284
  0
LINE
  8
_1-2_
  6
CONTINUOUS
 62
    7
 10
319.87028379698057
 20
174.25019135346284
 11
320.87026235219594
 21
176.65019679713893
  0
LINE
  8
_1-2_
  6
CONTINUOUS
 62
    7
 10
333.270263671875
 20
176.65019679713893
 11
334.27026697107266
 21
174.25019135346284
  0
LINE
  8
_1-2_
  6
CONTINUOUS
 62
    7
 10
335.27027027027032
 20
174.25019135346284
 11
336.27027356946792
 21
176.65019679713893
  0
LINE
  8
_1-2_
  6
CONTINUOUS
 62
    7
 10
349.27026697107266
 20
176.65019679713893
 11
350.27027027027032
 21
174.25019135346284
  0
LINE
  8
_1-2_
  6
CONTINUOUS
 62
    7
 10
352.27027686866558
 20
178.0501989416174
 11
357.07026301203547
 21
178.0501989416174
  0
LINE
  8
_1-2_
  6
CONTINUOUS
 62
    7
 10
318.87028049778297
 20
174.25019135346284
 11
319.87028379698057
 21
174.25019135346284
  0
LINE
  8
_1-2_
  6
CONTINUOUS
 62
    7
 10
334.27026697107266
 20
174.25019135346284
 11
335.27027027027032
 21
174.25019135346284
  0
LINE
  8
_1-2_
  6
CONTINUOUS
 62
    7
 10
351.27027356946792
 20
174.25019135346284
 11
351.56858701963682
 21
175.38376266891893
  0
LINE
  8
_1-2_
  6
CONTINUOUS
 62
    7
 10
351.57163052945526
 20
175.39537996859164
 11
352.27027686866558
 21
178.0501989416174
  0
LINE
  8
_1-2_
  6
CONTINUOUS
 62
    7
 10
350.27027027027032
 20
174.25019135346284
 11
351.27027356946792
 21
174.25019135346284
  0
LINE
  8
_1-2_
  6
CONTINUOUS
 62
    7
 10
302.59965226456927
 20
176.65019679713893
 11
317.87027719858531
 21
176.65019679713893
  0
LINE
  8
_1-2_
  6
CONTINUOUS
 62
    7
 10
320.87026235219594
 20
176.65019679713893
 11
333.270263671875
 21
176.65019679713893
  0
LINE
  8
_1-2_
  6
CONTINUOUS
 62
    7
 10
299.8702673009924
 20
179.65019432274073
 11
299.8702673009924
 21
175.6501934979413
  0
LINE
  8
_1-2_
  6
CONTINUOUS
 62
    7
 10
300.91983279666385
 20
174.52806627428211
 11
302.09343987542229
 21
176.37232187631969
  0
LINE
  8
_1-2_
  6
CONTINUOUS
 62
    7
 10
292.07027126002959
 20
176.25019795185813
 11
293.07027455922719
 21
176.25019795185813
  0
LINE
  8
_1-2_
  6
CONTINUOUS
 62
    7
 10
293.07027455922719
 20
176.25019795185813
 11
293.07027455922719
 21
175.6501934979413
  0
LINE
  8
_1-2_
  6
CONTINUOUS
 62
    7
 10
292.07027126002959
 20
176.25019795185813
 11
292.07027126002959
 21
174.25019135346284
  0
LINE
  8
_1-2_
  6
CONTINUOUS
 62
    7
 10
300.41362040751693
 20
174.25019135346284
 11
292.07027126002959
 21
174.25019135346284
  0
LINE
  8
_1-2_
  6
CONTINUOUS
 62
    7
 10
295.5702828072213
 20
176.25019795185813
 11
296.37028049778297
 21
176.25019795185813
  0
LINE
  8
_1-2_
  6
CONTINUOUS
 62
    7
 10
295.5702828072213
 20
176.25019795185813
 11
295.5702828072213
 21
175.6501934979413
  0
LINE
  8
_1-2_
  6
CONTINUOUS
 62
    7
 10
296.37028049778297
 20
176.25019795185813
 11
296.37028049778297
 21
175.6501934979413
  0
LINE
  8
_1-2_
  6
CONTINUOUS
 62
    7
 10
296.37028049778297
 20
175.6501934979413
 11
299.8702673009924
 21
175.6501934979413
  0
LINE
  8
_1-2_
  6
CONTINUOUS
 62
    7
 10
293.07027455922719
 20
175.6501934979413
 11
295.5702828072213
 21
175.6501934979413
  0
LINE
  8
_1-2_
  6
CONTINUOUS
 62
    7
 10
379.07028610641896
 20
176.65019679713893
 11
380.07028940561656
 21
174.25019135346284
  0
LINE
  8
_1-2_
  6
CONTINUOUS
 62
    7
 10
381.07029270481422
 20
174.25019135346284
 11
382.07027126002959
 21
176.65019679713893
  0
LINE
  8
_1-2_
  6
CONTINUOUS
 62
    7
 10
380.07028940561656
 20
174.25019135346284
 11
381.07029270481422
 21
174.25019135346284
  0
LINE
  8
_1-2_
  6
CONTINUOUS
 62
    7
 10
363.79966117240286
 20
176.65019679713893
 11
379.07028610641896
 21
176.65019679713893
  0
LINE
  8
_1-2_
  6
CONTINUOUS
 62
    7
 10
361.07027620882604
 20
179.65019432274073
 11
361.07027620882604
 21
175.6501934979413
  0
LINE
  8
_1-2_
  6
CONTINUOUS
 62
    7
 10
362.1198417044975
 20
174.52806627428211
 11
363.29344878325594
 21
176.37232187631969
  0
LINE
  8
_1-2_
  6
CONTINUOUS
 62
    7
 10
353.27028016786318
 20
176.25019795185813
 11
354.27028346706084
 21
176.25019795185813
  0
LINE
  8
_1-2_
  6
CONTINUOUS
 62
    7
 10
354.27028346706084
 20
176.25019795185813
 11
354.27028346706084
 21
175.6501934979413
  0
LINE
  8
_1-2_
  6
CONTINUOUS
 62
    7
 10
353.27028016786318
 20
176.25019795185813
 11
353.27028016786318
 21
174.25019135346284
  0
LINE
  8
_1-2_
  6
CONTINUOUS
 62
    7
 10
361.61362931535052
 20
174.25019135346284
 11
353.27028016786318
 21
174.25019135346284
  0
LINE
  8
_1-2_
  6
CONTINUOUS
 62
    7
 10
356.7702917150549
 20
176.25019795185813
 11
357.57028940561656
 21
176.25019795185813
  0
LINE
  8
_1-2_
  6
CONTINUOUS
 62
    7
 10
356.7702917150549
 20
176.25019795185813
 11
356.7702917150549
 21
175.6501934979413
  0
LINE
  8
_1-2_
  6
CONTINUOUS
 62
    7
 10
357.57028940561656
 20
176.25019795185813
 11
357.57028940561656
 21
175.6501934979413
  0
LINE
  8
_1-2_
  6
CONTINUOUS
 62
    7
 10
357.57028940561656
 20
175.6501934979413
 11
361.07027620882604
 21
175.6501934979413
  0
LINE
  8
_1-2_
  6
CONTINUOUS
 62
    7
 10
354.27028346706084
 20
175.6501934979413
 11
356.7702917150549
 21
175.6501934979413
  0
LINE
  8
_1-2_
  6
CONTINUOUS
 62
    7
 10
382.07027126002959
 20
176.65019679713893
 11
391.09259528082771
 21
176.65019679713893
  0
LINE
  8
_1-2_
  6
CONTINUOUS
 62
    7
 10
361.07027620882604
 20
179.65019432274073
 11
391.09259528082771
 21
179.65019432274073
  0
LINE
  8
_1-0_
  6
CONTINUOUS
 62
    7
 10
72.270262434675885
 20
174.25947034681167
 11
81.270261197476771
 21
169.45945945945948
  0
LINE
  8
_1-2_
  6
CONTINUOUS
 62
    7
 10
78.269552282384922
 20
172.60981379328547
 11
65.108908575934322
 21
208.76839302681589
  0
LINE
  8
_1-2_
  6
CONTINUOUS
 62
    7
 10
69.184694032411301
 20
173.65806785789698
 11
61.547426790804479
 21
194.64129886111698
  0
LINE
  8
_1-2_
  6
CONTINUOUS
 62
    7
 10
61.547426790804479
 20
194.64129886111698
 11
57.376488350533151
 21
194.64129886111698
  0
LINE
  8
_1-2_
  6
CONTINUOUS
 62
    7
 10
65.108908575934322
 20
208.76839302681589
 11
60.631979864996822
 21
208.76839302681589
  0
ARC
  8
_1-1_
  6
CONTINUOUS
 62
    7
 10
75.422095221442135
 20
181.19539415514149
 40
2.6545699867042338
 50
215.59771728515625
 51
324.40225219726562
  0
ARC
  8
_1-2_
  6
CONTINUOUS
 62
    7
 10
118.99962554106843
 20
176.05019234322214
 40
0.6000000077324945
 50
90
 51
147.52879333496094
  0
ARC
  8
_1-2_
  6
CONTINUOUS
 62
    7
 10
116.81360605600719
 20
174.85019580737966
 40
0.6000000077324945
 50
270
 51
327.52879333496094
  0
ARC
  8
_1-2_
  6
CONTINUOUS
 62
    7
 10
180.19963444890203
 20
176.05019234322214
 40
0.6000000077324945
 50
90
 51
147.52879333496094
  0
ARC
  8
_1-2_
  6
CONTINUOUS
 62
    7
 10
178.01361496384081
 20
174.85019580737966
 40
0.6000000077324945
 50
270
 51
327.52879333496094
  0
ARC
  8
_1-2_
  6
CONTINUOUS
 62
    7
 10
241.39964335673565
 20
176.05019234322214
 40
0.6000000077324945
 50
90
 51
147.52879333496094
  0
ARC
  8
_1-2_
  6
CONTINUOUS
 62
    7
 10
239.21361149968328
 20
174.85019580737966
 40
0.6000000077324945
 50
270
 51
327.52879333496094
  0
ARC
  8
_1-2_
  6
CONTINUOUS
 62
    7
 10
302.59965226456927
 20
176.05019234322214
 40
0.6000000077324945
 50
90
 51
147.52879333496094
  0
ARC
  8
_1-2_
  6
CONTINUOUS
 62
    7
 10
300.41362040751693
 20
174.85019580737966
 40
0.6000000077324945
 50
270
 51
327.52879333496094
  0
ARC
  8
_1-2_
  6
CONTINUOUS
 62
    7
 10
363.79966117240286
 20
176.05019234322214
 40
0.6000000077324945
 50
90
 51
147.52879333496094
  0
ARC
  8
_1-2_
  6
CONTINUOUS
 62
    7
 10
361.61362931535052
 20
174.85019580737966
 40
0.6000000077324945
 50
270
 51
327.52879333496094
  0
TEXT
  8
_0-0_
 62
    7
 10
147.56756962956609
 20
22.702702702702709
 40
2.5
 41
1
 50
0
  1
図名
  0
TEXT
  8
_0-0_
 62
    7
 10
147.56756962956609
 20
12.972972972972968
 40
2.5
 41
1
 50
0
  1
縮尺
  0
TEXT
  8
_0-0_
 62
    7
 10
382.77784605284
 20
21.243871740392734
 40
2.5
 41
1
 50
0
  1
ＮＯ
  0
TEXT
  8
_0-0_
 62
    7
 10
31.231870393495313
 20
18.589955922719582
 40
2.5
 41
1
 50
0
  1
木造
  0
TEXT
  8
_0-0_
 62
    7
 10
20.270270012520456
 20
22.702702702702709
 40
2.5
 41
1
 50
0
  1
Ｆ形
  0
TEXT
  8
_0-0_
 62
    7
 10
389.99062615471917
 20
16.178650211643514
 40
2.5
 41
1
 50
0
  1
Ｆ
  0
TEXT
  8
_0-0_
 62
    7
 10
171.37221877639359
 20
12.362518826046511
 40
2.5
 41
1
 50
0
  1
1/5
  0
TEXT
  8
_0-1_
 62
    7
 10
247.63851268871412
 20
123.33247004328548
 40
2.5
 41
1
 50
0
  1
桟瓦
  0
TEXT
  8
_0-1_
 62
    7
 10
247.63851268871412
 20
95.126266479492187
 40
2.5
 41
1
 50
0
  1
野地板　　ｔ＝12
  0
TEXT
  8
_0-1_
 62
    7
 10
99.313362740181589
 20
114.98565673828125
 40
2.5
 41
1
 50
0
  1
破風板
  0
TEXT
  8
_1-3_
 62
    7
 10
74.020263053275471
 20
133.44939360747466
 40
2.5
 41
1
 50
0
  1
30
  0
TEXT
  8
_1-3_
 62
    7
 10
69.169506382297811
 20
133.34540702201227
 40
2.5
 41
1
 50
0
  1
5
  0
TEXT
  8
_1-3_
 62
    7
 10
45.397582698512736
 20
13.77361400707349
 40
2.5
 41
1
 50
0
  1
袖　5
  0
TEXT
  8
_1-3_
 62
    7
 10
398.75612413561021
 20
13.652305087527708
 40
2.5
 41
1
 50
0
  1
7
  0
TEXT
  8
_1-2_
 62
    7
 10
48.46809954256625
 20
207.82742886929898
 40
2.5
 41
1
 50
0
  1
登り淀
  0
TEXT
  8
_1-2_
 62
    7
 10
43.767982173610392
 20
203.98189235377959
 40
2.5
 41
1
 50
0
  1
瓦桟木と同じ高さ
  0
TEXT
  8
_1-2_
 62
    7
 10
44.195267445332291
 20
193.44223022460937
 40
2.5
 41
1
 50
0
  1
一体左袖瓦
  0
POINT
  8
_1-3_
 62
    7
 10
78.270263671875
 20
132.94939195787586
  0
POINT
  8
_1-3_
 62
    7
 10
72.270262434675885
 20
132.94939195787586
  0
POINT
  8
_1-3_
 62
    7
 10
71.270265321473801
 20
132.94939195787586
  0
POINT
  8
_1-3_
 62
    7
 10
116.2702529494827
 20
216.63643926788686
  0
POINT
  8
_1-3_
 62
    7
 10
177.4702618573163
 20
216.63643926788686
  0
LINE
  8
_1-3_
  6
CONTINUOUS
 62
    7
 10
116.2702529494827
 20
216.63643926788686
 11
116.2702529494827
 21
186.23710482529117
  0
LINE
  8
_1-3_
  6
CONTINUOUS
 62
    7
 10
177.4702618573163
 20
216.63643926788686
 11
177.4702618573163
 21
186.23710482529117
  0
LINE
  8
_1-3_
  6
CONTINUOUS
 62
    7
 10
116.2702529494827
 20
216.63643926788686
 11
177.4702618573163
 21
216.63643926788686
  0
TEXT
  8
_1-3_
 62
    7
 10
144.99525740339951
 20
217.13643926788686
 40
2.5
 41
1
 50
0
  1
306
  0
POINT
  8
_1-3_
 62
    7
 10
238.6702583931588
 20
216.63643926788686
  0
LINE
  8
_1-3_
  6
CONTINUOUS
 62
    7
 10
238.6702583931588
 20
216.63643926788686
 11
238.6702583931588
 21
186.23710482529117
  0
LINE
  8
_1-3_
  6
CONTINUOUS
 62
    7
 10
177.4702618573163
 20
216.63643926788686
 11
238.6702583931588
 21
216.63643926788686
  0
TEXT
  8
_1-3_
 62
    7
 10
206.19526012523755
 20
217.13643926788686
 40
2.5
 41
1
 50
0
  1
306
  0
POINT
  8
_1-3_
 62
    7
 10
299.8702673009924
 20
216.63643926788686
  0
LINE
  8
_1-3_
  6
CONTINUOUS
 62
    7
 10
299.8702673009924
 20
216.63643926788686
 11
299.8702673009924
 21
186.23710482529117
  0
LINE
  8
_1-3_
  6
CONTINUOUS
 62
    7
 10
238.6702583931588
 20
216.63643926788686
 11
299.8702673009924
 21
216.63643926788686
  0
TEXT
  8
_1-3_
 62
    7
 10
267.39526284707563
 20
217.13643926788686
 40
2.5
 41
1
 50
0
  1
306
  0
POINT
  8
_1-3_
 62
    7
 10
361.07027620882604
 20
216.63643926788686
  0
LINE
  8
_1-3_
  6
CONTINUOUS
 62
    7
 10
361.07027620882604
 20
216.63643926788686
 11
361.07027620882604
 21
186.23710482529117
  0
LINE
  8
_1-3_
  6
CONTINUOUS
 62
    7
 10
299.8702673009924
 20
216.63643926788686
 11
361.07027620882604
 21
216.63643926788686
  0
TEXT
  8
_1-3_
 62
    7
 10
328.59527175490922
 20
217.13643926788686
 40
2.5
 41
1
 50
0
  1
306
  0
TEXT
  8
_1-3_
 62
    7
 10
247.6795468451084
 20
117.22915634231356
 40
2.5
 41
1
 50
0
  1
瓦桟
  0
TEXT
  8
_1-3_
 62
    7
 10
261.40490464496929
 20
113.53838483988467
 40
2.5
 41
1
 50
0
  1
※　地域により瓦桟木の大きさは、異なります
  0
TEXT
  8
_1-3_
 62
    7
 10
261.09692624050638
 20
117.12803585461948
 40
2.5
 41
1
 50
0
  1
15×21　（樹脂桟木）
  0
TEXT
  8
_0-1_
 62
    7
 10
247.63851681271117
 20
108.89752362225508
 40
2.5
 41
1
 50
0
  1
縦桟
  0
TEXT
  8
_1-3_
 62
    7
 10
247.63851268871412
 20
101.92893775733742
 40
2.5
 41
1
 50
0
  1
ルーフィング
  0
TEXT
  8
_0-1_
 62
    7
 10
247.63851268871412
 20
88.323595201646967
 40
2.5
 41
1
 50
0
  1
たる木
  0
ENDSEC
  0
EOF
