  0
SECTION
  2
HEADER
  9
$ACADVER
  1
AC1009
  9
$INSBASE
 10
0
 20
0
 30
0
  9
$EXTMIN
 10
0
 20
0
  9
$EXTMAX
 10
420
 20
297
  9
$LIMMIN
 10
0
 20
0
  9
$LIMMAX
 10
420
 20
297
  9
$LTSCALE
 40
1
  0
ENDSEC
  0
SECTION
  2
TABLES
  0
TABLE
  2
LTYPE
 70
     9
  0
LTYPE
  2
CONTINUOUS
 70
    64
  3
実線
 72
    65
 73
     0
 40
0.0
  0
LTYPE
  2
DASHED1
 70
    64
  3
--  --  --  --  --  --  --  --  
 72
    65
 73
     2
 40
2.5
 49
1.25
 49
-1.25
  0
LTYPE
  2
DASHED2
 70
    64
  3
----    ----    ----    ----    
 72
    65
 73
     2
 40
5.0
 49
2.5
 49
-2.5
  0
LTYPE
  2
DASHED3
 70
    64
  3
------  ------  ------  ------  
 72
    65
 73
     2
 40
5.0
 49
3.75
 49
-1.25
  0
LTYPE
  2
CENTER1
 70
    64
  3
----- - ----- - ----- - ----- - 
 72
    65
 73
     4
 40
10.0
 49
6.25
 49
-1.25
 49
1.25
 49
-1.25
  0
LTYPE
  2
CENTER2
 70
    64
  3
----------  --  ----------  --  
 72
    65
 73
     4
 40
20.0
 49
12.5
 49
-2.5
 49
2.5
 49
-2.5
  0
LTYPE
  2
PHANTOM1
 70
    64
  3
--- - - --- - - --- - - --- - - 
 72
    65
 73
     6
 40
10.0
 49
3.25
 49
-1.25
 49
1.25
 49
-1.25
 49
1.25
 49
-1.25
  0
LTYPE
  2
PHANTOM2
 70
    64
  3
--------  -  -  --------  -  -  
 72
    65
 73
     6
 40
20.0
 49
10.0
 49
-2.5
 49
1.25
 49
-2.5
 49
1.25
 49
-2.5
  0
LTYPE
  2
DOT
 70
    64
  3
-   -   -   -   -   -   -   -   
 72
    65
 73
     2
 40
2.5
 49
0.625
 49
-1.875
  0
LTYPE
  2
DUMMY
 70
    64
  3
ダミー
 72
    65
 73
     0
 40
0.0
  0
LTYPE
  2
RAND1
 70
    64
  3
ランダム線1
 72
    65
 73
     4
 40
10.0
 49
1.0
 49
-2.0
 49
3.0
 49
-4.0
  0
LTYPE
  2
RAND2
 70
    64
  3
ランダム線2
 72
    65
 73
     4
 40
14.0
 49
2.0
 49
-3.0
 49
4.0
 49
-5.0
  0
LTYPE
  2
RAND3
 70
    64
  3
ランダム線3
 72
    65
 73
     4
 40
18.0
 49
3.0
 49
-4.0
 49
5.0
 49
-6.0
  0
LTYPE
  2
RAND4
 70
    64
  3
ランダム線4
 72
    65
 73
     4
 40
22.0
 49
4.0
 49
-5.0
 49
6.0
 49
-7.0
  0
LTYPE
  2
RAND5
 70
    64
  3
ランダム線5
 72
    65
 73
     4
 40
26.0
 49
5.0
 49
-6.0
 49
7.0
 49
-8.0
  0
LTYPE
  2
LONG1
 70
    64
  3
----------  --  ----------  --  
 72
    65
 73
     4
 40
40.0
 49
32.5
 49
-2.5
 49
2.5
 49
-2.5
  0
LTYPE
  2
LONG2
 70
    64
  3
--------  -  -  --------  -  -  
 72
    65
 73
     6
 40
40.0
 49
30.0
 49
-2.5
 49
1.25
 49
-2.5
 49
1.25
 49
-2.5
  0
LTYPE
  2
LONG3
 70
    64
  3
+++++++++++++++..+++++++++++++++
 72
    65
 73
     2
 40
40.0
 49
37.5
 49
-2.5
  0
LTYPE
  2
LONG4
 70
    64
  3
+++++++++++++++..+++++++++++++++
 72
    65
 73
     2
 40
80.0
 49
75.0
 49
-5.0
  0
LTYPE
  2
LONG5
 70
    64
  3
----------  --  ----------  --  
 72
    65
 73
     4
 40
60.0
 49
37.5
 49
-7.5
 49
7.5
 49
-7.5
  0
LTYPE
  2
dashed
 70
   64
  3
-------   -------------   ------
 72
   65
 73
    2
 40
7.5
 49
6
 49
-1.5
  0
LTYPE
  2
dashed_spaced
 70
   64
  3
----        --------        ----
 72
   65
 73
    2
 40
12
 49
6
 49
-6
  0
LTYPE
  2
long_dashed_dotted
 70
   64
  3
------------- --- --------------
 72
   65
 73
    4
 40
15.25
 49
12
 49
-1.5
 49
0.25
 49
-1.5
  0
LTYPE
  2
long_dashed_double-dotted
 70
   64
  3
----------- --- --- ------------
 72
   65
 73
    6
 40
17
 49
12
 49
-1.5
 49
0.25
 49
-1.5
 49
0.25
 49
-1.5
  0
LTYPE
  2
long_dashed_triplicate-dotted
 70
   64
  3
--------- --- --- --- ----------
 72
   65
 73
    8
 40
18.75
 49
12
 49
-1.5
 49
0.25
 49
-1.5
 49
0.25
 49
-1.5
 49
0.25
 49
-1.5
  0
LTYPE
  2
dotted
 70
   64
  3
   -       -       -       -    
 72
   65
 73
    2
 40
1.75
 49
0.25
 49
-1.5
  0
LTYPE
  2
chain
 70
   64
  3
-------------- -- --------------
 72
   65
 73
    4
 40
18.5
 49
12
 49
-1.5
 49
3.5
 49
-1.5
  0
LTYPE
  2
chain_double_dash
 70
   64
  3
------------ -- -- -------------
 72
   65
 73
    6
 40
23.5
 49
12
 49
-1.5
 49
3.5
 49
-1.5
 49
3.5
 49
-1.5
  0
LTYPE
  2
dashed_dotted
 70
   64
  3
-----------     -     ----------
 72
   65
 73
    4
 40
9.25
 49
6
 49
-1.5
 49
0.25
 49
-1.5
  0
LTYPE
  2
double-dashed_dotted
 70
   64
  3
------   -----------   -   -----
 72
   65
 73
    6
 40
16.75
 49
6
 49
-1.5
 49
6
 49
-1.5
 49
0.25
 49
-1.5
  0
LTYPE
  2
dashed_double-dotted
 70
   64
  3
---------    -    -    ---------
 72
   65
 73
    6
 40
11
 49
6
 49
-1.5
 49
0.25
 49
-1.5
 49
0.25
 49
-1.5
  0
LTYPE
  2
double-dashed_double-dotted
 70
   64
  3
-----   ---------   -   -   ----
 72
   65
 73
    8
 40
18.5
 49
6
 49
-1.5
 49
6
 49
-1.5
 49
0.25
 49
-1.5
 49
0.25
 49
-1.5
  0
LTYPE
  2
dashed_triplicate-dotted
 70
   64
  3
-------    -    -    -    ------
 72
   65
 73
    8
 40
12.75
 49
6
 49
-1.5
 49
0.25
 49
-1.5
 49
0.25
 49
-1.5
 49
0.25
 49
-1.5
  0
LTYPE
  2
double-dashed_triplicate-dotted
 70
   64
  3
-----  ---------  -  -  -  -----
 72
   65
 73
   10
 40
20.25
 49
6
 49
-1.5
 49
6
 49
-1.5
 49
0.25
 49
-1.5
 49
0.25
 49
-1.5
 49
0.25
 49
-1.5
  0
LTYPE
  2
undefined
 70
   64
  3
--------------------------------
 72
   65
 73
    0
 40
0
  0
LTYPE
  2
DOT_17
 70
   64
  3
--             ---             -
 72
   65
 73
    2
 40
5
 49
1
 49
-4
  0
LTYPE
  2
DASHED
 70
   64
  3
---          ------          ---
 72
   65
 73
    2
 40
5
 49
2
 49
-3
  0
LTYPE
  2
DASHED2_19
 70
   64
  3
---          ------          ---
 72
   65
 73
    2
 40
10
 49
4
 49
-6
  0
LTYPE
  2
CENTER
 70
   64
  3
----------    ----    ----------
 72
   65
 73
    4
 40
9
 49
6
 49
-1
 49
1
 49
-1
  0
LTYPE
  2
CENTER2_21
 70
   64
  3
----------    ----    ----------
 72
   65
 73
    4
 40
18
 49
12
 49
-2
 49
2
 49
-2
  0
LTYPE
  2
PHANTOM
 70
   64
  3
---------   ---   ---   --------
 72
   65
 73
    6
 40
10
 49
5
 49
-1
 49
1
 49
-1
 49
1
 49
-1
  0
LTYPE
  2
PHANTOM2_23
 70
   64
  3
------    ----    ----    ------
 72
   65
 73
    6
 40
16
 49
6
 49
-2
 49
2
 49
-2
 49
2
 49
-2
  0
LTYPE
  2
HIDDEN
 70
   64
  3
--             ---             -
 72
   65
 73
    2
 40
2.5
 49
0.5
 49
-2
  0
ENDTAB
  0
TABLE
  2
STYLE
  5
3
100
AcDbSymbolTable
 70
     1
  0
STYLE
  5
10
100
AcDbSymbolTableRecord
100
AcDbTextStyleTableRecord
  2
STANDARD
 70
     0
 40
0.0
 41
1.0
 50
0.0
 71
     0
 42
0.2
  3
txt
  4
bigfont.shx
  0
STYLE
  5
26
100
AcDbSymbolTableRecord
100
AcDbTextStyleTableRecord
  2
TATEGAKI
 70
    68
 40
0.0
 41
1.0
 50
0.0
 71
     0
 42
1.0
  3
txt
  4
bigfont.shx
  0
ENDTAB
  0
TABLE
  2
LAYER
 70
    7
  0
LAYER
  2
_0-0_
 70
   64
 62
    7
  6
CONTINUOUS
  0
LAYER
  2
_0-1_
 70
   64
 62
    7
  6
CONTINUOUS
  0
LAYER
  2
_1-0_
 70
   64
 62
    7
  6
CONTINUOUS
  0
LAYER
  2
_1-1_
 70
   64
 62
    7
  6
CONTINUOUS
  0
LAYER
  2
_1-2_
 70
   64
 62
    7
  6
CONTINUOUS
  0
LAYER
  2
_1-3_
 70
   64
 62
    7
  6
CONTINUOUS
  0
LAYER
  2
ADD_LINE
 70
   64
 62
    7
  6
CONTINUOUS
  0
ENDTAB
  0
ENDSEC
  0
SECTION
  2
BLOCKS
  0
ENDSEC
  0
SECTION
  2
ENTITIES
  0
LINE
  8
_0-0_
  6
CONTINUOUS
 62
    5
 10
12.432428308435391
 20
278.51351351351354
 11
412.43244892842063
 21
278.51351351351354
  0
LINE
  8
_0-0_
  6
CONTINUOUS
 62
    5
 10
412.43244892842063
 20
8.5135135135135158
 11
12.432428308435391
 21
8.5135135135135158
  0
LINE
  8
_0-0_
  6
CONTINUOUS
 62
    5
 10
412.43244892842063
 20
28.513511451515001
 11
12.432415936444272
 21
28.513511451515001
  0
LINE
  8
_0-0_
  6
CONTINUOUS
 62
    5
 10
377.43248192039698
 20
8.5135135135135158
 11
377.43248192039698
 21
28.513511451515001
  0
LINE
  8
_0-0_
  6
CONTINUOUS
 62
    5
 10
142.70271507469386
 20
28.513511451515001
 11
142.70271507469386
 21
8.5135135135135158
  0
LINE
  8
_0-0_
  6
CONTINUOUS
 62
    5
 10
220.54054054054055
 20
28.513511451515001
 11
220.54054054054055
 21
8.5135135135135158
  0
LINE
  8
_0-0_
  6
CONTINUOUS
 62
    5
 10
142.70271507469386
 20
18.513512482514244
 11
220.54054054054055
 21
18.513512482514244
  0
LINE
  8
_0-0_
  6
CONTINUOUS
 62
    5
 10
402.16218690614443
 20
24.324325870823216
 11
389.59456985061234
 21
11.756758303255651
  0
LINE
  8
_1-0_
  6
CONTINUOUS
 62
    7
 10
176.54593802787164
 20
155.05945154138513
 11
176.54593802787164
 21
167.05945401578336
  0
LINE
  8
_1-0_
  6
CONTINUOUS
 62
    7
 10
176.54593802787164
 20
167.05945401578336
 11
188.54594050226987
 21
167.05945401578336
  0
LINE
  8
_1-0_
  6
CONTINUOUS
 62
    7
 10
188.54594050226987
 20
167.05945401578336
 11
188.54594050226987
 21
155.05945154138513
  0
LINE
  8
_1-0_
  6
CONTINUOUS
 62
    7
 10
188.54594050226987
 20
155.05945154138513
 11
176.54593802787164
 21
155.05945154138513
  0
LINE
  8
_1-0_
  6
CONTINUOUS
 62
    7
 10
188.54594050226987
 20
167.05945401578336
 11
176.54593802787164
 21
155.05945154138513
  0
LINE
  8
_1-0_
  6
CONTINUOUS
 62
    7
 10
237.14593010979732
 20
155.05945154138513
 11
237.14593010979732
 21
167.05945401578336
  0
LINE
  8
_1-0_
  6
CONTINUOUS
 62
    7
 10
237.14593010979732
 20
167.05945401578336
 11
249.1459202122044
 21
167.05945401578336
  0
LINE
  8
_1-0_
  6
CONTINUOUS
 62
    7
 10
249.1459202122044
 20
167.05945401578336
 11
249.1459202122044
 21
155.05945154138513
  0
LINE
  8
_1-0_
  6
CONTINUOUS
 62
    7
 10
249.1459202122044
 20
155.05945154138513
 11
237.14593010979732
 21
155.05945154138513
  0
LINE
  8
_1-0_
  6
CONTINUOUS
 62
    7
 10
249.1459202122044
 20
167.05945401578336
 11
237.14593010979732
 21
155.05945154138513
  0
LINE
  8
_1-0_
  6
CONTINUOUS
 62
    7
 10
297.74592219172297
 20
155.05945154138513
 11
297.74592219172297
 21
167.05945401578336
  0
LINE
  8
_1-0_
  6
CONTINUOUS
 62
    7
 10
297.74592219172297
 20
167.05945401578336
 11
309.74591229413011
 21
167.05945401578336
  0
LINE
  8
_1-0_
  6
CONTINUOUS
 62
    7
 10
309.74591229413011
 20
167.05945401578336
 11
309.74591229413011
 21
155.05945154138513
  0
LINE
  8
_1-0_
  6
CONTINUOUS
 62
    7
 10
309.74591229413011
 20
155.05945154138513
 11
297.74592219172297
 21
155.05945154138513
  0
LINE
  8
_1-0_
  6
CONTINUOUS
 62
    7
 10
309.74591229413011
 20
167.05945401578336
 11
297.74592219172297
 21
155.05945154138513
  0
LINE
  8
_1-0_
  6
CONTINUOUS
 62
    7
 10
358.34591427364865
 20
155.05945154138513
 11
358.34591427364865
 21
167.05945401578336
  0
LINE
  8
_1-0_
  6
CONTINUOUS
 62
    7
 10
358.34591427364865
 20
167.05945401578336
 11
370.34590437605578
 21
167.05945401578336
  0
LINE
  8
_1-0_
  6
CONTINUOUS
 62
    7
 10
370.34590437605578
 20
167.05945401578336
 11
370.34590437605578
 21
155.05945154138513
  0
LINE
  8
_1-0_
  6
CONTINUOUS
 62
    7
 10
370.34590437605578
 20
155.05945154138513
 11
358.34591427364865
 21
155.05945154138513
  0
LINE
  8
_1-0_
  6
CONTINUOUS
 62
    7
 10
370.34590437605578
 20
167.05945401578336
 11
358.34591427364865
 21
155.05945154138513
  0
LINE
  8
_1-0_
  6
CONTINUOUS
 62
    7
 10
136.33641011006125
 20
171.2594728212099
 11
136.33641011006125
 21
170.65946836729307
  0
LINE
  8
_1-0_
  6
CONTINUOUS
 62
    7
 10
136.33641011006125
 20
170.65946836729307
 11
136.33641011006125
 21
171.2594728212099
  0
LINE
  8
_1-0_
  6
CONTINUOUS
 62
    7
 10
136.33641011006125
 20
171.2594728212099
 11
141.13640862542229
 21
171.2594728212099
  0
LINE
  8
_1-0_
  6
CONTINUOUS
 62
    7
 10
141.13640862542229
 20
171.2594728212099
 11
141.13640862542229
 21
170.65946836729307
  0
LINE
  8
_1-0_
  6
CONTINUOUS
 62
    7
 10
141.13640862542229
 20
170.65946836729307
 11
136.33641011006125
 21
170.65946836729307
  0
LINE
  8
_1-0_
  6
CONTINUOUS
 62
    7
 10
136.33641011006125
 20
171.2594728212099
 11
141.13640862542229
 21
170.65946836729307
  0
LINE
  8
_1-0_
  6
CONTINUOUS
 62
    7
 10
183.14594990498313
 20
170.65946836729307
 11
183.14594990498313
 21
171.2594728212099
  0
LINE
  8
_1-0_
  6
CONTINUOUS
 62
    7
 10
183.14594990498313
 20
171.2594728212099
 11
187.94594842034419
 21
171.2594728212099
  0
LINE
  8
_1-0_
  6
CONTINUOUS
 62
    7
 10
187.94594842034419
 20
171.2594728212099
 11
187.94594842034419
 21
170.65946836729307
  0
LINE
  8
_1-0_
  6
CONTINUOUS
 62
    7
 10
187.94594842034419
 20
170.65946836729307
 11
183.14594990498313
 21
170.65946836729307
  0
LINE
  8
_1-0_
  6
CONTINUOUS
 62
    7
 10
183.14594990498313
 20
171.2594728212099
 11
187.94594842034419
 21
170.65946836729307
  0
LINE
  8
_1-0_
  6
CONTINUOUS
 62
    7
 10
243.7459419869088
 20
170.65946836729307
 11
243.7459419869088
 21
171.2594728212099
  0
LINE
  8
_1-0_
  6
CONTINUOUS
 62
    7
 10
243.7459419869088
 20
171.2594728212099
 11
248.54592813027872
 21
171.2594728212099
  0
LINE
  8
_1-0_
  6
CONTINUOUS
 62
    7
 10
248.54592813027872
 20
171.2594728212099
 11
248.54592813027872
 21
170.65946836729307
  0
LINE
  8
_1-0_
  6
CONTINUOUS
 62
    7
 10
248.54592813027872
 20
170.65946836729307
 11
243.7459419869088
 21
170.65946836729307
  0
LINE
  8
_1-0_
  6
CONTINUOUS
 62
    7
 10
243.7459419869088
 20
171.2594728212099
 11
248.54592813027872
 21
170.65946836729307
  0
LINE
  8
_1-0_
  6
CONTINUOUS
 62
    7
 10
304.34593406883448
 20
170.65946836729307
 11
304.34593406883448
 21
171.2594728212099
  0
LINE
  8
_1-0_
  6
CONTINUOUS
 62
    7
 10
304.34593406883448
 20
171.2594728212099
 11
309.14592021220443
 21
171.2594728212099
  0
LINE
  8
_1-0_
  6
CONTINUOUS
 62
    7
 10
309.14592021220443
 20
171.2594728212099
 11
309.14592021220443
 21
170.65946836729307
  0
LINE
  8
_1-0_
  6
CONTINUOUS
 62
    7
 10
309.14592021220443
 20
170.65946836729307
 11
304.34593406883448
 21
170.65946836729307
  0
LINE
  8
_1-0_
  6
CONTINUOUS
 62
    7
 10
304.34593406883448
 20
171.2594728212099
 11
309.14592021220443
 21
170.65946836729307
  0
LINE
  8
_1-0_
  6
CONTINUOUS
 62
    7
 10
364.94592615076016
 20
170.65946836729307
 11
364.94592615076016
 21
171.2594728212099
  0
LINE
  8
_1-0_
  6
CONTINUOUS
 62
    7
 10
364.94592615076016
 20
171.2594728212099
 11
369.74591229413011
 21
171.2594728212099
  0
LINE
  8
_1-0_
  6
CONTINUOUS
 62
    7
 10
369.74591229413011
 20
171.2594728212099
 11
369.74591229413011
 21
170.65946836729307
  0
LINE
  8
_1-0_
  6
CONTINUOUS
 62
    7
 10
369.74591229413011
 20
170.65946836729307
 11
364.94592615076016
 21
170.65946836729307
  0
LINE
  8
_1-0_
  6
CONTINUOUS
 62
    7
 10
364.94592615076016
 20
171.2594728212099
 11
369.74591229413011
 21
170.65946836729307
  0
LINE
  8
_1-1_
  6
CONTINUOUS
 62
    3
 10
116.94594924514358
 20
176.8594690271326
 11
116.94594924514358
 21
174.25947034681167
  0
LINE
  8
_1-1_
  6
CONTINUOUS
 62
    3
 10
124.74594528610642
 20
179.85947892472552
 11
124.74594528610642
 21
176.25947694520693
  0
LINE
  8
_1-1_
  6
CONTINUOUS
 62
    3
 10
185.94592944995779
 20
179.85947892472552
 11
185.94592944995779
 21
177.45947348104943
  0
LINE
  8
_1-1_
  6
CONTINUOUS
 62
    3
 10
116.94594924514358
 20
174.25947034681167
 11
174.94591790276607
 21
174.25947034681167
  0
LINE
  8
_1-1_
  6
CONTINUOUS
 62
    3
 10
124.74594528610642
 20
179.85947892472552
 11
125.94595419394004
 21
179.85947892472552
  0
LINE
  8
_1-1_
  6
CONTINUOUS
 62
    3
 10
176.08372043918919
 20
179.85947892472552
 11
185.94592944995779
 21
179.85947892472552
  0
LINE
  8
_1-1_
  6
CONTINUOUS
 62
    3
 10
177.94592780035896
 20
177.45947348104943
 11
174.94591790276607
 21
174.25947034681167
  0
LINE
  8
_1-1_
  6
CONTINUOUS
 62
    3
 10
184.34593406883448
 20
177.45947348104943
 11
184.34593406883448
 21
177.05947463576859
  0
LINE
  8
_1-1_
  6
CONTINUOUS
 62
    3
 10
183.54593637827281
 20
177.45947348104943
 11
183.54593637827281
 21
177.05947463576859
  0
LINE
  8
_1-1_
  6
CONTINUOUS
 62
    3
 10
181.94594099714951
 20
177.45947348104943
 11
181.94594099714951
 21
177.05947463576859
  0
LINE
  8
_1-1_
  6
CONTINUOUS
 62
    3
 10
181.14594330658784
 20
177.45947348104943
 11
181.14594330658784
 21
177.05947463576859
  0
LINE
  8
_1-1_
  6
CONTINUOUS
 62
    3
 10
177.94592780035896
 20
177.45947348104943
 11
181.14594330658784
 21
177.45947348104943
  0
LINE
  8
_1-1_
  6
CONTINUOUS
 62
    3
 10
181.94594099714951
 20
177.45947348104943
 11
183.54593637827281
 21
177.45947348104943
  0
LINE
  8
_1-1_
  6
CONTINUOUS
 62
    3
 10
184.34593406883448
 20
177.45947348104943
 11
185.94592944995779
 21
177.45947348104943
  0
LINE
  8
_1-1_
  6
CONTINUOUS
 62
    3
 10
181.14594330658784
 20
177.05947463576859
 11
181.94594099714951
 21
177.05947463576859
  0
LINE
  8
_1-1_
  6
CONTINUOUS
 62
    3
 10
183.54593637827281
 20
177.05947463576859
 11
184.34593406883448
 21
177.05947463576859
  0
LINE
  8
_1-1_
  6
CONTINUOUS
 62
    3
 10
129.54595617345862
 20
177.25946787241344
 11
173.34592252164273
 21
177.25946787241344
  0
LINE
  8
_1-1_
  6
CONTINUOUS
 62
    3
 10
118.14593340899494
 20
176.8594690271326
 11
118.43001906936233
 21
176.25947694520693
  0
LINE
  8
_1-1_
  6
CONTINUOUS
 62
    3
 10
116.94594924514358
 20
176.8594690271326
 11
118.14593340899494
 21
176.8594690271326
  0
LINE
  8
_1-1_
  6
CONTINUOUS
 62
    3
 10
118.43001906936233
 20
176.25947694520693
 11
124.74594528610642
 21
176.25947694520693
  0
LINE
  8
_1-1_
  6
CONTINUOUS
 62
    3
 10
178.14593340899495
 20
176.8594690271326
 11
178.14593340899495
 21
174.25947034681167
  0
LINE
  8
_1-1_
  6
CONTINUOUS
 62
    3
 10
185.94592944995779
 20
179.85947892472552
 11
185.94592944995779
 21
176.25947694520693
  0
LINE
  8
_1-1_
  6
CONTINUOUS
 62
    3
 10
247.14591361380914
 20
179.85947892472552
 11
247.14591361380914
 21
177.45947348104943
  0
LINE
  8
_1-1_
  6
CONTINUOUS
 62
    3
 10
178.14593340899495
 20
174.25947034681167
 11
236.14592681059966
 21
174.25947034681167
  0
LINE
  8
_1-1_
  6
CONTINUOUS
 62
    3
 10
185.94592944995779
 20
179.85947892472552
 11
187.14595072978253
 21
179.85947892472552
  0
LINE
  8
_1-1_
  6
CONTINUOUS
 62
    3
 10
237.28370460304055
 20
179.85947892472552
 11
247.14591361380914
 21
179.85947892472552
  0
LINE
  8
_1-1_
  6
CONTINUOUS
 62
    3
 10
239.14591196421031
 20
177.45947348104943
 11
236.14592681059966
 21
174.25947034681167
  0
LINE
  8
_1-1_
  6
CONTINUOUS
 62
    3
 10
245.54591823268584
 20
177.45947348104943
 11
245.54591823268584
 21
177.05947463576859
  0
LINE
  8
_1-1_
  6
CONTINUOUS
 62
    3
 10
244.74592054212417
 20
177.45947348104943
 11
244.74592054212417
 21
177.05947463576859
  0
LINE
  8
_1-1_
  6
CONTINUOUS
 62
    3
 10
243.14592516100086
 20
177.45947348104943
 11
243.14592516100086
 21
177.05947463576859
  0
LINE
  8
_1-1_
  6
CONTINUOUS
 62
    3
 10
242.34592747043919
 20
177.45947348104943
 11
242.34592747043919
 21
177.05947463576859
  0
LINE
  8
_1-1_
  6
CONTINUOUS
 62
    3
 10
239.14591196421031
 20
177.45947348104943
 11
242.34592747043919
 21
177.45947348104943
  0
LINE
  8
_1-1_
  6
CONTINUOUS
 62
    3
 10
243.14592516100086
 20
177.45947348104943
 11
244.74592054212417
 21
177.45947348104943
  0
LINE
  8
_1-1_
  6
CONTINUOUS
 62
    3
 10
245.54591823268584
 20
177.45947348104943
 11
247.14591361380914
 21
177.45947348104943
  0
LINE
  8
_1-1_
  6
CONTINUOUS
 62
    3
 10
242.34592747043919
 20
177.05947463576859
 11
243.14592516100086
 21
177.05947463576859
  0
LINE
  8
_1-1_
  6
CONTINUOUS
 62
    3
 10
244.74592054212417
 20
177.05947463576859
 11
245.54591823268584
 21
177.05947463576859
  0
LINE
  8
_1-1_
  6
CONTINUOUS
 62
    3
 10
190.74594033730997
 20
177.25946787241344
 11
234.54590668549409
 21
177.25946787241344
  0
LINE
  8
_1-1_
  6
CONTINUOUS
 62
    3
 10
179.3459175728463
 20
176.8594690271326
 11
179.6300032332137
 21
176.25947694520693
  0
LINE
  8
_1-1_
  6
CONTINUOUS
 62
    3
 10
178.14593340899495
 20
176.8594690271326
 11
179.3459175728463
 21
176.8594690271326
  0
LINE
  8
_1-1_
  6
CONTINUOUS
 62
    3
 10
179.6300032332137
 20
176.25947694520693
 11
185.94592944995779
 21
176.25947694520693
  0
LINE
  8
_1-1_
  6
CONTINUOUS
 62
    3
 10
239.3459175728463
 20
176.8594690271326
 11
239.3459175728463
 21
174.25947034681167
  0
LINE
  8
_1-1_
  6
CONTINUOUS
 62
    3
 10
247.14591361380914
 20
179.85947892472552
 11
247.14591361380914
 21
176.25947694520693
  0
LINE
  8
_1-1_
  6
CONTINUOUS
 62
    3
 10
308.34589777766047
 20
179.85947892472552
 11
308.34589777766047
 21
177.45947348104943
  0
LINE
  8
_1-0_
  6
CONTINUOUS
 62
    3
 10
239.3459175728463
 20
174.25947034681167
 11
297.34591097445104
 21
174.25947034681167
  0
LINE
  8
_1-1_
  6
CONTINUOUS
 62
    3
 10
247.14591361380914
 20
179.85947892472552
 11
248.345947265625
 21
179.85947892472552
  0
LINE
  8
_1-1_
  6
CONTINUOUS
 62
    3
 10
298.48371351087417
 20
179.85947892472552
 11
308.34589777766047
 21
179.85947892472552
  0
LINE
  8
_1-1_
  6
CONTINUOUS
 62
    3
 10
300.34592087204396
 20
177.45947348104943
 11
297.34591097445104
 21
174.25947034681167
  0
LINE
  8
_1-1_
  6
CONTINUOUS
 62
    3
 10
306.74590239653719
 20
177.45947348104943
 11
306.74590239653719
 21
177.05947463576859
  0
LINE
  8
_1-1_
  6
CONTINUOUS
 62
    3
 10
305.94592944995776
 20
177.45947348104943
 11
305.94592944995776
 21
177.05947463576859
  0
LINE
  8
_1-1_
  6
CONTINUOUS
 62
    3
 10
304.34593406883448
 20
177.45947348104943
 11
304.34593406883448
 21
177.05947463576859
  0
LINE
  8
_1-1_
  6
CONTINUOUS
 62
    3
 10
303.54591163429058
 20
177.45947348104943
 11
303.54591163429058
 21
177.05947463576859
  0
LINE
  8
_1-1_
  6
CONTINUOUS
 62
    3
 10
300.34592087204396
 20
177.45947348104943
 11
303.54591163429058
 21
177.45947348104943
  0
LINE
  8
_1-1_
  6
CONTINUOUS
 62
    3
 10
304.34593406883448
 20
177.45947348104943
 11
305.94592944995776
 21
177.45947348104943
  0
LINE
  8
_1-1_
  6
CONTINUOUS
 62
    3
 10
306.74590239653719
 20
177.45947348104943
 11
308.34589777766047
 21
177.45947348104943
  0
LINE
  8
_1-1_
  6
CONTINUOUS
 62
    3
 10
303.54591163429058
 20
177.05947463576859
 11
304.34593406883448
 21
177.05947463576859
  0
LINE
  8
_1-1_
  6
CONTINUOUS
 62
    3
 10
305.94592944995776
 20
177.05947463576859
 11
306.74590239653719
 21
177.05947463576859
  0
LINE
  8
_1-1_
  6
CONTINUOUS
 62
    3
 10
251.94594924514359
 20
177.25946787241344
 11
295.74591559332771
 21
177.25946787241344
  0
LINE
  8
_1-1_
  6
CONTINUOUS
 62
    3
 10
240.54590173669766
 20
176.8594690271326
 11
240.83001214104732
 21
176.25947694520693
  0
LINE
  8
_1-1_
  6
CONTINUOUS
 62
    3
 10
239.3459175728463
 20
176.8594690271326
 11
240.54590173669766
 21
176.8594690271326
  0
LINE
  8
_1-1_
  6
CONTINUOUS
 62
    3
 10
240.83001214104732
 20
176.25947694520693
 11
247.14591361380914
 21
176.25947694520693
  0
LINE
  8
_1-1_
  6
CONTINUOUS
 62
    3
 10
300.5459264806799
 20
176.8594690271326
 11
300.5459264806799
 21
174.25947034681167
  0
LINE
  8
_1-1_
  6
CONTINUOUS
 62
    3
 10
308.34592252164276
 20
179.85947892472552
 11
308.34592252164276
 21
176.25947694520693
  0
LINE
  8
_1-1_
  6
CONTINUOUS
 62
    3
 10
369.54590668549412
 20
179.85947892472552
 11
369.54590668549412
 21
177.45947348104943
  0
LINE
  8
_1-0_
  6
CONTINUOUS
 62
    3
 10
300.5459264806799
 20
174.25947034681167
 11
358.5458951383024
 21
174.25947034681167
  0
LINE
  8
_1-1_
  6
CONTINUOUS
 62
    3
 10
308.34592252164276
 20
179.85947892472552
 11
309.54593142947635
 21
179.85947892472552
  0
LINE
  8
_1-1_
  6
CONTINUOUS
 62
    3
 10
359.68372241870782
 20
179.85947892472552
 11
369.54590668549412
 21
179.85947892472552
  0
LINE
  8
_1-1_
  6
CONTINUOUS
 62
    3
 10
361.54590503589532
 20
177.45947348104943
 11
358.5458951383024
 21
174.25947034681167
  0
LINE
  8
_1-1_
  6
CONTINUOUS
 62
    3
 10
367.94591130437078
 20
177.45947348104943
 11
367.94591130437078
 21
177.05947463576859
  0
LINE
  8
_1-1_
  6
CONTINUOUS
 62
    3
 10
367.14591361380911
 20
177.45947348104943
 11
367.14591361380911
 21
177.05947463576859
  0
LINE
  8
_1-1_
  6
CONTINUOUS
 62
    3
 10
365.54591823268584
 20
177.45947348104943
 11
365.54591823268584
 21
177.05947463576859
  0
LINE
  8
_1-1_
  6
CONTINUOUS
 62
    3
 10
364.74592054212417
 20
177.45947348104943
 11
364.74592054212417
 21
177.05947463576859
  0
LINE
  8
_1-1_
  6
CONTINUOUS
 62
    3
 10
361.54590503589532
 20
177.45947348104943
 11
364.74592054212417
 21
177.45947348104943
  0
LINE
  8
_1-1_
  6
CONTINUOUS
 62
    3
 10
365.54591823268584
 20
177.45947348104943
 11
367.14591361380911
 21
177.45947348104943
  0
LINE
  8
_1-1_
  6
CONTINUOUS
 62
    3
 10
367.94591130437078
 20
177.45947348104943
 11
369.54590668549412
 21
177.45947348104943
  0
LINE
  8
_1-1_
  6
CONTINUOUS
 62
    3
 10
364.74592054212417
 20
177.05947463576859
 11
365.54591823268584
 21
177.05947463576859
  0
LINE
  8
_1-1_
  6
CONTINUOUS
 62
    3
 10
367.14591361380911
 20
177.05947463576859
 11
367.94591130437078
 21
177.05947463576859
  0
LINE
  8
_1-1_
  6
CONTINUOUS
 62
    3
 10
313.14593340899495
 20
177.25946787241344
 11
356.94589975717906
 21
177.25946787241344
  0
LINE
  8
_1-1_
  6
CONTINUOUS
 62
    3
 10
301.74591064453125
 20
176.8594690271326
 11
302.02999630489865
 21
176.25947694520693
  0
LINE
  8
_1-1_
  6
CONTINUOUS
 62
    3
 10
300.5459264806799
 20
176.8594690271326
 11
301.74591064453125
 21
176.8594690271326
  0
LINE
  8
_1-1_
  6
CONTINUOUS
 62
    3
 10
302.02999630489865
 20
176.25947694520693
 11
308.34592252164276
 21
176.25947694520693
  0
LINE
  8
_1-1_
  6
CONTINUOUS
 62
    3
 10
361.74593538851354
 20
176.8594690271326
 11
361.74593538851354
 21
174.25947034681167
  0
LINE
  8
_1-1_
  6
CONTINUOUS
 62
    3
 10
369.54593142947635
 20
179.85947892472552
 11
369.54593142947635
 21
176.25947694520693
  0
LINE
  8
_1-1_
  6
CONTINUOUS
 62
    3
 10
369.54593142947635
 20
179.85947892472552
 11
370.74596508129224
 21
179.85947892472552
  0
LINE
  8
_1-1_
  6
CONTINUOUS
 62
    3
 10
362.9459195523649
 20
176.8594690271326
 11
363.23000521273229
 21
176.25947694520693
  0
LINE
  8
_1-1_
  6
CONTINUOUS
 62
    3
 10
361.74593538851354
 20
176.8594690271326
 11
362.9459195523649
 21
176.8594690271326
  0
LINE
  8
_1-1_
  6
CONTINUOUS
 62
    3
 10
363.23000521273229
 20
176.25947694520693
 11
369.54593142947635
 21
176.25947694520693
  0
LINE
  8
_1-1_
  6
CONTINUOUS
 62
    7
 10
358.5458951383024
 20
174.25947034681167
 11
361.74593538851354
 21
174.25947034681167
  0
LINE
  8
_1-0_
  6
CONTINUOUS
 62
    3
 10
300.5459264806799
 20
174.25947034681167
 11
358.5458951383024
 21
174.25947034681167
  0
LINE
  8
_1-1_
  6
CONTINUOUS
 62
    7
 10
297.34591097445104
 20
174.25947034681167
 11
300.5459264806799
 21
174.25947034681167
  0
LINE
  8
_1-0_
  6
CONTINUOUS
 62
    3
 10
239.3459175728463
 20
174.25947034681167
 11
297.34591097445104
 21
174.25947034681167
  0
LINE
  8
_1-1_
  6
CONTINUOUS
 62
    7
 10
236.14592681059966
 20
174.25947034681167
 11
239.3459175728463
 21
174.25947034681167
  0
LINE
  8
_1-0_
  6
CONTINUOUS
 62
    3
 10
122.5459454510663
 20
174.25947034681167
 11
174.94591790276607
 21
174.25947034681167
  0
LINE
  8
_1-0_
  6
CONTINUOUS
 62
    3
 10
178.14593340899495
 20
174.25947034681167
 11
236.14592681059966
 21
174.25947034681167
  0
LINE
  8
_1-1_
  6
CONTINUOUS
 62
    7
 10
178.14593340899495
 20
174.25947034681167
 11
174.94591790276607
 21
174.25947034681167
  0
LINE
  8
_1-2_
  6
CONTINUOUS
 62
    7
 10
241.36648642050255
 20
177.17077306798987
 11
272.99367543813344
 21
90.27581498429582
  0
LINE
  8
_1-2_
  6
CONTINUOUS
 62
    7
 10
272.99367543813344
 20
90.27581498429582
 11
278.91891891891896
 21
90.27581498429582
  0
LINE
  8
_0-1_
  6
CONTINUOUS
 62
    7
 10
260.25470630542651
 20
125.27581292229731
 11
278.91891891891896
 21
125.27581292229731
  0
LINE
  8
_0-1_
  6
CONTINUOUS
 62
    7
 10
262.80249518317146
 20
118.27581457189612
 11
278.91891891891896
 21
118.27581457189612
  0
LINE
  8
_0-1_
  6
CONTINUOUS
 62
    7
 10
265.35030880489865
 20
111.27581622149494
 11
278.91891891891896
 21
111.27581622149494
  0
LINE
  8
_0-1_
  6
CONTINUOUS
 62
    7
 10
267.89809768264359
 20
104.27581787109375
 11
278.91891891891896
 21
104.27581787109375
  0
LINE
  8
_0-1_
  6
CONTINUOUS
 62
    7
 10
270.44588656038854
 20
97.275813334697006
 11
278.91891891891896
 21
97.275813334697006
  0
LINE
  8
_1-0_
  6
CONTINUOUS
 62
    7
 10
115.94594594594595
 20
167.05945401578336
 11
381.08108108108109
 21
167.05945401578336
  0
LINE
  8
_1-0_
  6
CONTINUOUS
 62
    3
 10
361.74593538851354
 20
174.25947034681167
 11
381.08108108108109
 21
174.25947034681167
  0
LINE
  8
_1-1_
  6
CONTINUOUS
 62
    3
 10
374.34594231682854
 20
177.25946787241344
 11
381.08108108108109
 21
177.25946787241344
  0
LINE
  8
_1-0_
  6
CONTINUOUS
 62
    3
 10
361.74593538851354
 20
174.25947034681167
 11
381.08108108108109
 21
174.25947034681167
  0
LINE
  8
_1-0_
  6
CONTINUOUS
 62
    7
 10
115.74595270930111
 20
153.85945500554266
 11
381.08108108108109
 21
153.85945500554266
  0
LINE
  8
_1-0_
  6
CONTINUOUS
 62
    7
 10
127.94594842034418
 20
155.05945154138513
 11
115.74595270930111
 21
155.05945154138513
  0
LINE
  8
_1-0_
  6
CONTINUOUS
 62
    7
 10
115.74595270930111
 20
155.05945154138513
 11
381.08108108108109
 21
155.05945154138513
  0
LINE
  8
_1-0_
  6
CONTINUOUS
 62
    7
 10
115.74595270930111
 20
167.05945401578336
 11
127.94594842034418
 21
167.05945401578336
  0
LINE
  8
_1-0_
  6
DASHED1
 62
    3
 10
116.25048250765414
 20
170.05946391337628
 11
381.08108108108109
 21
170.05946391337628
  0
LINE
  8
_1-1_
  6
CONTINUOUS
 62
    7
 10
136.33641011006125
 20
174.25947034681167
 11
136.33641011006125
 21
170.65946836729307
  0
LINE
  8
_1-0_
  6
CONTINUOUS
 62
    7
 10
136.33641011006125
 20
171.2594728212099
 11
381.08108108108109
 21
171.2594728212099
  0
LINE
  8
_1-0_
  6
CONTINUOUS
 62
    7
 10
136.33641011006125
 20
170.65946836729307
 11
381.08108108108109
 21
170.65946836729307
  0
LINE
  8
_1-1_
  6
CONTINUOUS
 62
    2
 10
134.94594677074537
 20
170.40738904798354
 11
116.50439288165119
 21
170.40738904798354
  0
LINE
  8
_1-1_
  6
CONTINUOUS
 62
    2
 10
116.50439288165119
 20
170.40738904798354
 11
116.50439288165119
 21
200.40738904798354
  0
LINE
  8
_1-1_
  6
CONTINUOUS
 62
    2
 10
116.50439288165119
 20
200.40738904798354
 11
117.03324601456926
 21
197.20264744114232
  0
LINE
  8
_1-1_
  6
CONTINUOUS
 62
    2
 10
134.94594677074537
 20
173.6549996040963
 11
132.21929601720862
 21
173.6549996040963
  0
LINE
  8
_1-1_
  6
CONTINUOUS
 62
    2
 10
134.94594677074537
 20
173.6549996040963
 11
134.94594677074537
 21
170.40738904798354
  0
LINE
  8
_1-1_
  6
DASHED1
 62
    3
 10
116.25048250765414
 20
170.05946391337628
 11
116.07486209353885
 21
170.05946391337628
  0
LINE
  8
_1-0_
  6
CONTINUOUS
 62
    7
 10
115.74595270930111
 20
169.45945945945948
 11
381.08108108108109
 21
169.45945945945948
  0
LINE
  8
_1-1_
  6
DASHED1
 62
    3
 10
116.07486209353885
 20
170.05946391337628
 11
116.07486209353885
 21
230.05945154138516
  0
LINE
  8
_1-1_
  6
CONTINUOUS
 62
    2
 10
138.22565027185388
 20
182.85947645032729
 11
138.22565027185388
 21
180.32871143237966
  0
LINE
  8
_1-1_
  6
CONTINUOUS
 62
    2
 10
117.54565677127323
 20
182.85947645032729
 11
138.22565027185388
 21
182.85947645032729
  0
LINE
  8
_1-0_
  6
CONTINUOUS
 62
    7
 10
115.74595270930111
 20
105.40540540540542
 11
115.74595270930111
 21
241.73227671030406
  0
LINE
  8
_1-2_
  6
CONTINUOUS
 62
    7
 10
122.66550837336361
 20
187.85948057432432
 11
122.66550837336361
 21
241.73227671030406
  0
LINE
  8
_1-2_
  6
CONTINUOUS
 62
    7
 10
120.2655029296875
 20
187.85948057432432
 11
122.66550837336361
 21
187.85948057432432
  0
LINE
  8
_1-2_
  6
CONTINUOUS
 62
    7
 10
120.2655029296875
 20
187.85948057432432
 11
120.2655029296875
 21
241.73227671030406
  0
LINE
  8
_1-2_
  6
CONTINUOUS
 62
    7
 10
129.54595617345862
 20
177.25946787241344
 11
129.54595617345862
 21
182.85947645032729
  0
LINE
  8
_1-2_
  6
CONTINUOUS
 62
    7
 10
134.54596029745568
 20
177.25946787241344
 11
134.54596029745568
 21
182.85947645032729
  0
LINE
  8
_1-2_
  6
CONTINUOUS
 62
    7
 10
129.54595617345862
 20
177.62116303315034
 11
129.90765133419552
 21
177.25946787241344
  0
LINE
  8
_1-2_
  6
CONTINUOUS
 62
    7
 10
129.54595617345862
 20
178.46968367293076
 11
130.75615960198479
 21
177.25946787241344
  0
LINE
  8
_1-2_
  6
CONTINUOUS
 62
    7
 10
129.54595617345862
 20
179.31819194072003
 11
131.60468024176521
 21
177.25946787241344
  0
LINE
  8
_1-2_
  6
CONTINUOUS
 62
    7
 10
129.54595617345862
 20
180.16671258050044
 11
132.45320088154563
 21
177.25946787241344
  0
LINE
  8
_1-2_
  6
CONTINUOUS
 62
    7
 10
129.54595617345862
 20
181.01522084828972
 11
133.30172152132602
 21
177.25946787241344
  0
LINE
  8
_1-2_
  6
CONTINUOUS
 62
    7
 10
129.54595617345862
 20
181.8637414880701
 11
134.15022978911529
 21
177.25946787241344
  0
LINE
  8
_1-2_
  6
CONTINUOUS
 62
    7
 10
129.54595617345862
 20
182.71226212785052
 11
134.54596029745568
 21
177.71225800385346
  0
LINE
  8
_1-2_
  6
CONTINUOUS
 62
    7
 10
130.24726249076227
 20
182.85947645032729
 11
134.54596029745568
 21
178.56076627164273
  0
LINE
  8
_1-2_
  6
CONTINUOUS
 62
    7
 10
131.09578313054266
 20
182.85947645032729
 11
134.54596029745568
 21
179.40928691142315
  0
LINE
  8
_1-2_
  6
CONTINUOUS
 62
    7
 10
131.94429139833193
 20
182.85947645032729
 11
134.54596029745568
 21
180.25780755120357
  0
LINE
  8
_1-2_
  6
CONTINUOUS
 62
    7
 10
132.7927996661212
 20
182.85947645032729
 11
134.54596029745568
 21
181.10632819098396
  0
LINE
  8
_1-2_
  6
CONTINUOUS
 62
    7
 10
133.64132030590162
 20
182.85947645032729
 11
134.54596029745568
 21
181.95484883076438
  0
LINE
  8
_1-2_
  6
CONTINUOUS
 62
    7
 10
134.489840945682
 20
182.85947645032729
 11
134.54596029745568
 21
182.80335709855365
  0
LINE
  8
_1-2_
  6
CONTINUOUS
 62
    7
 10
133.98453171188768
 20
177.25946787241344
 11
134.54596029745568
 21
177.82089645798143
  0
LINE
  8
_1-2_
  6
CONTINUOUS
 62
    7
 10
133.13599870011615
 20
177.25946787241344
 11
134.54596029745568
 21
178.66944184174409
  0
LINE
  8
_1-2_
  6
CONTINUOUS
 62
    7
 10
132.28746568834461
 20
177.25946787241344
 11
134.54596029745568
 21
179.51796248152451
  0
LINE
  8
_1-2_
  6
CONTINUOUS
 62
    7
 10
131.43893267657307
 20
177.25946787241344
 11
134.54596029745568
 21
180.3664831213049
  0
LINE
  8
_1-2_
  6
CONTINUOUS
 62
    7
 10
130.59041203679266
 20
177.25946787241344
 11
134.54596029745568
 21
181.21502850506758
  0
LINE
  8
_1-2_
  6
CONTINUOUS
 62
    7
 10
129.74186665303
 20
177.25946787241344
 11
134.54596029745568
 21
182.063549144848
  0
LINE
  8
_1-2_
  6
CONTINUOUS
 62
    7
 10
129.54595617345862
 20
177.91207803262247
 11
134.49335459116344
 21
182.85947645032729
  0
LINE
  8
_1-2_
  6
CONTINUOUS
 62
    7
 10
129.54595617345862
 20
178.76059867240289
 11
133.6448215793919
 21
182.85947645032729
  0
LINE
  8
_1-2_
  6
CONTINUOUS
 62
    7
 10
129.54595617345862
 20
179.60914405616555
 11
132.79630093961148
 21
182.85947645032729
  0
LINE
  8
_1-2_
  6
CONTINUOUS
 62
    7
 10
129.54595617345862
 20
180.45766469594597
 11
131.94775555584883
 21
182.85947645032729
  0
LINE
  8
_1-2_
  6
CONTINUOUS
 62
    7
 10
129.54595617345862
 20
181.3061977077175
 11
131.09923491606841
 21
182.85947645032729
  0
LINE
  8
_1-2_
  6
CONTINUOUS
 62
    7
 10
129.54595617345862
 20
182.15473071948904
 11
130.25071427628802
 21
182.85947645032729
  0
LINE
  8
_1-0_
  6
CONTINUOUS
 62
    7
 10
115.74595270930111
 20
155.05945154138513
 11
115.74595270930111
 21
167.05945401578336
  0
LINE
  8
_1-0_
  6
CONTINUOUS
 62
    7
 10
115.74595270930111
 20
167.05945401578336
 11
127.74595518369934
 21
167.05945401578336
  0
LINE
  8
_1-0_
  6
CONTINUOUS
 62
    7
 10
127.74595518369934
 20
167.05945401578336
 11
127.74595518369934
 21
155.05945154138513
  0
LINE
  8
_1-0_
  6
CONTINUOUS
 62
    7
 10
127.74595518369934
 20
155.05945154138513
 11
115.74595270930111
 21
155.05945154138513
  0
LINE
  8
_1-0_
  6
CONTINUOUS
 62
    7
 10
127.74595518369934
 20
167.05945401578336
 11
115.74595270930111
 21
155.05945154138513
  0
LINE
  8
_1-3_
  6
CONTINUOUS
 62
    7
 10
70.540540540540547
 20
170.40738904798354
 11
70.540540540540547
 21
200.40738904798354
  0
LINE
  8
_1-3_
  6
CONTINUOUS
 62
    7
 10
107.83783783783784
 20
170.40738904798354
 11
70.540540540540547
 21
170.40738904798354
  0
LINE
  8
_1-3_
  6
CONTINUOUS
 62
    7
 10
107.83783783783784
 20
200.40738904798354
 11
70.540540540540547
 21
200.40738904798354
  0
LINE
  8
_1-3_
  6
CONTINUOUS
 62
    7
 10
62.987483256572006
 20
170.40738904798354
 11
62.987483256572006
 21
230.05945154138516
  0
LINE
  8
_1-3_
  6
CONTINUOUS
 62
    7
 10
107.83783783783784
 20
170.40738904798354
 11
62.987483256572006
 21
170.40738904798354
  0
LINE
  8
_1-3_
  6
CONTINUOUS
 62
    7
 10
107.83783783783784
 20
230.05945154138516
 11
62.987483256572006
 21
230.05945154138516
  0
LINE
  8
_1-3_
  6
CONTINUOUS
 62
    7
 10
82.630147160710521
 20
182.85947645032729
 11
82.630147160710521
 21
204.85947480072846
  0
LINE
  8
_1-3_
  6
CONTINUOUS
 62
    7
 10
107.83783783783784
 20
182.85947645032729
 11
82.630147160710521
 21
182.85947645032729
  0
LINE
  8
_0-1_
  6
CONTINUOUS
 62
    7
 10
125.94595419394004
 20
182.85947645032729
 11
143.63689938107052
 21
231.46495922191724
  0
LINE
  8
_0-1_
  6
CONTINUOUS
 62
    7
 10
132.83053423907307
 20
180.20270270270271
 11
144.84117662584461
 21
213.20167335304055
  0
LINE
  8
_0-1_
  6
CONTINUOUS
 62
    7
 10
122.43243243243244
 20
218.91891891891893
 11
132.26585181983742
 21
245.93603185705237
  0
LINE
  8
_1-3_
  6
CONTINUOUS
 62
    7
 10
115.74595270930111
 20
139.8603243441195
 11
155.74594858530406
 21
139.8603243441195
  0
LINE
  8
_1-3_
  6
CONTINUOUS
 62
    7
 10
115.74595270930111
 20
150.68201838312922
 11
115.74595270930111
 21
139.8603243441195
  0
LINE
  8
_1-3_
  6
CONTINUOUS
 62
    7
 10
155.74594858530406
 20
150.68201838312922
 11
155.74594858530406
 21
139.8603243441195
  0
LINE
  8
_1-3_
  6
CONTINUOUS
 62
    7
 10
155.74594858530406
 20
123.34301097972974
 11
151.88432848131336
 21
121.11350394584038
  0
LINE
  8
_1-3_
  6
CONTINUOUS
 62
    7
 10
155.74594858530406
 20
123.34301097972974
 11
151.88432848131336
 21
125.57251801361909
  0
LINE
  8
_1-3_
  6
CONTINUOUS
 62
    7
 10
110.53146774704392
 20
123.34301097972974
 11
155.74594858530406
 21
123.34301097972974
  0
LINE
  8
_1-3_
  6
CONTINUOUS
 62
    7
 10
155.74594858530406
 20
139.8603243441195
 11
155.74594858530406
 21
123.34301097972974
  0
LINE
  8
_1-3_
  6
CONTINUOUS
 62
    7
 10
100.5314656850454
 20
230.05945154138516
 11
98.847087138407943
 21
227.14201231260557
  0
LINE
  8
_1-3_
  6
CONTINUOUS
 62
    7
 10
100.5314656850454
 20
230.05945154138516
 11
102.21584423168287
 21
227.14201231260557
  0
LINE
  8
_1-3_
  6
CONTINUOUS
 62
    7
 10
100.5314656850454
 20
133.34300685573268
 11
100.5314656850454
 21
230.05945154138516
  0
LINE
  8
_1-3_
  6
CONTINUOUS
 62
    7
 10
98.918918918918919
 20
138.64864864864865
 11
95.274965440904779
 21
141.31273424303211
  0
LINE
  8
_1-3_
  6
CONTINUOUS
 62
    7
 10
133.91662185256547
 20
170.22704253325591
 11
144.1756872228674
 21
198.41359318913641
  0
LINE
  8
_1-3_
  6
CONTINUOUS
 62
    7
 10
132.26585181983742
 20
245.93603185705237
 11
134.59459459459461
 21
245.93603185705237
  0
LINE
  8
_1-3_
  6
CONTINUOUS
 62
    7
 10
143.63689938107052
 20
231.46495922191724
 11
147.56756756756758
 21
231.46495922191724
  0
LINE
  8
_1-3_
  6
CONTINUOUS
 62
    7
 10
144.84117662584461
 20
213.20167335304055
 11
149.18918918918919
 21
213.20167335304055
  0
LINE
  8
_1-3_
  6
CONTINUOUS
 62
    7
 10
144.1756872228674
 20
198.41359318913641
 11
147.56756756756758
 21
198.41359318913641
  0
LINE
  8
_1-3_
  6
CONTINUOUS
 62
    7
 10
83.513513513513516
 20
138.64864864864865
 11
98.918918918918919
 21
138.64864864864865
  0
LINE
  8
_1-3_
  6
CONTINUOUS
 62
    7
 10
81.593516581767318
 20
190.2591272302576
 11
74.551948341163438
 21
156.65164019610432
  0
LINE
  8
_1-3_
  6
CONTINUOUS
 62
    7
 10
74.551948341163438
 20
156.65164019610432
 11
71.031164220861484
 21
156.65164019610432
  0
LINE
  8
_1-3_
  6
CONTINUOUS
 62
    7
 10
82.630147160710521
 20
230.05945154138516
 11
107.83783783783784
 21
230.05945154138516
  0
LINE
  8
_1-3_
  6
CONTINUOUS
 62
    7
 10
82.630147160710521
 20
204.85947480072846
 11
82.630147160710521
 21
230.05945154138516
  0
LINE
  8
_1-3_
  6
CONTINUOUS
 62
    7
 10
82.630147160710521
 20
230.05945154138516
 11
80.945768614073074
 21
227.14201231260557
  0
LINE
  8
_1-3_
  6
CONTINUOUS
 62
    7
 10
82.630147160710521
 20
230.05945154138516
 11
84.314525707347983
 21
227.14201231260557
  0
LINE
  8
_1-3_
  6
CONTINUOUS
 62
    7
 10
82.789015898833412
 20
217.70824535472974
 11
73.148055205474037
 21
240.78812057907518
  0
LINE
  8
_1-3_
  6
CONTINUOUS
 62
    7
 10
73.148055205474037
 20
240.78812057907518
 11
70.810849988782735
 21
240.78812057907518
  0
LINE
  8
_1-2_
  6
CONTINUOUS
 62
    7
 10
116.2655021048881
 20
210.7359602644637
 11
120.2655029296875
 21
210.7359602644637
  0
LINE
  8
_1-2_
  6
CONTINUOUS
 62
    7
 10
116.2655021048881
 20
218.7359619140625
 11
120.2655029296875
 21
218.7359619140625
  0
LINE
  8
_1-2_
  6
CONTINUOUS
 62
    7
 10
116.2655021048881
 20
210.7359602644637
 11
116.2655021048881
 21
218.7359619140625
  0
LINE
  8
_1-2_
  6
CONTINUOUS
 62
    7
 10
116.2655021048881
 20
218.7359619140625
 11
120.2655029296875
 21
210.7359602644637
  0
LINE
  8
_1-3_
  6
CONTINUOUS
 62
    7
 10
107.83783783783784
 20
206.8594690271326
 11
82.630147160710521
 21
206.8594690271326
  0
LINE
  8
_1-1_
  6
CONTINUOUS
 62
    2
 10
117.54565677127323
 20
182.85947645032729
 11
117.54565677127323
 21
206.8594690271326
  0
LINE
  8
_1-3_
  6
CONTINUOUS
 62
    7
 10
82.630147160710521
 20
206.8594690271326
 11
80.945768614073074
 21
209.77690825591216
  0
LINE
  8
_1-3_
  6
CONTINUOUS
 62
    7
 10
82.630147160710521
 20
206.8594690271326
 11
84.314525707347983
 21
209.77690825591216
  0
ARC
  8
_1-1_
  6
CONTINUOUS
 62
    3
 10
129.7920845650338
 20
181.39254183382602
 40
4.1404008865356445
 50
201.73239135742187
 51
266.59201049804687
  0
ARC
  8
_1-1_
  6
CONTINUOUS
 62
    3
 10
173.34129539695948
 20
180.00581483583193
 40
2.7463450302948824
 50
270.09652709960937
 51
356.94560241699224
  0
ARC
  8
_1-1_
  6
CONTINUOUS
 62
    3
 10
190.99206872888516
 20
181.39254183382602
 40
4.1404008865356445
 50
201.73239135742187
 51
266.59201049804687
  0
ARC
  8
_1-1_
  6
CONTINUOUS
 62
    3
 10
234.54127956081084
 20
180.00581483583193
 40
2.7463450302948824
 50
270.09652709960937
 51
356.94560241699224
  0
ARC
  8
_1-1_
  6
CONTINUOUS
 62
    3
 10
252.19205289273651
 20
181.39254183382602
 40
4.1404008865356445
 50
201.73239135742187
 51
266.59201049804687
  0
ARC
  8
_1-1_
  6
CONTINUOUS
 62
    3
 10
295.74126372466219
 20
180.00581483583193
 40
2.7463450302948824
 50
270.09652709960937
 51
356.94560241699224
  0
ARC
  8
_1-1_
  6
CONTINUOUS
 62
    3
 10
313.3920618005701
 20
181.39254183382602
 40
4.1404008865356445
 50
201.73239135742187
 51
266.59201049804687
  0
ARC
  8
_1-1_
  6
CONTINUOUS
 62
    3
 10
356.94127263249578
 20
180.00581483583193
 40
2.7463450302948824
 50
270.09652709960937
 51
356.94560241699224
  0
ARC
  8
_1-1_
  6
CONTINUOUS
 62
    3
 10
374.59207070840375
 20
181.39254183382602
 40
4.1404008865356445
 50
201.73239135742187
 51
266.59201049804687
  0
ARC
  8
_1-3_
  6
CONTINUOUS
 62
    7
 10
110.53146774704392
 20
133.34300685573268
 40
9.9999997422501856
 50
180
 51
270
  0
TEXT
  8
_0-0_
 62
    7
 10
147.56756962956609
 20
22.702702702702709
 40
2.5
 41
1
 50
0
  1
図名
  0
TEXT
  8
_0-0_
 62
    7
 10
147.56756962956609
 20
12.972972972972968
 40
2.5
 41
1
 50
0
  1
縮尺
  0
TEXT
  8
_0-0_
 62
    7
 10
382.77784605284
 20
21.243871740392734
 40
2.5
 41
1
 50
0
  1
ＮＯ
  0
TEXT
  8
_0-0_
 62
    7
 10
31.231870393495313
 20
18.589955922719582
 40
2.5
 41
1
 50
0
  1
木造
  0
TEXT
  8
_0-0_
 62
    7
 10
20.270270012520456
 20
22.702702702702709
 40
2.5
 41
1
 50
0
  1
Ｆ形
  0
TEXT
  8
_0-0_
 62
    7
 10
389.99062615471917
 20
16.178650211643514
 40
2.5
 41
1
 50
0
  1
Ｆ
  0
TEXT
  8
_0-0_
 62
    7
 10
171.37221877639359
 20
12.362518826046511
 40
2.5
 41
1
 50
0
  1
1/5
  0
TEXT
  8
_0-1_
 62
    7
 10
283.31418836438979
 20
123.33247004328548
 40
2.5
 41
1
 50
0
  1
桟瓦
  0
TEXT
  8
_0-1_
 62
    7
 10
283.31418836438979
 20
95.126266479492187
 40
2.5
 41
1
 50
0
  1
野地板　　ｔ＝12
  0
TEXT
  8
_0-1_
 62
    7
 10
45.397583729511979
 20
13.77361400707349
 40
2.5
 41
1
 50
0
  1
壁際　1
  0
TEXT
  8
_1-3_
 62
    7
 10
70.040538890941718
 20
183.53238904798354
 40
2.5
 41
1
 50
90
  1
150
  0
TEXT
  8
_1-3_
 62
    7
 10
133.87095683329815
 20
140.36032599371833
 40
2.5
 41
1
 50
0
  1
200
  0
TEXT
  8
_0-1_
 62
    7
 10
135.95325160670927
 20
244.93060962573904
 40
2.5
 41
1
 50
0
  1
外壁
  0
TEXT
  8
_0-1_
 62
    7
 10
148.75091140334672
 20
230.55517248205237
 40
2.5
 41
1
 50
0
  1
壁際水切鉄板
  0
TEXT
  8
_0-1_
 62
    7
 10
151.731190037083
 20
212.1475549646326
 40
2.5
 41
1
 50
0
  1
発泡弾性シール材
  0
TEXT
  8
_0-1_
 62
    7
 10
149.2768468083562
 20
197.59679433461784
 40
2.5
 41
1
 50
0
  1
捨谷
  0
TEXT
  8
_0-1_
 62
    7
 10
64.569026843921563
 20
133.58108108108109
 40
2.5
 41
1
 50
0
  1
２重貼り
  0
TEXT
  8
_0-1_
 62
    7
 10
400.09286828943203
 20
13.401860417546459
 40
2.5
 41
1
 50
0
  1
9
  0
TEXT
  8
_1-3_
 62
    7
 10
62.487481606973176
 20
198.3584264806799
 40
2.5
 41
1
 50
90
  1
300　以上
  0
TEXT
  8
_0-1_
 62
    7
 10
41.264540698077241
 20
155.05128602723818
 40
2.5
 41
1
 50
0
  1
水切り鉄板立上がり寸法
  0
TEXT
  8
_1-3_
 62
    7
 10
50.068177403630443
 20
239.52211947054477
 40
2.5
 41
1
 50
0
  1
水切鉄板上端より
  0
TEXT
  8
_1-3_
 62
    7
 10
50.555091033110727
 20
236.79540685705237
 40
2.5
 41
1
 50
0
  1
50ｍｍ以上
  0
TEXT
  8
_1-3_
 62
    7
 10
48.701525713946381
 20
245.95931594436234
 40
3
 41
1
 50
0
  1
雨押え板上端より50mm以上とする
  0
TEXT
  8
_1-3_
 62
    7
 10
82.130145511111706
 20
191.98447562552789
 40
2.5
 41
1
 50
90
  1
120
  0
TEXT
  8
_0-1_
 62
    7
 10
283.31419248838682
 20
116.03203026024072
 40
2.5
 41
1
 50
0
  1
瓦桟　
  0
TEXT
  8
_1-3_
 62
    7
 10
296.8815901472762
 20
112.47445183831293
 40
2.5
 41
1
 50
0
  1
※　地域により瓦桟木の大きさは、異なります
  0
POINT
  8
_1-3_
 62
    7
 10
70.540540540540547
 20
170.40738904798354
  0
POINT
  8
_1-3_
 62
    7
 10
70.540540540540547
 20
200.40738904798354
  0
POINT
  8
_1-3_
 62
    7
 10
62.987483256572006
 20
170.40738904798354
  0
POINT
  8
_1-3_
 62
    7
 10
62.987483256572006
 20
230.05945154138516
  0
POINT
  8
_1-3_
 62
    7
 10
82.630147160710521
 20
182.85947645032729
  0
POINT
  8
_1-3_
 62
    7
 10
115.74595270930111
 20
139.8603243441195
  0
POINT
  8
_1-3_
 62
    7
 10
155.74594858530406
 20
139.8603243441195
  0
POINT
  8
_1-3_
 62
    7
 10
82.630147160710521
 20
206.8594690271326
  0
POINT
  8
_1-3_
 62
    7
 10
82.630147160710521
 20
206.8594690271326
  0
TEXT
  8
_1-3_
 62
    7
 10
296.5736224200275
 20
116.06411083324537
 40
2.5
 41
1
 50
0
  1
15×21　（防腐処理））
  0
TEXT
  8
_0-1_
 62
    7
 10
283.31419248838682
 20
108.89752362225508
 40
2.5
 41
1
 50
0
  1
縦桟
  0
TEXT
  8
_0-1_
 62
    7
 10
283.61973118137672
 20
102.41331358213684
 40
2.5
 41
1
 50
0
  1
ルーフィング
  0
TEXT
  8
_0-1_
 62
    7
 10
283.31418836438979
 20
88.323595201646967
 40
2.5
 41
1
 50
0
  1
たる木
  0
TEXT
  8
_0-1_
 62
    7
 10
64.615471694044828
 20
136.88205223116262
 40
2.5
 41
1
 50
0
  1
ルーフィング
  0
TEXT
  8
_1-3_
 62
    7
 10
48.314904187176694
 20
251.60641232052367
 40
3
 41
1
 50
0
  1
ルーフィング立上げ長さは、300ｍｍ以上かつ
  0
TEXT
  8
_0-1_
 62
    7
 10
33.194675540765388
 20
192.17720465890184
 40
2.5
 41
1
 50
0
  1
ルーフィング立上がり寸法
  0
ENDSEC
  0
EOF
