  0
SECTION
  2
HEADER
  9
$ACADVER
  1
AC1009
  9
$INSBASE
 10
0
 20
0
 30
0
  9
$EXTMIN
 10
0
 20
0
  9
$EXTMAX
 10
420
 20
297
  9
$LIMMIN
 10
0
 20
0
  9
$LIMMAX
 10
420
 20
297
  9
$LTSCALE
 40
1
  0
ENDSEC
  0
SECTION
  2
TABLES
  0
TABLE
  2
LTYPE
 70
     9
  0
LTYPE
  2
CONTINUOUS
 70
    64
  3
実線
 72
    65
 73
     0
 40
0.0
  0
LTYPE
  2
DASHED1
 70
    64
  3
--  --  --  --  --  --  --  --  
 72
    65
 73
     2
 40
2.5
 49
1.25
 49
-1.25
  0
LTYPE
  2
DASHED2
 70
    64
  3
----    ----    ----    ----    
 72
    65
 73
     2
 40
5.0
 49
2.5
 49
-2.5
  0
LTYPE
  2
DASHED3
 70
    64
  3
------  ------  ------  ------  
 72
    65
 73
     2
 40
5.0
 49
3.75
 49
-1.25
  0
LTYPE
  2
CENTER1
 70
    64
  3
----- - ----- - ----- - ----- - 
 72
    65
 73
     4
 40
10.0
 49
6.25
 49
-1.25
 49
1.25
 49
-1.25
  0
LTYPE
  2
CENTER2
 70
    64
  3
----------  --  ----------  --  
 72
    65
 73
     4
 40
20.0
 49
12.5
 49
-2.5
 49
2.5
 49
-2.5
  0
LTYPE
  2
PHANTOM1
 70
    64
  3
--- - - --- - - --- - - --- - - 
 72
    65
 73
     6
 40
10.0
 49
3.25
 49
-1.25
 49
1.25
 49
-1.25
 49
1.25
 49
-1.25
  0
LTYPE
  2
PHANTOM2
 70
    64
  3
--------  -  -  --------  -  -  
 72
    65
 73
     6
 40
20.0
 49
10.0
 49
-2.5
 49
1.25
 49
-2.5
 49
1.25
 49
-2.5
  0
LTYPE
  2
DOT
 70
    64
  3
-   -   -   -   -   -   -   -   
 72
    65
 73
     2
 40
2.5
 49
0.625
 49
-1.875
  0
LTYPE
  2
DUMMY
 70
    64
  3
ダミー
 72
    65
 73
     0
 40
0.0
  0
LTYPE
  2
RAND1
 70
    64
  3
ランダム線1
 72
    65
 73
     4
 40
10.0
 49
1.0
 49
-2.0
 49
3.0
 49
-4.0
  0
LTYPE
  2
RAND2
 70
    64
  3
ランダム線2
 72
    65
 73
     4
 40
14.0
 49
2.0
 49
-3.0
 49
4.0
 49
-5.0
  0
LTYPE
  2
RAND3
 70
    64
  3
ランダム線3
 72
    65
 73
     4
 40
18.0
 49
3.0
 49
-4.0
 49
5.0
 49
-6.0
  0
LTYPE
  2
RAND4
 70
    64
  3
ランダム線4
 72
    65
 73
     4
 40
22.0
 49
4.0
 49
-5.0
 49
6.0
 49
-7.0
  0
LTYPE
  2
RAND5
 70
    64
  3
ランダム線5
 72
    65
 73
     4
 40
26.0
 49
5.0
 49
-6.0
 49
7.0
 49
-8.0
  0
LTYPE
  2
LONG1
 70
    64
  3
----------  --  ----------  --  
 72
    65
 73
     4
 40
40.0
 49
32.5
 49
-2.5
 49
2.5
 49
-2.5
  0
LTYPE
  2
LONG2
 70
    64
  3
--------  -  -  --------  -  -  
 72
    65
 73
     6
 40
40.0
 49
30.0
 49
-2.5
 49
1.25
 49
-2.5
 49
1.25
 49
-2.5
  0
LTYPE
  2
LONG3
 70
    64
  3
+++++++++++++++..+++++++++++++++
 72
    65
 73
     2
 40
40.0
 49
37.5
 49
-2.5
  0
LTYPE
  2
LONG4
 70
    64
  3
+++++++++++++++..+++++++++++++++
 72
    65
 73
     2
 40
80.0
 49
75.0
 49
-5.0
  0
LTYPE
  2
LONG5
 70
    64
  3
----------  --  ----------  --  
 72
    65
 73
     4
 40
60.0
 49
37.5
 49
-7.5
 49
7.5
 49
-7.5
  0
LTYPE
  2
dashed
 70
   64
  3
-------   -------------   ------
 72
   65
 73
    2
 40
7.5
 49
6
 49
-1.5
  0
LTYPE
  2
dashed_spaced
 70
   64
  3
----        --------        ----
 72
   65
 73
    2
 40
12
 49
6
 49
-6
  0
LTYPE
  2
long_dashed_dotted
 70
   64
  3
------------- --- --------------
 72
   65
 73
    4
 40
15.25
 49
12
 49
-1.5
 49
0.25
 49
-1.5
  0
LTYPE
  2
long_dashed_double-dotted
 70
   64
  3
----------- --- --- ------------
 72
   65
 73
    6
 40
17
 49
12
 49
-1.5
 49
0.25
 49
-1.5
 49
0.25
 49
-1.5
  0
LTYPE
  2
long_dashed_triplicate-dotted
 70
   64
  3
--------- --- --- --- ----------
 72
   65
 73
    8
 40
18.75
 49
12
 49
-1.5
 49
0.25
 49
-1.5
 49
0.25
 49
-1.5
 49
0.25
 49
-1.5
  0
LTYPE
  2
dotted
 70
   64
  3
   -       -       -       -    
 72
   65
 73
    2
 40
1.75
 49
0.25
 49
-1.5
  0
LTYPE
  2
chain
 70
   64
  3
-------------- -- --------------
 72
   65
 73
    4
 40
18.5
 49
12
 49
-1.5
 49
3.5
 49
-1.5
  0
LTYPE
  2
chain_double_dash
 70
   64
  3
------------ -- -- -------------
 72
   65
 73
    6
 40
23.5
 49
12
 49
-1.5
 49
3.5
 49
-1.5
 49
3.5
 49
-1.5
  0
LTYPE
  2
dashed_dotted
 70
   64
  3
-----------     -     ----------
 72
   65
 73
    4
 40
9.25
 49
6
 49
-1.5
 49
0.25
 49
-1.5
  0
LTYPE
  2
double-dashed_dotted
 70
   64
  3
------   -----------   -   -----
 72
   65
 73
    6
 40
16.75
 49
6
 49
-1.5
 49
6
 49
-1.5
 49
0.25
 49
-1.5
  0
LTYPE
  2
dashed_double-dotted
 70
   64
  3
---------    -    -    ---------
 72
   65
 73
    6
 40
11
 49
6
 49
-1.5
 49
0.25
 49
-1.5
 49
0.25
 49
-1.5
  0
LTYPE
  2
double-dashed_double-dotted
 70
   64
  3
-----   ---------   -   -   ----
 72
   65
 73
    8
 40
18.5
 49
6
 49
-1.5
 49
6
 49
-1.5
 49
0.25
 49
-1.5
 49
0.25
 49
-1.5
  0
LTYPE
  2
dashed_triplicate-dotted
 70
   64
  3
-------    -    -    -    ------
 72
   65
 73
    8
 40
12.75
 49
6
 49
-1.5
 49
0.25
 49
-1.5
 49
0.25
 49
-1.5
 49
0.25
 49
-1.5
  0
LTYPE
  2
double-dashed_triplicate-dotted
 70
   64
  3
-----  ---------  -  -  -  -----
 72
   65
 73
   10
 40
20.25
 49
6
 49
-1.5
 49
6
 49
-1.5
 49
0.25
 49
-1.5
 49
0.25
 49
-1.5
 49
0.25
 49
-1.5
  0
LTYPE
  2
undefined
 70
   64
  3
--------------------------------
 72
   65
 73
    0
 40
0
  0
ENDTAB
  0
TABLE
  2
STYLE
  5
3
100
AcDbSymbolTable
 70
     1
  0
STYLE
  5
10
100
AcDbSymbolTableRecord
100
AcDbTextStyleTableRecord
  2
STANDARD
 70
     0
 40
0.0
 41
1.0
 50
0.0
 71
     0
 42
0.2
  3
txt
  4
bigfont.shx
  0
STYLE
  5
26
100
AcDbSymbolTableRecord
100
AcDbTextStyleTableRecord
  2
TATEGAKI
 70
    68
 40
0.0
 41
1.0
 50
0.0
 71
     0
 42
1.0
  3
txt
  4
bigfont.shx
  0
ENDTAB
  0
TABLE
  2
LAYER
 70
    6
  0
LAYER
  2
_0-0_
 70
   64
 62
    7
  6
CONTINUOUS
  0
LAYER
  2
_1-0_
 70
   64
 62
    7
  6
CONTINUOUS
  0
LAYER
  2
_1-1_
 70
   64
 62
    7
  6
CONTINUOUS
  0
LAYER
  2
_1-2_
 70
   64
 62
    7
  6
CONTINUOUS
  0
LAYER
  2
_1-3_
 70
   64
 62
    7
  6
CONTINUOUS
  0
LAYER
  2
ADD_LINE
 70
   64
 62
    7
  6
CONTINUOUS
  0
ENDTAB
  0
ENDSEC
  0
SECTION
  2
BLOCKS
  0
ENDSEC
  0
SECTION
  2
ENTITIES
  0
LINE
  8
_0-0_
  6
CONTINUOUS
 62
    5
 10
6.7567526327597136
 20
280.13513513513516
 11
406.75677325274495
 21
280.13513513513516
  0
LINE
  8
_0-0_
  6
CONTINUOUS
 62
    5
 10
406.75677325274495
 20
10.13513513513513
 11
6.7567526327597136
 21
10.13513513513513
  0
LINE
  8
_0-0_
  6
CONTINUOUS
 62
    5
 10
406.75677325274495
 20
30.135133073136615
 11
6.7567402607685949
 21
30.135133073136615
  0
LINE
  8
_0-0_
  6
CONTINUOUS
 62
    5
 10
371.75678150073907
 20
10.13513513513513
 11
371.75678150073907
 21
30.135133073136615
  0
LINE
  8
_0-0_
  6
CONTINUOUS
 62
    5
 10
137.02703939901818
 20
30.135133073136615
 11
137.02703939901818
 21
10.13513513513513
  0
LINE
  8
_0-0_
  6
CONTINUOUS
 62
    5
 10
214.86486486486487
 20
30.135133073136615
 11
214.86486486486487
 21
10.13513513513513
  0
LINE
  8
_0-0_
  6
CONTINUOUS
 62
    5
 10
137.02703939901818
 20
20.135134104135886
 11
214.86486486486487
 21
20.135134104135886
  0
LINE
  8
_0-0_
  6
CONTINUOUS
 62
    5
 10
396.48648648648651
 20
25.945945945945951
 11
383.91891891891896
 21
13.378379924877265
  0
LINE
  8
_1-0_
  6
CONTINUOUS
 62
    3
 10
173.2321496911951
 20
146.16974289352831
 11
174.62162327122044
 21
146.16974289352831
  0
LINE
  8
_1-0_
  6
CONTINUOUS
 62
    3
 10
174.62162327122044
 20
146.16974289352831
 11
174.62162327122044
 21
142.98850806983742
  0
LINE
  8
_1-0_
  6
CONTINUOUS
 62
    3
 10
174.62162327122044
 20
146.16974289352831
 11
174.62162327122044
 21
142.98850806983742
  0
LINE
  8
_1-0_
  6
CONTINUOUS
 62
    3
 10
172.29322691221495
 20
149.05204566749367
 11
166.62157213365711
 21
145.82708822714318
  0
LINE
  8
_1-0_
  6
CONTINUOUS
 62
    3
 10
226.2321760847762
 20
146.16986661343961
 11
227.62164966480154
 21
146.16986661343961
  0
LINE
  8
_1-0_
  6
CONTINUOUS
 62
    3
 10
166.62157213365711
 20
145.82708822714318
 11
166.62157213365711
 21
143.02713342615075
  0
LINE
  8
_1-0_
  6
CONTINUOUS
 62
    3
 10
171.19403736011404
 20
145.39577587230787
 11
166.62157213365711
 21
143.02713342615075
  0
LINE
  8
_1-0_
  6
CONTINUOUS
 62
    3
 10
225.29324093380492
 20
149.05204566749367
 11
219.62157378325591
 21
145.82708822714318
  0
LINE
  8
_1-0_
  6
CONTINUOUS
 62
    3
 10
279.23215299039276
 20
146.16986661343961
 11
280.62162657041807
 21
146.16986661343961
  0
LINE
  8
_1-0_
  6
CONTINUOUS
 62
    3
 10
219.62157378325591
 20
145.82708822714318
 11
219.62157378325591
 21
143.02713342615075
  0
LINE
  8
_1-0_
  6
CONTINUOUS
 62
    3
 10
224.19403900971284
 20
145.39577587230787
 11
219.62157378325591
 21
143.02713342615075
  0
LINE
  8
_1-0_
  6
CONTINUOUS
 62
    3
 10
280.62162657041807
 20
146.16986661343961
 11
280.62162657041807
 21
142.98863178974875
  0
LINE
  8
_1-0_
  6
CONTINUOUS
 62
    3
 10
280.62162657041807
 20
146.16986661343961
 11
280.62162657041807
 21
142.98863178974875
  0
LINE
  8
ADD_LINE
  6
DOT
 62
    3
 10
142.47989551441091
 20
139.82703131598396
 11
155.44034803235854
 21
139.82703131598396
  0
LINE
  8
_1-0_
  6
CONTINUOUS
 62
    3
 10
121.62162162162163
 20
128.22704005885768
 11
124.82163712785051
 21
128.22704005885768
  0
LINE
  8
_1-0_
  6
CONTINUOUS
 62
    3
 10
121.62162162162163
 20
128.22704005885768
 11
121.62162162162163
 21
144.82703543998102
  0
LINE
  8
_1-0_
  6
CONTINUOUS
 62
    3
 10
124.82163712785051
 20
128.22704005885768
 11
124.82163712785051
 21
140.64634168470229
  0
LINE
  8
_1-0_
  6
CONTINUOUS
 62
    3
 10
278.29321783942146
 20
149.05205803948482
 11
272.62157543285474
 21
145.82708822714318
  0
LINE
  8
_1-0_
  6
CONTINUOUS
 62
    3
 10
332.23215463999156
 20
146.16985424144849
 11
333.62165296399917
 21
146.16985424144849
  0
LINE
  8
_1-0_
  6
CONTINUOUS
 62
    3
 10
272.62157543285474
 20
145.82708822714318
 11
272.62157543285474
 21
143.02713342615075
  0
LINE
  8
_1-0_
  6
CONTINUOUS
 62
    3
 10
277.19404065931167
 20
145.39576350031672
 11
272.62157543285474
 21
143.02713342615075
  0
LINE
  8
_1-0_
  6
CONTINUOUS
 62
    3
 10
333.62165296399917
 20
146.16985424144849
 11
333.62165296399917
 21
142.98863178974875
  0
LINE
  8
_1-0_
  6
CONTINUOUS
 62
    3
 10
331.29319474503802
 20
149.05205803948482
 11
325.6215523384713
 21
145.82708822714318
  0
LINE
  8
_1-0_
  6
CONTINUOUS
 62
    3
 10
325.6215523384713
 20
145.82708822714318
 11
325.6215523384713
 21
143.02713342615075
  0
LINE
  8
_1-0_
  6
CONTINUOUS
 62
    3
 10
330.19401756492823
 20
145.39576350031672
 11
325.6215523384713
 21
143.02713342615075
  0
LINE
  8
_1-0_
  6
CONTINUOUS
 62
    3
 10
121.62162162162163
 20
146.02701960383234
 11
121.62162162162163
 21
144.82703543998102
  0
LINE
  8
_1-1_
  6
CONTINUOUS
 62
    7
 10
191.02161304370779
 20
133.42702504750847
 11
191.02161304370779
 21
134.02701712943414
  0
LINE
  8
_1-1_
  6
CONTINUOUS
 62
    7
 10
191.02161304370779
 20
134.02701712943414
 11
195.82162393105997
 21
134.02701712943414
  0
LINE
  8
_1-1_
  6
CONTINUOUS
 62
    7
 10
195.82162393105997
 20
134.02701712943414
 11
195.82162393105997
 21
133.42702504750847
  0
LINE
  8
_1-1_
  6
CONTINUOUS
 62
    7
 10
195.82162393105997
 20
133.42702504750847
 11
191.02161304370779
 21
133.42702504750847
  0
LINE
  8
_1-1_
  6
CONTINUOUS
 62
    7
 10
191.02161304370779
 20
134.02701712943414
 11
195.82162393105997
 21
133.42702504750847
  0
LINE
  8
_1-1_
  6
CONTINUOUS
 62
    7
 10
251.62160512563347
 20
133.42702504750847
 11
251.62160512563347
 21
134.02701712943414
  0
LINE
  8
_1-1_
  6
CONTINUOUS
 62
    7
 10
251.62160512563347
 20
134.02701712943414
 11
256.42161601298568
 21
134.02701712943414
  0
LINE
  8
_1-1_
  6
CONTINUOUS
 62
    7
 10
256.42161601298568
 20
134.02701712943414
 11
256.42161601298568
 21
133.42702504750847
  0
LINE
  8
_1-1_
  6
CONTINUOUS
 62
    7
 10
256.42161601298568
 20
133.42702504750847
 11
251.62160512563347
 21
133.42702504750847
  0
LINE
  8
_1-1_
  6
CONTINUOUS
 62
    7
 10
251.62160512563347
 20
134.02701712943414
 11
256.42161601298568
 21
133.42702504750847
  0
LINE
  8
_1-1_
  6
CONTINUOUS
 62
    7
 10
312.22159720755911
 20
133.42702504750847
 11
312.22159720755911
 21
134.02701712943414
  0
LINE
  8
_1-1_
  6
CONTINUOUS
 62
    7
 10
312.22159720755911
 20
134.02701712943414
 11
317.02160809491136
 21
134.02701712943414
  0
LINE
  8
_1-1_
  6
CONTINUOUS
 62
    7
 10
317.02160809491136
 20
134.02701712943414
 11
317.02160809491136
 21
133.42702504750847
  0
LINE
  8
_1-1_
  6
CONTINUOUS
 62
    7
 10
317.02160809491136
 20
133.42702504750847
 11
312.22159720755911
 21
133.42702504750847
  0
LINE
  8
_1-1_
  6
CONTINUOUS
 62
    7
 10
312.22159720755911
 20
134.02701712943414
 11
317.02160809491136
 21
133.42702504750847
  0
LINE
  8
_1-2_
  6
CONTINUOUS
 62
    7
 10
121.62162162162163
 20
175.94594594594597
 11
166.62162162162164
 21
175.94594594594597
  0
LINE
  8
_1-2_
  6
CONTINUOUS
 62
    7
 10
121.62162162162163
 20
157.29729729729732
 11
121.62162162162163
 21
175.94594594594597
  0
LINE
  8
_1-2_
  6
CONTINUOUS
 62
    7
 10
166.62162162162164
 20
157.29729729729732
 11
166.62162162162164
 21
175.94594594594597
  0
LINE
  8
_1-2_
  6
CONTINUOUS
 62
    7
 10
166.62162162162164
 20
175.94594594594597
 11
219.62157378325591
 21
175.94594594594597
  0
LINE
  8
_1-2_
  6
CONTINUOUS
 62
    7
 10
219.62157378325591
 20
157.29729729729732
 11
219.62157378325591
 21
175.94594594594597
  0
LINE
  8
_1-2_
  6
CONTINUOUS
 62
    7
 10
219.62157378325591
 20
175.94594594594597
 11
272.62157543285474
 21
175.94594594594597
  0
LINE
  8
_1-2_
  6
CONTINUOUS
 62
    7
 10
272.62157543285474
 20
157.29729729729732
 11
272.62157543285474
 21
175.94594594594597
  0
LINE
  8
_1-2_
  6
CONTINUOUS
 62
    7
 10
272.62157543285474
 20
175.94594594594597
 11
325.62162657041807
 21
175.94594594594597
  0
LINE
  8
_1-2_
  6
CONTINUOUS
 62
    7
 10
325.62162657041807
 20
157.29729729729732
 11
325.62162657041807
 21
175.94594594594597
  0
LINE
  8
_1-2_
  6
CONTINUOUS
 62
    7
 10
234.32432432432435
 20
142.70270270270271
 11
211.53328560494089
 21
205.32059128220018
  0
LINE
  8
_1-2_
  6
CONTINUOUS
 62
    7
 10
211.53328560494089
 20
205.32059128220018
 11
204.32432432432432
 21
205.32059128220018
  0
LINE
  8
_1-2_
  6
CONTINUOUS
 62
    7
 10
230.09810164168076
 20
70.615675642683698
 11
215.76544684332771
 21
70.615675642683698
  0
LINE
  8
_1-2_
  6
CONTINUOUS
 62
    7
 10
230.09810164168076
 20
78.316807102512669
 11
212.96247327649917
 21
78.316807102512669
  0
LINE
  8
_1-2_
  6
CONTINUOUS
 62
    7
 10
230.09810164168076
 20
86.393614073057435
 11
210.02273971970018
 21
86.393614073057435
  0
LINE
  8
_1-1_
  6
CONTINUOUS
 62
    7
 10
143.62161997202281
 20
126.93116059174409
 11
128.62161997202281
 21
126.93116059174409
  0
LINE
  8
_1-1_
  6
CONTINUOUS
 62
    7
 10
143.62161997202281
 20
132.93115564294763
 11
348.63330737964532
 21
132.93115564294763
  0
LINE
  8
_1-1_
  6
CONTINUOUS
 62
    7
 10
128.62161997202281
 20
132.93115564294763
 11
128.62161997202281
 21
126.93116059174409
  0
LINE
  8
_1-1_
  6
CONTINUOUS
 62
    7
 10
143.62161997202281
 20
132.93115564294763
 11
128.62161997202281
 21
132.93115564294763
  0
LINE
  8
_1-1_
  6
CONTINUOUS
 62
    7
 10
130.62161419842695
 20
138.53377471099029
 11
139.62161914722341
 21
137.14610744167018
  0
LINE
  8
_1-1_
  6
CONTINUOUS
 62
    7
 10
130.62161419842695
 20
138.53377471099029
 11
130.62161419842695
 21
132.93115564294763
  0
LINE
  8
_1-1_
  6
CONTINUOUS
 62
    7
 10
139.62161914722341
 20
137.14610744167018
 11
139.62161914722341
 21
132.93115564294763
  0
LINE
  8
_1-1_
  6
CONTINUOUS
 62
    7
 10
139.95380710911107
 20
133.42702504750847
 11
348.63330737964532
 21
133.42702504750847
  0
LINE
  8
_1-1_
  6
CONTINUOUS
 62
    7
 10
139.95380710911107
 20
134.02702950142526
 11
348.63330737964532
 21
134.02702950142526
  0
LINE
  8
_1-1_
  6
DASHED1
 62
    3
 10
139.95380710911107
 20
133.08694375527872
 11
139.99832153320312
 21
133.08694375527872
  0
LINE
  8
_1-1_
  6
DASHED1
 62
    3
 10
139.99832153320312
 20
133.08694375527872
 11
348.63330737964532
 21
133.08694375527872
  0
LINE
  8
_1-1_
  6
CONTINUOUS
 62
    7
 10
139.98770636481208
 20
133.42702504750847
 11
139.98770636481208
 21
134.02701712943414
  0
LINE
  8
_1-1_
  6
CONTINUOUS
 62
    7
 10
139.98770636481208
 20
134.02701712943414
 11
144.78771725216427
 21
134.02701712943414
  0
LINE
  8
_1-1_
  6
CONTINUOUS
 62
    7
 10
144.78771725216427
 20
134.02701712943414
 11
144.78771725216427
 21
133.42702504750847
  0
LINE
  8
_1-1_
  6
CONTINUOUS
 62
    7
 10
144.78771725216427
 20
133.42702504750847
 11
139.98770636481208
 21
133.42702504750847
  0
LINE
  8
_1-1_
  6
CONTINUOUS
 62
    7
 10
139.98770636481208
 20
134.02701712943414
 11
144.78771725216427
 21
133.42702504750847
  0
LINE
  8
_1-1_
  6
CONTINUOUS
 62
    7
 10
146.62161749762458
 20
132.93115564294763
 11
146.62161749762458
 21
126.93116059174409
  0
LINE
  8
_1-1_
  6
CONTINUOUS
 62
    7
 10
146.62161749762458
 20
126.93116059174409
 11
348.63330737964532
 21
126.93116059174409
  0
LINE
  8
_1-1_
  6
CONTINUOUS
 62
    7
 10
143.62161997202281
 20
126.93116059174409
 11
146.62161749762458
 21
126.93116059174409
  0
LINE
  8
_1-1_
  6
CONTINUOUS
 62
    7
 10
130.62161419842695
 20
132.93115564294763
 11
139.62161914722341
 21
137.14610744167018
  0
LINE
  8
_1-1_
  6
CONTINUOUS
 62
    7
 10
145.03309095228042
 20
126.93116059174409
 11
146.62161749762458
 21
128.51968713708825
  0
LINE
  8
_1-1_
  6
CONTINUOUS
 62
    7
 10
142.77035275021115
 20
126.93116059174409
 11
146.62161749762458
 21
130.78242533915753
  0
LINE
  8
_1-1_
  6
CONTINUOUS
 62
    7
 10
140.5076145481419
 20
126.93116059174409
 11
146.50760959934544
 21
132.93115564294763
  0
LINE
  8
_1-1_
  6
CONTINUOUS
 62
    7
 10
138.24487634607263
 20
126.93116059174409
 11
144.24485902528505
 21
132.93115564294763
  0
LINE
  8
_1-1_
  6
CONTINUOUS
 62
    7
 10
135.98212577201227
 20
126.93116059174409
 11
141.98212082321581
 21
132.93115564294763
  0
LINE
  8
_1-1_
  6
CONTINUOUS
 62
    7
 10
133.71937519795188
 20
126.93116059174409
 11
139.71938262114654
 21
132.93115564294763
  0
LINE
  8
_1-1_
  6
CONTINUOUS
 62
    7
 10
131.4566369958826
 20
126.93116059174409
 11
137.45663204708615
 21
132.93115564294763
  0
LINE
  8
_1-1_
  6
CONTINUOUS
 62
    7
 10
129.19389879381336
 20
126.93116059174409
 11
135.1938938450169
 21
132.93115564294763
  0
LINE
  8
_1-1_
  6
CONTINUOUS
 62
    7
 10
128.62161997202281
 20
128.62161997202281
 11
132.93115564294763
 21
132.93115564294763
  0
LINE
  8
_1-1_
  6
CONTINUOUS
 62
    7
 10
128.62161997202281
 20
130.88435817409206
 11
130.66841744087839
 21
132.93115564294763
  0
LINE
  8
_1-1_
  6
CONTINUOUS
 62
    7
 10
131.62161749762458
 20
102.9311618289432
 11
133.62161172402872
 21
102.9311618289432
  0
LINE
  8
_1-1_
  6
CONTINUOUS
 62
    7
 10
133.62161172402872
 20
102.9311618289432
 11
133.62161172402872
 21
100.9311614165435
  0
LINE
  8
_1-1_
  6
CONTINUOUS
 62
    7
 10
133.62161172402872
 20
100.9311614165435
 11
348.63330737964532
 21
100.9311614165435
  0
LINE
  8
_1-1_
  6
DASHED1
 62
    7
 10
133.62161172402872
 20
102.9311618289432
 11
348.63330737964532
 21
102.9311618289432
  0
LINE
  8
_1-1_
  6
CONTINUOUS
 62
    7
 10
172.77499224688557
 20
126.93116059174409
 11
146.77499307168497
 21
100.9311614165435
  0
LINE
  8
_1-1_
  6
CONTINUOUS
 62
    7
 10
168.24951584274706
 20
126.93116059174409
 11
142.24951666754646
 21
100.9311614165435
  0
LINE
  8
_1-1_
  6
CONTINUOUS
 62
    7
 10
170.5122540448163
 20
126.93116059174409
 11
144.51225486961573
 21
100.9311614165435
  0
LINE
  8
_1-1_
  6
CONTINUOUS
 62
    7
 10
282.75567132073479
 20
126.93116059174409
 11
256.75565977354307
 21
100.9311614165435
  0
LINE
  8
_1-1_
  6
CONTINUOUS
 62
    7
 10
278.23017017261401
 20
126.93116059174409
 11
252.23018336940459
 21
100.9311614165435
  0
LINE
  8
_1-1_
  6
CONTINUOUS
 62
    7
 10
280.49293311866558
 20
126.93116059174409
 11
254.49292157147383
 21
100.9311614165435
  0
LINE
  8
_1-1_
  6
CONTINUOUS
 62
    7
 10
131.62161749762458
 20
126.93116059174409
 11
131.62161749762458
 21
102.9311618289432
  0
LINE
  8
_1-2_
  6
CONTINUOUS
 62
    7
 10
192.21381522513727
 20
135.32323064030828
 11
217.92153848184122
 21
64.691904428842903
  0
LINE
  8
_1-3_
  6
CONTINUOUS
 62
    7
 10
217.92153848184122
 20
64.691904428842903
 11
229.9713134765625
 21
64.691904428842903
  0
LINE
  8
_1-3_
  6
CONTINUOUS
 62
    7
 10
124.82163712785051
 20
81.891891891891902
 11
128.62161997202281
 21
81.891891891891902
  0
LINE
  8
_1-3_
  6
CONTINUOUS
 62
    7
 10
124.82163712785051
 20
97.297297297297305
 11
124.82163712785051
 21
81.891891891891902
  0
LINE
  8
_1-3_
  6
CONTINUOUS
 62
    7
 10
128.62161997202281
 20
97.297297297297305
 11
128.62161997202281
 21
81.891891891891902
  0
LINE
  8
_1-3_
  6
CONTINUOUS
 62
    7
 10
128.62161997202281
 20
81.891891891891902
 11
131.62161749762458
 21
81.891891891891902
  0
LINE
  8
_1-3_
  6
CONTINUOUS
 62
    7
 10
131.62161749762458
 20
97.297297297297305
 11
131.62161749762458
 21
81.891891891891902
  0
LINE
  8
_1-3_
  6
CONTINUOUS
 62
    7
 10
100.54054054054055
 20
76.216216216216225
 11
110.86981696051521
 21
76.216216216216225
  0
LINE
  8
_1-3_
  6
CONTINUOUS
 62
    7
 10
130.5186297442462
 20
130.2008798960093
 11
110.86981696051521
 21
76.216216216216225
  0
LINE
  8
_1-2_
  6
CONTINUOUS
 62
    7
 10
106.04857573638091
 20
176.11264615445523
 11
99.121460785736915
 21
176.11264615445523
  0
LINE
  8
_1-2_
  6
CONTINUOUS
 62
    7
 10
122.05521042282517
 20
132.13477057379646
 11
106.04857573638091
 21
176.11264615445523
  0
LINE
  8
_1-3_
  6
CONTINUOUS
 62
    7
 10
109.86486486486487
 20
184.05640473236909
 11
115.17927839949326
 21
184.05640473236909
  0
LINE
  8
_1-3_
  6
CONTINUOUS
 62
    7
 10
132.37034565693625
 20
136.82432432432432
 11
115.17927839949326
 21
184.05640473236909
  0
LINE
  8
_1-0_
  6
CONTINUOUS
 62
    3
 10
227.62164966480154
 20
146.16986661343961
 11
227.62164966480154
 21
142.98863178974875
  0
LINE
  8
_1-1_
  6
CONTINUOUS
 62
    7
 10
139.95380710911107
 20
136.82703379038219
 11
139.95380710911107
 21
132.93115564294763
  0
LINE
  8
_1-3_
  6
CONTINUOUS
 62
    7
 10
139.95380710911107
 20
136.82703379038219
 11
348.63330737964532
 21
136.82703379038219
  0
ARC
  8
_1-0_
  6
CONTINUOUS
 62
    3
 10
172.19227146457982
 20
146.14034704259925
 40
1.0402513194728542
 50
309.08184814453125
 51
1.6144714355468908
  0
ARC
  8
_1-0_
  6
CONTINUOUS
 62
    3
 10
174.13309045740078
 20
146.60362862251901
 40
3.0627306731971538
 50
42.6905517578125
 51
126.92074584960937
  0
ARC
  8
_1-0_
  6
CONTINUOUS
 62
    3
 10
225.19228548616977
 20
146.14047076251057
 40
1.0402513194728542
 50
309.08184814453125
 51
1.6144714355468908
  0
ARC
  8
_1-0_
  6
CONTINUOUS
 62
    3
 10
203.75429720491977
 20
185.99196562895904
 40
46.274049088761615
 50
233.73811340332031
 51
298.51937866210937
  0
ARC
  8
_1-0_
  6
CONTINUOUS
 62
    3
 10
173.94639711122255
 20
141.67720072978253
 40
4.6263270764737516
 50
47.123046875000007
 51
126.50717163085939
  0
ARC
  8
_1-0_
  6
CONTINUOUS
 62
    3
 10
204.06122156091641
 20
185.43134122281461
 40
48.543530025997683
 50
236.25315856933597
 51
299.03501892089844
  0
ARC
  8
_1-0_
  6
CONTINUOUS
 62
    3
 10
227.13310447899073
 20
146.60362862251901
 40
3.0627306731971538
 50
42.6905517578125
 51
126.92074584960937
  0
ARC
  8
_1-0_
  6
CONTINUOUS
 62
    3
 10
278.19228713576859
 20
146.14047076251057
 40
1.0402513194728542
 50
309.08184814453125
 51
1.6144714355468908
  0
ARC
  8
_1-0_
  6
CONTINUOUS
 62
    3
 10
256.75432359850083
 20
185.99196562895904
 40
46.274049088761615
 50
233.73811340332031
 51
298.51937866210937
  0
ARC
  8
_1-0_
  6
CONTINUOUS
 62
    3
 10
226.94638638883026
 20
141.67720072978253
 40
4.6263270764737516
 50
47.123046875000007
 51
126.50717163085939
  0
ARC
  8
_1-0_
  6
CONTINUOUS
 62
    3
 10
257.06122321051521
 20
185.43134122281461
 40
48.543530025997683
 50
236.25315856933597
 51
299.03501892089844
  0
ARC
  8
_1-0_
  6
CONTINUOUS
 62
    3
 10
146.74984081371412
 20
205.00456114073057
 40
67.991378371779987
 50
251.18492126464844
 51
294.20051574707031
  0
ARC
  8
_1-0_
  6
CONTINUOUS
 62
    3
 10
280.13310612858953
 20
146.60362862251901
 40
3.0627306731971538
 50
42.6905517578125
 51
126.92074584960937
  0
ARC
  8
_1-0_
  6
CONTINUOUS
 62
    3
 10
331.1922887853674
 20
146.14045839051943
 40
1.0402513194728542
 50
309.08184814453125
 51
1.6144714355468908
  0
ARC
  8
_1-0_
  6
CONTINUOUS
 62
    3
 10
309.7543005041174
 20
185.99196562895904
 40
46.274049088761615
 50
233.73811340332031
 51
298.51937866210937
  0
ARC
  8
_1-0_
  6
CONTINUOUS
 62
    3
 10
279.94638803842906
 20
141.67718835779138
 40
4.6263270764737516
 50
47.123046875000007
 51
126.50717163085939
  0
ARC
  8
_1-0_
  6
CONTINUOUS
 62
    3
 10
333.13308303420609
 20
146.60362862251901
 40
3.0627306731971538
 50
42.6905517578125
 51
126.92074584960937
  0
ARC
  8
_1-0_
  6
CONTINUOUS
 62
    3
 10
332.94636494404563
 20
141.67718835779138
 40
4.6263270764737516
 50
47.123046875000007
 51
126.50717163085939
  0
ARC
  8
_1-0_
  6
CONTINUOUS
 62
    3
 10
147.93578276763091
 20
197.40531302787164
 40
57.724895992794558
 50
242.88006591796878
 51
295.56719970703125
  0
ARC
  8
_1-0_
  6
CONTINUOUS
 62
    3
 10
363.06120176573057
 20
185.43134122281461
 40
48.543530025997683
 50
236.25315856933597
 51
252.7095642089844
  0
ARC
  8
_1-0_
  6
CONTINUOUS
 62
    3
 10
362.91390083931589
 20
186.42752157675255
 40
46.719762441274284
 50
233.89616394042969
 51
252.20182800292969
  0
CIRCLE
  8
_1-1_
  6
CONTINUOUS
 62
    7
 10
154.65511012721706
 20
130.06001240498313
 40
0.2379257614548142
  0
CIRCLE
  8
_1-1_
  6
CONTINUOUS
 62
    7
 10
151.19927896035685
 20
130.60566670185813
 40
0.2379257614548142
  0
CIRCLE
  8
_1-1_
  6
CONTINUOUS
 62
    7
 10
152.59373845280828
 20
129.27184233794341
 40
0.2379257614548142
  0
CIRCLE
  8
_1-1_
  6
CONTINUOUS
 62
    7
 10
152.83625422297297
 20
128.72618804106841
 40
0.2379257614548142
  0
CIRCLE
  8
_1-1_
  6
CONTINUOUS
 62
    7
 10
150.0473352380701
 20
128.72618804106841
 40
0.2379257614548142
  0
CIRCLE
  8
_1-1_
  6
CONTINUOUS
 62
    7
 10
148.77413363070102
 20
129.27184233794341
 40
0.2379257614548142
  0
CIRCLE
  8
_1-1_
  6
CONTINUOUS
 62
    7
 10
149.25916517103042
 20
131.03006311365075
 40
0.2379257614548142
  0
CIRCLE
  8
_1-1_
  6
CONTINUOUS
 62
    7
 10
155.56453807933912
 20
130.90880522856841
 40
0.2379257614548142
  0
CIRCLE
  8
_1-1_
  6
CONTINUOUS
 62
    7
 10
159.80853931323904
 20
129.75687387827281
 40
0.2379257614548142
  0
CIRCLE
  8
_1-1_
  6
CONTINUOUS
 62
    7
 10
161.80928823110222
 20
129.02932656777872
 40
0.2379257614548142
  0
CIRCLE
  8
_1-1_
  6
CONTINUOUS
 62
    7
 10
157.44402911211995
 20
128.30177925728464
 40
0.2379257614548142
  0
CIRCLE
  8
_1-1_
  6
CONTINUOUS
 62
    7
 10
161.02110579207138
 20
128.84743355415964
 40
0.2379257614548142
  0
CIRCLE
  8
_1-1_
  6
CONTINUOUS
 62
    7
 10
159.14162713128169
 20
130.60566670185813
 40
0.2379257614548142
  0
CIRCLE
  8
_1-1_
  6
CONTINUOUS
 62
    7
 10
162.71871618322425
 20
131.21195612726984
 40
0.2379257614548142
  0
CIRCLE
  8
_1-1_
  6
CONTINUOUS
 62
    7
 10
166.23517010663008
 20
131.03006311365075
 40
0.2379257614548142
  0
CIRCLE
  8
_1-1_
  6
CONTINUOUS
 62
    7
 10
168.29654178103885
 20
130.12063516152872
 40
0.2379257614548142
  0
CIRCLE
  8
_1-1_
  6
CONTINUOUS
 62
    7
 10
176.27938347893794
 20
129.56246040962839
 40
0.2379257614548142
  0
CIRCLE
  8
_1-1_
  6
CONTINUOUS
 62
    7
 10
184.99169014595651
 20
129.95847547376479
 40
0.2379257614548142
  0
CIRCLE
  8
_1-1_
  6
CONTINUOUS
 62
    7
 10
188.15978591506547
 20
129.16645771748313
 40
0.2379257614548142
  0
CIRCLE
  8
_1-1_
  6
CONTINUOUS
 62
    7
 10
185.38769283810177
 20
129.56246040962839
 40
0.2379257614548142
  0
CIRCLE
  8
_1-1_
  6
CONTINUOUS
 62
    7
 10
194.89202963339318
 20
130.75050560203758
 40
0.2379257614548142
  0
CIRCLE
  8
_1-1_
  6
CONTINUOUS
 62
    7
 10
200.83223085145693
 20
129.56246040962839
 40
0.2379257614548142
  0
CIRCLE
  8
_1-1_
  6
CONTINUOUS
 62
    7
 10
202.81230617213896
 20
127.97840015308277
 40
0.2379257614548142
  0
CIRCLE
  8
_1-1_
  6
CONTINUOUS
 62
    7
 10
166.03959367081927
 20
128.82700739680109
 40
0.2379257614548142
  0
CIRCLE
  8
_1-1_
  6
CONTINUOUS
 62
    7
 10
169.99973194019216
 20
128.1481191274282
 40
0.2379257614548142
  0
CIRCLE
  8
_1-1_
  6
CONTINUOUS
 62
    7
 10
171.92323014542865
 20
127.69553931983742
 40
0.2379257614548142
  0
CIRCLE
  8
_1-1_
  6
CONTINUOUS
 62
    7
 10
175.09133828652872
 20
131.20308540962839
 40
0.2379257614548142
  0
CIRCLE
  8
_1-1_
  6
CONTINUOUS
 62
    7
 10
179.95666091506547
 20
131.08994355072846
 40
0.2379257614548142
  0
CIRCLE
  8
_1-1_
  6
CONTINUOUS
 62
    7
 10
180.29609886375636
 20
129.05330348659206
 40
0.2379257614548142
  0
CIRCLE
  8
_1-1_
  6
CONTINUOUS
 62
    7
 10
174.86504219673776
 20
130.29791342245568
 40
0.2379257614548142
  0
CIRCLE
  8
_1-1_
  6
CONTINUOUS
 62
    7
 10
182.33273892789273
 20
128.1481191274282
 40
0.2379257614548142
  0
CIRCLE
  8
_1-1_
  6
CONTINUOUS
 62
    7
 10
185.8402850176837
 20
130.8636474609375
 40
0.2379257614548142
  0
CIRCLE
  8
_1-1_
  6
CONTINUOUS
 62
    7
 10
190.13986123574747
 20
130.07161733266472
 40
0.2379257614548142
  0
CIRCLE
  8
_1-1_
  6
CONTINUOUS
 62
    7
 10
189.68728142815669
 20
128.48756944811024
 40
0.2379257614548142
  0
CIRCLE
  8
_1-1_
  6
CONTINUOUS
 62
    7
 10
172.37582232501057
 20
130.52420951224664
 40
0.2379257614548142
  0
CIRCLE
  8
_1-1_
  6
CONTINUOUS
 62
    7
 10
198.16529969911318
 20
129.75687387827281
 40
0.2379257614548142
  0
CIRCLE
  8
_1-1_
  6
CONTINUOUS
 62
    7
 10
200.16604861697635
 20
129.02932656777872
 40
0.2379257614548142
  0
CIRCLE
  8
_1-1_
  6
CONTINUOUS
 62
    7
 10
199.37786617794552
 20
128.84743355415964
 40
0.2379257614548142
  0
CIRCLE
  8
_1-1_
  6
CONTINUOUS
 62
    7
 10
197.49838751715583
 20
130.60566670185813
 40
0.2379257614548142
  0
CIRCLE
  8
_1-1_
  6
CONTINUOUS
 62
    7
 10
201.07547656909841
 20
131.21195612726984
 40
0.2379257614548142
  0
CIRCLE
  8
_1-1_
  6
CONTINUOUS
 62
    7
 10
204.59193049250425
 20
131.03006311365075
 40
0.2379257614548142
  0
CIRCLE
  8
_1-1_
  6
CONTINUOUS
 62
    7
 10
206.65330216691302
 20
130.12063516152872
 40
0.2379257614548142
  0
CIRCLE
  8
_1-1_
  6
CONTINUOUS
 62
    7
 10
214.63613149282097
 20
129.56246040962839
 40
0.2379257614548142
  0
CIRCLE
  8
_1-1_
  6
CONTINUOUS
 62
    7
 10
223.34843815983953
 20
129.95847547376479
 40
0.2379257614548142
  0
CIRCLE
  8
_1-1_
  6
CONTINUOUS
 62
    7
 10
226.51655867293076
 20
129.16645771748313
 40
0.2379257614548142
  0
CIRCLE
  8
_1-1_
  6
CONTINUOUS
 62
    7
 10
223.74444085198482
 20
129.56246040962839
 40
0.2379257614548142
  0
CIRCLE
  8
_1-1_
  6
CONTINUOUS
 62
    7
 10
204.39635405669341
 20
128.82700739680109
 40
0.2379257614548142
  0
CIRCLE
  8
_1-1_
  6
CONTINUOUS
 62
    7
 10
208.35650469805745
 20
128.1481191274282
 40
0.2379257614548142
  0
CIRCLE
  8
_1-1_
  6
CONTINUOUS
 62
    7
 10
210.28000290329393
 20
127.69553931983742
 40
0.2379257614548142
  0
CIRCLE
  8
_1-1_
  6
CONTINUOUS
 62
    7
 10
213.44809867240289
 20
131.20308540962839
 40
0.2379257614548142
  0
CIRCLE
  8
_1-1_
  6
CONTINUOUS
 62
    7
 10
218.31343367293076
 20
131.08994355072846
 40
0.2379257614548142
  0
CIRCLE
  8
_1-1_
  6
CONTINUOUS
 62
    7
 10
218.65287162162164
 20
129.05330348659206
 40
0.2379257614548142
  0
CIRCLE
  8
_1-1_
  6
CONTINUOUS
 62
    7
 10
213.22181495460305
 20
130.29791342245568
 40
0.2379257614548142
  0
CIRCLE
  8
_1-1_
  6
CONTINUOUS
 62
    7
 10
220.6894993137669
 20
128.1481191274282
 40
0.2379257614548142
  0
CIRCLE
  8
_1-1_
  6
CONTINUOUS
 62
    7
 10
224.19705777554901
 20
130.8636474609375
 40
0.2379257614548142
  0
CIRCLE
  8
_1-1_
  6
CONTINUOUS
 62
    7
 10
210.73257033889359
 20
130.52420951224664
 40
0.2379257614548142
  0
CIRCLE
  8
_1-1_
  6
CONTINUOUS
 62
    7
 10
232.44877995671453
 20
129.75687387827281
 40
0.2379257614548142
  0
CIRCLE
  8
_1-1_
  6
CONTINUOUS
 62
    7
 10
234.44952887457771
 20
129.02932656777872
 40
0.2379257614548142
  0
CIRCLE
  8
_1-1_
  6
CONTINUOUS
 62
    7
 10
233.66133406355576
 20
128.84743355415964
 40
0.2379257614548142
  0
CIRCLE
  8
_1-1_
  6
CONTINUOUS
 62
    7
 10
231.78188014674834
 20
130.60566670185813
 40
0.2379257614548142
  0
CIRCLE
  8
_1-1_
  6
CONTINUOUS
 62
    7
 10
235.35896919869089
 20
131.21195612726984
 40
0.2379257614548142
  0
CIRCLE
  8
_1-1_
  6
CONTINUOUS
 62
    7
 10
238.8754107501056
 20
131.03006311365075
 40
0.2379257614548142
  0
CIRCLE
  8
_1-1_
  6
CONTINUOUS
 62
    7
 10
240.93678242451438
 20
130.12063516152872
 40
0.2379257614548142
  0
CIRCLE
  8
_1-1_
  6
CONTINUOUS
 62
    7
 10
248.91961175042232
 20
129.56246040962839
 40
0.2379257614548142
  0
CIRCLE
  8
_1-1_
  6
CONTINUOUS
 62
    7
 10
257.63191841744089
 20
129.95847547376479
 40
0.2379257614548142
  0
CIRCLE
  8
_1-1_
  6
CONTINUOUS
 62
    7
 10
260.80003893053208
 20
129.16645771748313
 40
0.2379257614548142
  0
CIRCLE
  8
_1-1_
  6
CONTINUOUS
 62
    7
 10
258.02792110958615
 20
129.56246040962839
 40
0.2379257614548142
  0
CIRCLE
  8
_1-1_
  6
CONTINUOUS
 62
    7
 10
238.67983431429477
 20
128.82700739680109
 40
0.2379257614548142
  0
CIRCLE
  8
_1-1_
  6
CONTINUOUS
 62
    7
 10
242.6399849556588
 20
128.1481191274282
 40
0.2379257614548142
  0
CIRCLE
  8
_1-1_
  6
CONTINUOUS
 62
    7
 10
244.56348316089529
 20
127.69553931983742
 40
0.2379257614548142
  0
CIRCLE
  8
_1-1_
  6
CONTINUOUS
 62
    7
 10
247.73157893000425
 20
131.20308540962839
 40
0.2379257614548142
  0
CIRCLE
  8
_1-1_
  6
CONTINUOUS
 62
    7
 10
252.59691393053211
 20
131.08994355072846
 40
0.2379257614548142
  0
CIRCLE
  8
_1-1_
  6
CONTINUOUS
 62
    7
 10
252.936351879223
 20
129.05330348659206
 40
0.2379257614548142
  0
CIRCLE
  8
_1-1_
  6
CONTINUOUS
 62
    7
 10
247.5052952122044
 20
130.29791342245568
 40
0.2379257614548142
  0
CIRCLE
  8
_1-1_
  6
CONTINUOUS
 62
    7
 10
254.97297957136826
 20
128.1481191274282
 40
0.2379257614548142
  0
CIRCLE
  8
_1-1_
  6
CONTINUOUS
 62
    7
 10
258.48053803315037
 20
130.8636474609375
 40
0.2379257614548142
  0
CIRCLE
  8
_1-1_
  6
CONTINUOUS
 62
    7
 10
245.01605059649495
 20
130.52420951224664
 40
0.2379257614548142
  0
CIRCLE
  8
_1-1_
  6
CONTINUOUS
 62
    7
 10
252.70205111116977
 20
129.75687387827281
 40
0.2379257614548142
  0
CIRCLE
  8
_1-1_
  6
CONTINUOUS
 62
    7
 10
254.70280002903294
 20
129.02932656777872
 40
0.2379257614548142
  0
CIRCLE
  8
_1-1_
  6
CONTINUOUS
 62
    7
 10
253.91462996199326
 20
128.84743355415964
 40
0.2379257614548142
  0
CIRCLE
  8
_1-1_
  6
CONTINUOUS
 62
    7
 10
252.0351265572213
 20
130.60566670185813
 40
0.2379257614548142
  0
CIRCLE
  8
_1-1_
  6
CONTINUOUS
 62
    7
 10
255.61221560916385
 20
131.21195612726984
 40
0.2379257614548142
  0
CIRCLE
  8
_1-1_
  6
CONTINUOUS
 62
    7
 10
259.12868190456084
 20
131.03006311365075
 40
0.2379257614548142
  0
CIRCLE
  8
_1-1_
  6
CONTINUOUS
 62
    7
 10
261.19005357896958
 20
130.12063516152872
 40
0.2379257614548142
  0
CIRCLE
  8
_1-1_
  6
CONTINUOUS
 62
    7
 10
269.17290764885979
 20
129.56246040962839
 40
0.2379257614548142
  0
CIRCLE
  8
_1-1_
  6
CONTINUOUS
 62
    7
 10
277.88521431587839
 20
129.95847547376479
 40
0.2379257614548142
  0
CIRCLE
  8
_1-1_
  6
CONTINUOUS
 62
    7
 10
281.05328534100511
 20
129.16645771748313
 40
0.2379257614548142
  0
CIRCLE
  8
_1-1_
  6
CONTINUOUS
 62
    7
 10
278.28121700802365
 20
129.56246040962839
 40
0.2379257614548142
  0
CIRCLE
  8
_1-1_
  6
CONTINUOUS
 62
    7
 10
258.93310546875
 20
128.82700739680109
 40
0.2379257614548142
  0
CIRCLE
  8
_1-1_
  6
CONTINUOUS
 62
    7
 10
262.89323136613177
 20
128.1481191274282
 40
0.2379257614548142
  0
CIRCLE
  8
_1-1_
  6
CONTINUOUS
 62
    7
 10
264.81672957136828
 20
127.69553931983742
 40
0.2379257614548142
  0
CIRCLE
  8
_1-1_
  6
CONTINUOUS
 62
    7
 10
267.98485008445948
 20
131.20308540962839
 40
0.2379257614548142
  0
CIRCLE
  8
_1-1_
  6
CONTINUOUS
 62
    7
 10
272.85016034100511
 20
131.08994355072846
 40
0.2379257614548142
  0
CIRCLE
  8
_1-1_
  6
CONTINUOUS
 62
    7
 10
273.18959828969594
 20
129.05330348659206
 40
0.2379257614548142
  0
CIRCLE
  8
_1-1_
  6
CONTINUOUS
 62
    7
 10
267.7585416226774
 20
130.29791342245568
 40
0.2379257614548142
  0
CIRCLE
  8
_1-1_
  6
CONTINUOUS
 62
    7
 10
275.22625072582349
 20
128.1481191274282
 40
0.2379257614548142
  0
CIRCLE
  8
_1-1_
  6
CONTINUOUS
 62
    7
 10
278.73378444362334
 20
130.8636474609375
 40
0.2379257614548142
  0
CIRCLE
  8
_1-1_
  6
CONTINUOUS
 62
    7
 10
265.26934649493245
 20
130.52420951224664
 40
0.2379257614548142
  0
CIRCLE
  8
_1-1_
  6
CONTINUOUS
 62
    7
 10
295.92412175358953
 20
129.75687387827281
 40
0.2379257614548142
  0
CIRCLE
  8
_1-1_
  6
CONTINUOUS
 62
    7
 10
297.92487067145271
 20
129.02932656777872
 40
0.2379257614548142
  0
CIRCLE
  8
_1-1_
  6
CONTINUOUS
 62
    7
 10
297.13667586043078
 20
128.84743355415964
 40
0.2379257614548142
  0
CIRCLE
  8
_1-1_
  6
CONTINUOUS
 62
    7
 10
295.25722194362334
 20
130.60566670185813
 40
0.2379257614548142
  0
CIRCLE
  8
_1-1_
  6
CONTINUOUS
 62
    7
 10
298.83431099556589
 20
131.21195612726984
 40
0.2379257614548142
  0
CIRCLE
  8
_1-1_
  6
CONTINUOUS
 62
    7
 10
302.35075254698057
 20
131.03006311365075
 40
0.2379257614548142
  0
CIRCLE
  8
_1-1_
  6
CONTINUOUS
 62
    7
 10
304.41212422138938
 20
130.12063516152872
 40
0.2379257614548142
  0
CIRCLE
  8
_1-1_
  6
CONTINUOUS
 62
    7
 10
312.39495354729729
 20
129.56246040962839
 40
0.2379257614548142
  0
CIRCLE
  8
_1-1_
  6
CONTINUOUS
 62
    7
 10
321.10726021431589
 20
129.95847547376479
 40
0.2379257614548142
  0
CIRCLE
  8
_1-1_
  6
CONTINUOUS
 62
    7
 10
324.27538072740714
 20
129.16645771748313
 40
0.2379257614548142
  0
CIRCLE
  8
_1-1_
  6
CONTINUOUS
 62
    7
 10
321.50326290646115
 20
129.56246040962839
 40
0.2379257614548142
  0
CIRCLE
  8
_1-1_
  6
CONTINUOUS
 62
    7
 10
302.15517611116979
 20
128.82700739680109
 40
0.2379257614548142
  0
CIRCLE
  8
_1-1_
  6
CONTINUOUS
 62
    7
 10
306.1153267525338
 20
128.1481191274282
 40
0.2379257614548142
  0
CIRCLE
  8
_1-1_
  6
CONTINUOUS
 62
    7
 10
308.03882495777026
 20
127.69553931983742
 40
0.2379257614548142
  0
CIRCLE
  8
_1-1_
  6
CONTINUOUS
 62
    7
 10
311.20692072687922
 20
131.20308540962839
 40
0.2379257614548142
  0
CIRCLE
  8
_1-1_
  6
CONTINUOUS
 62
    7
 10
316.07225572740714
 20
131.08994355072846
 40
0.2379257614548142
  0
CIRCLE
  8
_1-1_
  6
CONTINUOUS
 62
    7
 10
316.41169367609797
 20
129.05330348659206
 40
0.2379257614548142
  0
CIRCLE
  8
_1-1_
  6
CONTINUOUS
 62
    7
 10
310.98063700907943
 20
130.29791342245568
 40
0.2379257614548142
  0
CIRCLE
  8
_1-1_
  6
CONTINUOUS
 62
    7
 10
318.44832136824328
 20
128.1481191274282
 40
0.2379257614548142
  0
CIRCLE
  8
_1-1_
  6
CONTINUOUS
 62
    7
 10
321.95587983002537
 20
130.8636474609375
 40
0.2379257614548142
  0
CIRCLE
  8
_1-1_
  6
CONTINUOUS
 62
    7
 10
308.49139239336995
 20
130.52420951224664
 40
0.2379257614548142
  0
CIRCLE
  8
_1-1_
  6
CONTINUOUS
 62
    7
 10
276.01028854782521
 20
129.75687387827281
 40
0.2379257614548142
  0
CIRCLE
  8
_1-1_
  6
CONTINUOUS
 62
    7
 10
278.01103746568833
 20
129.02932656777872
 40
0.2379257614548142
  0
CIRCLE
  8
_1-1_
  6
CONTINUOUS
 62
    7
 10
277.22286739864865
 20
128.84743355415964
 40
0.2379257614548142
  0
CIRCLE
  8
_1-1_
  6
CONTINUOUS
 62
    7
 10
275.34336399387672
 20
130.60566670185813
 40
0.2379257614548142
  0
CIRCLE
  8
_1-1_
  6
CONTINUOUS
 62
    7
 10
278.92045304581927
 20
131.21195612726984
 40
0.2379257614548142
  0
CIRCLE
  8
_1-1_
  6
CONTINUOUS
 62
    7
 10
282.43691934121625
 20
131.03006311365075
 40
0.2379257614548142
  0
CIRCLE
  8
_1-1_
  6
CONTINUOUS
 62
    7
 10
284.498291015625
 20
130.12063516152872
 40
0.2379257614548142
  0
CIRCLE
  8
_1-1_
  6
CONTINUOUS
 62
    7
 10
292.48114508551521
 20
129.56246040962839
 40
0.2379257614548142
  0
CIRCLE
  8
_1-1_
  6
CONTINUOUS
 62
    7
 10
301.1934517525338
 20
129.95847547376479
 40
0.2379257614548142
  0
CIRCLE
  8
_1-1_
  6
CONTINUOUS
 62
    7
 10
304.36152277766047
 20
129.16645771748313
 40
0.2379257614548142
  0
CIRCLE
  8
_1-1_
  6
CONTINUOUS
 62
    7
 10
301.58945444467906
 20
129.56246040962839
 40
0.2379257614548142
  0
CIRCLE
  8
_1-1_
  6
CONTINUOUS
 62
    7
 10
282.24134290540542
 20
128.82700739680109
 40
0.2379257614548142
  0
CIRCLE
  8
_1-1_
  6
CONTINUOUS
 62
    7
 10
286.20146880278719
 20
128.1481191274282
 40
0.2379257614548142
  0
CIRCLE
  8
_1-1_
  6
CONTINUOUS
 62
    7
 10
288.12496700802365
 20
127.69553931983742
 40
0.2379257614548142
  0
CIRCLE
  8
_1-1_
  6
CONTINUOUS
 62
    7
 10
291.2930875211149
 20
131.20308540962839
 40
0.2379257614548142
  0
CIRCLE
  8
_1-1_
  6
CONTINUOUS
 62
    7
 10
296.15839777766047
 20
131.08994355072846
 40
0.2379257614548142
  0
CIRCLE
  8
_1-1_
  6
CONTINUOUS
 62
    7
 10
296.49783572635135
 20
129.05330348659206
 40
0.2379257614548142
  0
CIRCLE
  8
_1-1_
  6
CONTINUOUS
 62
    7
 10
291.06677905933276
 20
130.29791342245568
 40
0.2379257614548142
  0
CIRCLE
  8
_1-1_
  6
CONTINUOUS
 62
    7
 10
298.53448816247891
 20
128.1481191274282
 40
0.2379257614548142
  0
CIRCLE
  8
_1-1_
  6
CONTINUOUS
 62
    7
 10
302.04202188027875
 20
130.8636474609375
 40
0.2379257614548142
  0
CIRCLE
  8
_1-1_
  6
CONTINUOUS
 62
    7
 10
288.57758393158787
 20
130.52420951224664
 40
0.2379257614548142
  0
CIRCLE
  8
_1-1_
  6
CONTINUOUS
 62
    7
 10
317.19573149809969
 20
129.75687387827281
 40
0.2379257614548142
  0
CIRCLE
  8
_1-1_
  6
CONTINUOUS
 62
    7
 10
319.19648041596287
 20
129.02932656777872
 40
0.2379257614548142
  0
CIRCLE
  8
_1-1_
  6
CONTINUOUS
 62
    7
 10
318.40828560494089
 20
128.84743355415964
 40
0.2379257614548142
  0
CIRCLE
  8
_1-1_
  6
CONTINUOUS
 62
    7
 10
316.52883168813344
 20
130.60566670185813
 40
0.2379257614548142
  0
CIRCLE
  8
_1-1_
  6
CONTINUOUS
 62
    7
 10
320.10592074007604
 20
131.21195612726984
 40
0.2379257614548142
  0
CIRCLE
  8
_1-1_
  6
CONTINUOUS
 62
    7
 10
323.62236229149073
 20
131.03006311365075
 40
0.2379257614548142
  0
CIRCLE
  8
_1-1_
  6
CONTINUOUS
 62
    7
 10
325.68373396589953
 20
130.12063516152872
 40
0.2379257614548142
  0
CIRCLE
  8
_1-1_
  6
CONTINUOUS
 62
    7
 10
333.66656329180745
 20
129.56246040962839
 40
0.2379257614548142
  0
CIRCLE
  8
_1-1_
  6
CONTINUOUS
 62
    7
 10
342.37886995882604
 20
129.95847547376479
 40
0.2379257614548142
  0
CIRCLE
  8
_1-1_
  6
CONTINUOUS
 62
    7
 10
345.54699047191724
 20
129.16645771748313
 40
0.2379257614548142
  0
CIRCLE
  8
_1-1_
  6
CONTINUOUS
 62
    7
 10
342.7748726509713
 20
129.56246040962839
 40
0.2379257614548142
  0
CIRCLE
  8
_1-1_
  6
CONTINUOUS
 62
    7
 10
323.4267858556799
 20
128.82700739680109
 40
0.2379257614548142
  0
CIRCLE
  8
_1-1_
  6
CONTINUOUS
 62
    7
 10
327.38693649704396
 20
128.1481191274282
 40
0.2379257614548142
  0
CIRCLE
  8
_1-1_
  6
CONTINUOUS
 62
    7
 10
329.31043470228042
 20
127.69553931983742
 40
0.2379257614548142
  0
CIRCLE
  8
_1-1_
  6
CONTINUOUS
 62
    7
 10
332.47853047138938
 20
131.20308540962839
 40
0.2379257614548142
  0
CIRCLE
  8
_1-1_
  6
CONTINUOUS
 62
    7
 10
337.34386547191724
 20
131.08994355072846
 40
0.2379257614548142
  0
CIRCLE
  8
_1-1_
  6
CONTINUOUS
 62
    7
 10
337.68330342060813
 20
129.05330348659206
 40
0.2379257614548142
  0
CIRCLE
  8
_1-1_
  6
CONTINUOUS
 62
    7
 10
332.25224675358953
 20
130.29791342245568
 40
0.2379257614548142
  0
CIRCLE
  8
_1-1_
  6
CONTINUOUS
 62
    7
 10
339.71993111275339
 20
128.1481191274282
 40
0.2379257614548142
  0
CIRCLE
  8
_1-1_
  6
CONTINUOUS
 62
    7
 10
343.22748957453547
 20
130.8636474609375
 40
0.2379257614548142
  0
CIRCLE
  8
_1-1_
  6
CONTINUOUS
 62
    7
 10
329.76300213788011
 20
130.52420951224664
 40
0.2379257614548142
  0
ARC
  8
_1-0_
  6
CONTINUOUS
 62
    3
 10
310.06122486011401
 20
185.43134122281461
 40
48.543530025997683
 50
236.25315856933597
 51
265.65965270996094
  0
ARC
  8
_1-0_
  6
CONTINUOUS
 62
    3
 10
310.06122486011401
 20
185.43134122281461
 40
48.543530025997683
 50
274.34034729003906
 51
299.03501892089844
  0
ARC
  8
_1-3_
  6
CONTINUOUS
 62
    3
 10
310.06122486011401
 20
186.82368510478253
 40
49.932001474741348
 50
265.78057861328125
 51
274.21942138671875
  0
TEXT
  8
_0-0_
 62
    7
 10
141.89189395389042
 20
14.594594594594582
 40
2.5
 41
1
 50
0
  1
縮尺
  0
TEXT
  8
_0-0_
 62
    7
 10
377.10214563318203
 20
22.865493362014362
 40
2.5
 41
1
 50
0
  1
ＮＯ
  0
TEXT
  8
_0-0_
 62
    7
 10
14.594594336844779
 20
24.324324324324323
 40
2.5
 41
1
 50
0
  1
和形
  0
TEXT
  8
_0-0_
 62
    7
 10
383.23801896378802
 20
18.523427086907475
 40
3
 41
1
 50
0
  1
Ｊ
  0
TEXT
  8
_1-0_
 62
    7
 10
169.90681828679266
 20
13.3181144095756
 40
2.5
 41
1
 50
0
  1
1/5
  0
TEXT
  8
_1-2_
 62
    7
 10
142.24662162162164
 20
176.44594759554477
 40
2.5
 41
1
 50
0
  1
225
  0
TEXT
  8
_1-2_
 62
    7
 10
191.24659770243878
 20
176.44594759554477
 40
2.5
 41
1
 50
0
  1
265
  0
TEXT
  8
_1-2_
 62
    7
 10
244.24656223606419
 20
176.44594759554477
 40
2.5
 41
1
 50
0
  1
265
  0
TEXT
  8
_1-2_
 62
    7
 10
297.24658862964526
 20
176.44594759554477
 40
2.5
 41
1
 50
0
  1
265
  0
TEXT
  8
_1-2_
 62
    7
 10
198.34498018831823
 20
204.1302201554582
 40
2.5
 41
1
 50
0
  1
桟瓦
  0
TEXT
  8
_1-2_
 62
    7
 10
90.512472616659636
 20
174.97504156989021
 40
2.5
 41
1
 50
0
  1
左袖瓦
  0
TEXT
  8
_1-2_
 62
    7
 10
233.7874252731736
 20
85.031049573743672
 40
2.5
 41
1
 50
0
  1
瓦桟
  0
TEXT
  8
_1-1_
 62
    7
 10
25.556194717819636
 20
20.211577544341225
 40
2.5
 41
1
 50
0
  1
ＲＣ
  0
TEXT
  8
_1-1_
 62
    7
 10
39.721903414339636
 20
15.395235628695104
 40
2.5
 41
1
 50
0
  1
袖　　1
  0
TEXT
  8
_1-3_
 62
    7
 10
128.8716187348237
 20
82.391893541490717
 40
2.5
 41
1
 50
0
  1
15
  0
TEXT
  8
_1-3_
 62
    7
 10
64.667640892234999
 20
74.510854772619297
 40
2.5
 41
1
 50
0
  1
登り淀　30ｘ90
  0
TEXT
  8
_1-3_
 62
    7
 10
84.277366431983751
 20
74.374676266232058
 40
2.5
 41
1
 50
0
  1
（防腐処理）
  0
TEXT
  8
_1-3_
 62
    7
 10
71.448396218789583
 20
182.93176599451016
 40
2.5
 41
1
 50
0
  1
瓦座
  0
TEXT
  8
_1-3_
 62
    7
 10
81.254828169539167
 20
182.47392809068836
 40
2.5
 41
1
 50
0
  1
30ｘ45　（防腐処理）
  0
TEXT
  8
_1-3_
 62
    7
 10
233.78743352116766
 20
62.531829009184975
 40
2.5
 41
1
 50
0
  1
パーライト系モルタル
  0
POINT
  8
_1-2_
 62
    7
 10
121.62162162162163
 20
175.94594594594597
  0
POINT
  8
_1-2_
 62
    7
 10
166.62162162162164
 20
175.94594594594597
  0
POINT
  8
_1-2_
 62
    7
 10
219.62157378325591
 20
175.94594594594597
  0
POINT
  8
_1-2_
 62
    7
 10
272.62157543285474
 20
175.94594594594597
  0
POINT
  8
_1-2_
 62
    7
 10
325.62162657041807
 20
175.94594594594597
  0
POINT
  8
_1-3_
 62
    7
 10
124.82163712785051
 20
81.891891891891902
  0
POINT
  8
_1-3_
 62
    7
 10
128.62161997202281
 20
81.891891891891902
  0
POINT
  8
_1-3_
 62
    7
 10
131.62161749762458
 20
81.891891891891902
  0
TEXT
  8
_1-1_
 62
    7
 10
393.28205071414533
 20
14.946881376297398
 40
2.5
 41
1
 50
0
  1
19
  0
TEXT
  8
_1-3_
 62
    7
 10
244.66443891351352
 20
81.640301383440232
 40
2.5
 41
1
 50
0
  1
※　地域により瓦桟木の大きさは、異なります
  0
LINE
  8
_1-3_
  6
CONTINUOUS
 62
    7
 10
126.43598716504107
 20
81.544952810208173
 11
131.98684389024393
 21
64.229593771888787
  0
LINE
  8
_1-3_
  6
CONTINUOUS
 62
    7
 10
126.43598716504107
 20
81.544952810208173
 11
129.66708287075616
 21
76.988279379071486
  0
LINE
  8
_1-3_
  6
CONTINUOUS
 62
    7
 10
131.98684389024393
 20
64.229593771888787
 11
137.53770061544679
 21
64.229593771888787
  0
LINE
  8
_1-3_
  6
CONTINUOUS
 62
    7
 10
129.66708287075616
 20
76.988279379071486
 11
127.8967389348313
 21
76.988279379071486
  0
TEXT
  8
_1-3_
 62
    7
 10
137.78624643896336
 20
63.152561869983742
 40
2.5
 41
1
 50
0
  1
仕上げ材に依る
  0
TEXT
  8
_1-3_
 62
    7
 10
244.47041691960516
 20
85.031049573743672
 40
2.5
 41
1
 50
0
  1
15×21　以上　（防腐処理）
  0
TEXT
  8
_1-2_
 62
    7
 10
233.7874252731736
 20
77.031047924144858
 40
2.5
 41
1
 50
0
  1
縦桟
  0
TEXT
  8
_1-3_
 62
    7
 10
233.78742527317357
 20
69.031046274546028
 40
2.5
 41
1
 50
0
  1
ルーフィング
  0
ENDSEC
  0
EOF
