  0
SECTION
  2
HEADER
  9
$ACADVER
  1
AC1009
  9
$INSBASE
 10
0
 20
0
 30
0
  9
$EXTMIN
 10
0
 20
0
  9
$EXTMAX
 10
420
 20
297
  9
$LIMMIN
 10
0
 20
0
  9
$LIMMAX
 10
420
 20
297
  9
$LTSCALE
 40
1
  0
ENDSEC
  0
SECTION
  2
TABLES
  0
TABLE
  2
LTYPE
 70
     9
  0
LTYPE
  2
CONTINUOUS
 70
    64
  3
実線
 72
    65
 73
     0
 40
0.0
  0
LTYPE
  2
DASHED1
 70
    64
  3
--  --  --  --  --  --  --  --  
 72
    65
 73
     2
 40
2.5
 49
1.25
 49
-1.25
  0
LTYPE
  2
DASHED2
 70
    64
  3
----    ----    ----    ----    
 72
    65
 73
     2
 40
5.0
 49
2.5
 49
-2.5
  0
LTYPE
  2
DASHED3
 70
    64
  3
------  ------  ------  ------  
 72
    65
 73
     2
 40
5.0
 49
3.75
 49
-1.25
  0
LTYPE
  2
CENTER1
 70
    64
  3
----- - ----- - ----- - ----- - 
 72
    65
 73
     4
 40
10.0
 49
6.25
 49
-1.25
 49
1.25
 49
-1.25
  0
LTYPE
  2
CENTER2
 70
    64
  3
----------  --  ----------  --  
 72
    65
 73
     4
 40
20.0
 49
12.5
 49
-2.5
 49
2.5
 49
-2.5
  0
LTYPE
  2
PHANTOM1
 70
    64
  3
--- - - --- - - --- - - --- - - 
 72
    65
 73
     6
 40
10.0
 49
3.25
 49
-1.25
 49
1.25
 49
-1.25
 49
1.25
 49
-1.25
  0
LTYPE
  2
PHANTOM2
 70
    64
  3
--------  -  -  --------  -  -  
 72
    65
 73
     6
 40
20.0
 49
10.0
 49
-2.5
 49
1.25
 49
-2.5
 49
1.25
 49
-2.5
  0
LTYPE
  2
DOT
 70
    64
  3
-   -   -   -   -   -   -   -   
 72
    65
 73
     2
 40
2.5
 49
0.625
 49
-1.875
  0
LTYPE
  2
DUMMY
 70
    64
  3
ダミー
 72
    65
 73
     0
 40
0.0
  0
LTYPE
  2
RAND1
 70
    64
  3
ランダム線1
 72
    65
 73
     4
 40
10.0
 49
1.0
 49
-2.0
 49
3.0
 49
-4.0
  0
LTYPE
  2
RAND2
 70
    64
  3
ランダム線2
 72
    65
 73
     4
 40
14.0
 49
2.0
 49
-3.0
 49
4.0
 49
-5.0
  0
LTYPE
  2
RAND3
 70
    64
  3
ランダム線3
 72
    65
 73
     4
 40
18.0
 49
3.0
 49
-4.0
 49
5.0
 49
-6.0
  0
LTYPE
  2
RAND4
 70
    64
  3
ランダム線4
 72
    65
 73
     4
 40
22.0
 49
4.0
 49
-5.0
 49
6.0
 49
-7.0
  0
LTYPE
  2
RAND5
 70
    64
  3
ランダム線5
 72
    65
 73
     4
 40
26.0
 49
5.0
 49
-6.0
 49
7.0
 49
-8.0
  0
LTYPE
  2
LONG1
 70
    64
  3
----------  --  ----------  --  
 72
    65
 73
     4
 40
40.0
 49
32.5
 49
-2.5
 49
2.5
 49
-2.5
  0
LTYPE
  2
LONG2
 70
    64
  3
--------  -  -  --------  -  -  
 72
    65
 73
     6
 40
40.0
 49
30.0
 49
-2.5
 49
1.25
 49
-2.5
 49
1.25
 49
-2.5
  0
LTYPE
  2
LONG3
 70
    64
  3
+++++++++++++++..+++++++++++++++
 72
    65
 73
     2
 40
40.0
 49
37.5
 49
-2.5
  0
LTYPE
  2
LONG4
 70
    64
  3
+++++++++++++++..+++++++++++++++
 72
    65
 73
     2
 40
80.0
 49
75.0
 49
-5.0
  0
LTYPE
  2
LONG5
 70
    64
  3
----------  --  ----------  --  
 72
    65
 73
     4
 40
60.0
 49
37.5
 49
-7.5
 49
7.5
 49
-7.5
  0
LTYPE
  2
dashed
 70
   64
  3
-------   -------------   ------
 72
   65
 73
    2
 40
7.5
 49
6
 49
-1.5
  0
LTYPE
  2
dashed_spaced
 70
   64
  3
----        --------        ----
 72
   65
 73
    2
 40
12
 49
6
 49
-6
  0
LTYPE
  2
long_dashed_dotted
 70
   64
  3
------------- --- --------------
 72
   65
 73
    4
 40
15.25
 49
12
 49
-1.5
 49
0.25
 49
-1.5
  0
LTYPE
  2
long_dashed_double-dotted
 70
   64
  3
----------- --- --- ------------
 72
   65
 73
    6
 40
17
 49
12
 49
-1.5
 49
0.25
 49
-1.5
 49
0.25
 49
-1.5
  0
LTYPE
  2
long_dashed_triplicate-dotted
 70
   64
  3
--------- --- --- --- ----------
 72
   65
 73
    8
 40
18.75
 49
12
 49
-1.5
 49
0.25
 49
-1.5
 49
0.25
 49
-1.5
 49
0.25
 49
-1.5
  0
LTYPE
  2
dotted
 70
   64
  3
   -       -       -       -    
 72
   65
 73
    2
 40
1.75
 49
0.25
 49
-1.5
  0
LTYPE
  2
chain
 70
   64
  3
-------------- -- --------------
 72
   65
 73
    4
 40
18.5
 49
12
 49
-1.5
 49
3.5
 49
-1.5
  0
LTYPE
  2
chain_double_dash
 70
   64
  3
------------ -- -- -------------
 72
   65
 73
    6
 40
23.5
 49
12
 49
-1.5
 49
3.5
 49
-1.5
 49
3.5
 49
-1.5
  0
LTYPE
  2
dashed_dotted
 70
   64
  3
-----------     -     ----------
 72
   65
 73
    4
 40
9.25
 49
6
 49
-1.5
 49
0.25
 49
-1.5
  0
LTYPE
  2
double-dashed_dotted
 70
   64
  3
------   -----------   -   -----
 72
   65
 73
    6
 40
16.75
 49
6
 49
-1.5
 49
6
 49
-1.5
 49
0.25
 49
-1.5
  0
LTYPE
  2
dashed_double-dotted
 70
   64
  3
---------    -    -    ---------
 72
   65
 73
    6
 40
11
 49
6
 49
-1.5
 49
0.25
 49
-1.5
 49
0.25
 49
-1.5
  0
LTYPE
  2
double-dashed_double-dotted
 70
   64
  3
-----   ---------   -   -   ----
 72
   65
 73
    8
 40
18.5
 49
6
 49
-1.5
 49
6
 49
-1.5
 49
0.25
 49
-1.5
 49
0.25
 49
-1.5
  0
LTYPE
  2
dashed_triplicate-dotted
 70
   64
  3
-------    -    -    -    ------
 72
   65
 73
    8
 40
12.75
 49
6
 49
-1.5
 49
0.25
 49
-1.5
 49
0.25
 49
-1.5
 49
0.25
 49
-1.5
  0
LTYPE
  2
double-dashed_triplicate-dotted
 70
   64
  3
-----  ---------  -  -  -  -----
 72
   65
 73
   10
 40
20.25
 49
6
 49
-1.5
 49
6
 49
-1.5
 49
0.25
 49
-1.5
 49
0.25
 49
-1.5
 49
0.25
 49
-1.5
  0
LTYPE
  2
undefined
 70
   64
  3
--------------------------------
 72
   65
 73
    0
 40
0
  0
ENDTAB
  0
TABLE
  2
STYLE
  5
3
100
AcDbSymbolTable
 70
     1
  0
STYLE
  5
10
100
AcDbSymbolTableRecord
100
AcDbTextStyleTableRecord
  2
STANDARD
 70
     0
 40
0.0
 41
1.0
 50
0.0
 71
     0
 42
0.2
  3
txt
  4
bigfont.shx
  0
STYLE
  5
26
100
AcDbSymbolTableRecord
100
AcDbTextStyleTableRecord
  2
TATEGAKI
 70
    68
 40
0.0
 41
1.0
 50
0.0
 71
     0
 42
1.0
  3
txt
  4
bigfont.shx
  0
ENDTAB
  0
TABLE
  2
LAYER
 70
    9
  0
LAYER
  2
_0-0_
 70
   64
 62
    7
  6
CONTINUOUS
  0
LAYER
  2
_1-0_
 70
   64
 62
    7
  6
CONTINUOUS
  0
LAYER
  2
_1-1_
 70
   64
 62
    7
  6
CONTINUOUS
  0
LAYER
  2
_1-2_
 70
   64
 62
    7
  6
CONTINUOUS
  0
LAYER
  2
_1-3_
 70
   64
 62
    7
  6
CONTINUOUS
  0
LAYER
  2
_1-5_
 70
   64
 62
    7
  6
CONTINUOUS
  0
LAYER
  2
_1-b_
 70
   64
 62
    7
  6
CONTINUOUS
  0
LAYER
  2
_1-c_
 70
   64
 62
    7
  6
CONTINUOUS
  0
LAYER
  2
ADD_LINE
 70
   64
 62
    7
  6
CONTINUOUS
  0
ENDTAB
  0
ENDSEC
  0
SECTION
  2
BLOCKS
  0
ENDSEC
  0
SECTION
  2
ENTITIES
  0
LINE
  8
_0-0_
  6
CONTINUOUS
 62
    5
 10
6.7567526327597136
 20
280.13513513513516
 11
406.75677325274495
 21
280.13513513513516
  0
LINE
  8
_0-0_
  6
CONTINUOUS
 62
    5
 10
406.75677325274495
 20
10.13513513513513
 11
6.7567526327597136
 21
10.13513513513513
  0
LINE
  8
_0-0_
  6
CONTINUOUS
 62
    5
 10
406.75677325274495
 20
30.135133073136615
 11
6.7567402607685949
 21
30.135133073136615
  0
LINE
  8
_0-0_
  6
CONTINUOUS
 62
    5
 10
371.75678150073907
 20
10.13513513513513
 11
371.75678150073907
 21
30.135133073136615
  0
LINE
  8
_0-0_
  6
CONTINUOUS
 62
    5
 10
137.02703939901818
 20
30.135133073136615
 11
137.02703939901818
 21
10.13513513513513
  0
LINE
  8
_0-0_
  6
CONTINUOUS
 62
    5
 10
214.86486486486487
 20
30.135133073136615
 11
214.86486486486487
 21
10.13513513513513
  0
LINE
  8
_0-0_
  6
CONTINUOUS
 62
    5
 10
137.02703939901818
 20
20.135134104135886
 11
214.86486486486487
 21
20.135134104135886
  0
LINE
  8
_0-0_
  6
CONTINUOUS
 62
    5
 10
396.48648648648651
 20
25.945945945945951
 11
383.91891891891896
 21
13.378379924877265
  0
LINE
  8
_1-1_
  6
CONTINUOUS
 62
    7
 10
263.76414530986068
 20
159.16460191881336
 11
262.53303321632183
 21
161.90037082981419
  0
LINE
  8
_1-1_
  6
CONTINUOUS
 62
    7
 10
262.53303321632183
 20
161.90037082981419
 11
266.91026842271958
 21
163.87012790989232
  0
LINE
  8
_1-1_
  6
CONTINUOUS
 62
    7
 10
266.91026842271958
 20
163.87012790989232
 11
268.1413557722762
 21
161.13435899889149
  0
LINE
  8
_1-1_
  6
CONTINUOUS
 62
    7
 10
268.1413557722762
 20
161.13435899889149
 11
263.76414530986068
 21
159.16460191881336
  0
LINE
  8
_1-1_
  6
CONTINUOUS
 62
    7
 10
306.62445893158787
 20
178.45174428578972
 11
305.39334683804901
 21
181.18751319679055
  0
LINE
  8
_1-1_
  6
CONTINUOUS
 62
    7
 10
305.39334683804901
 20
181.18751319679055
 11
309.77058204444683
 21
183.15727027686867
  0
LINE
  8
_1-1_
  6
CONTINUOUS
 62
    7
 10
309.77058204444683
 20
183.15727027686867
 11
311.00166939400339
 21
180.42150136586784
  0
LINE
  8
_1-1_
  6
CONTINUOUS
 62
    7
 10
311.00166939400339
 20
180.42150136586784
 11
306.62445893158787
 21
178.45174428578972
  0
LINE
  8
_1-1_
  6
CONTINUOUS
 62
    7
 10
349.48477255331505
 20
197.73891139674834
 11
348.2536604597762
 21
200.4746555637669
  0
LINE
  8
_1-1_
  6
CONTINUOUS
 62
    7
 10
352.63089566617401
 20
202.44442501583617
 11
353.86198301573057
 21
199.70865610483531
  0
LINE
  8
_1-1_
  6
CONTINUOUS
 62
    7
 10
353.86198301573057
 20
199.70865610483531
 11
349.48477255331505
 21
197.73891139674834
  0
LINE
  8
_1-1_
  6
CONTINUOUS
 62
    7
 10
348.2536604597762
 20
200.4746555637669
 11
353.86200775971287
 21
199.70863136085305
  0
LINE
  8
_1-1_
  6
CONTINUOUS
 62
    7
 10
305.39334683804901
 20
181.18751319679055
 11
311.00166939400339
 21
180.42150136586784
  0
LINE
  8
_1-1_
  6
CONTINUOUS
 62
    7
 10
262.53303321632183
 20
161.90037082981419
 11
268.1413557722762
 21
161.13435899889149
  0
LINE
  8
_1-1_
  6
CONTINUOUS
 62
    7
 10
263.76414530986068
 20
159.16460191881336
 11
262.53305796030406
 21
161.90037082981419
  0
LINE
  8
_1-1_
  6
CONTINUOUS
 62
    7
 10
262.53305796030406
 20
161.90037082981419
 11
266.91026842271958
 21
163.87012790989232
  0
LINE
  8
_1-1_
  6
CONTINUOUS
 62
    7
 10
266.91026842271958
 20
163.87012790989232
 11
268.14138051625844
 21
161.13435899889149
  0
LINE
  8
_1-1_
  6
CONTINUOUS
 62
    7
 10
268.14138051625844
 20
161.13435899889149
 11
263.76414530986068
 21
159.16460191881336
  0
LINE
  8
_1-1_
  6
CONTINUOUS
 62
    7
 10
262.53305796030406
 20
161.90037082981419
 11
268.14138051625844
 21
161.13435899889149
  0
LINE
  8
_1-b_
  6
CONTINUOUS
 62
    3
 10
267.77895540804479
 20
162.0876456595756
 11
269.46815284522808
 21
162.70938770191091
  0
LINE
  8
_1-b_
  6
CONTINUOUS
 62
    3
 10
267.08812816722974
 20
163.96453857421875
 11
267.77895540804479
 21
162.0876456595756
  0
LINE
  8
_1-b_
  6
CONTINUOUS
 62
    3
 10
212.11026578336148
 20
146.71242791253169
 11
266.30864323796453
 21
166.66128622519005
  0
LINE
  8
_1-1_
  6
CONTINUOUS
 62
    7
 10
262.53305796030406
 20
161.90038320180534
 11
266.91026842271958
 21
163.87014028188347
  0
LINE
  8
_1-1_
  6
CONTINUOUS
 62
    7
 10
306.62445893158787
 20
178.45174428578972
 11
305.39334683804901
 21
181.18751319679055
  0
LINE
  8
_1-1_
  6
CONTINUOUS
 62
    7
 10
305.39334683804901
 20
181.18751319679055
 11
309.77058204444683
 21
183.15727027686867
  0
LINE
  8
_1-1_
  6
CONTINUOUS
 62
    7
 10
309.77058204444683
 20
183.15727027686867
 11
311.00166939400339
 21
180.42150136586784
  0
LINE
  8
_1-1_
  6
CONTINUOUS
 62
    7
 10
311.00166939400339
 20
180.42150136586784
 11
306.62445893158787
 21
178.45174428578972
  0
LINE
  8
_1-1_
  6
CONTINUOUS
 62
    7
 10
305.39334683804901
 20
181.18751319679055
 11
311.00166939400339
 21
180.42150136586784
  0
LINE
  8
_1-b_
  6
CONTINUOUS
 62
    3
 10
254.25429060652451
 20
162.75228139516472
 11
309.94841704497469
 21
183.2516809411951
  0
LINE
  8
_1-b_
  6
CONTINUOUS
 62
    3
 10
310.63926902977198
 20
181.37478802655195
 11
312.3284912109375
 21
181.99653006888727
  0
LINE
  8
_1-b_
  6
CONTINUOUS
 62
    3
 10
309.94841704497469
 20
183.2516809411951
 11
310.63926902977198
 21
181.37478802655195
  0
LINE
  8
_1-b_
  6
CONTINUOUS
 62
    3
 10
254.9705794050887
 20
165.99957027950802
 11
309.16895685969172
 21
185.94842859216641
  0
LINE
  8
_1-b_
  6
CONTINUOUS
 62
    3
 10
254.02172191722974
 20
163.94537435995568
 11
254.43905392208617
 21
162.81153086069469
  0
LINE
  8
_1-1_
  6
CONTINUOUS
 62
    7
 10
305.39334683804901
 20
181.18751319679055
 11
309.77058204444683
 21
183.15727027686867
  0
LINE
  8
_1-1_
  6
CONTINUOUS
 62
    7
 10
309.77058204444683
 20
183.15727027686867
 11
311.00166939400339
 21
180.42150136586784
  0
LINE
  8
_1-1_
  6
CONTINUOUS
 62
    7
 10
349.48477255331505
 20
197.73888665276607
 11
348.2536604597762
 21
200.4746555637669
  0
LINE
  8
_1-1_
  6
CONTINUOUS
 62
    7
 10
348.2536604597762
 20
200.4746555637669
 11
352.63089566617401
 21
202.44442501583617
  0
LINE
  8
_1-1_
  6
CONTINUOUS
 62
    7
 10
352.63089566617401
 20
202.44442501583617
 11
353.86198301573057
 21
199.70863136085305
  0
LINE
  8
_1-1_
  6
CONTINUOUS
 62
    7
 10
353.86198301573057
 20
199.70863136085305
 11
349.48477255331505
 21
197.73888665276607
  0
LINE
  8
_1-1_
  6
CONTINUOUS
 62
    7
 10
348.2536604597762
 20
200.4746555637669
 11
353.86198301573057
 21
199.70863136085305
  0
LINE
  8
_1-1_
  6
CONTINUOUS
 62
    7
 10
305.39334683804901
 20
181.18751319679055
 11
311.00166939400339
 21
180.42150136586784
  0
LINE
  8
_1-1_
  6
CONTINUOUS
 62
    7
 10
305.39337158203125
 20
181.18751319679055
 11
309.77058204444683
 21
183.15727027686867
  0
LINE
  8
_1-1_
  6
CONTINUOUS
 62
    7
 10
309.77058204444683
 20
183.15727027686867
 11
311.00169413798568
 21
180.42150136586784
  0
LINE
  8
_1-1_
  6
CONTINUOUS
 62
    7
 10
305.39337158203125
 20
181.18751319679055
 11
311.00169413798568
 21
180.42150136586784
  0
LINE
  8
_1-b_
  6
CONTINUOUS
 62
    3
 10
310.63926902977198
 20
181.37478802655195
 11
312.32846646695526
 21
181.99653006888727
  0
LINE
  8
_1-b_
  6
CONTINUOUS
 62
    3
 10
309.94844178895693
 20
183.2516809411951
 11
310.63926902977198
 21
181.37478802655195
  0
LINE
  8
_1-1_
  6
CONTINUOUS
 62
    7
 10
305.39337158203125
 20
181.18752556878169
 11
309.77058204444683
 21
183.15728264885982
  0
LINE
  8
_1-1_
  6
CONTINUOUS
 62
    7
 10
349.48477255331505
 20
197.73888665276607
 11
348.2536604597762
 21
200.4746555637669
  0
LINE
  8
_1-1_
  6
CONTINUOUS
 62
    7
 10
348.2536604597762
 20
200.4746555637669
 11
352.63089566617401
 21
202.44442501583617
  0
LINE
  8
_1-1_
  6
CONTINUOUS
 62
    7
 10
352.63089566617401
 20
202.44442501583617
 11
353.86198301573057
 21
199.70863136085305
  0
LINE
  8
_1-1_
  6
CONTINUOUS
 62
    7
 10
353.86198301573057
 20
199.70863136085305
 11
349.48477255331505
 21
197.73888665276607
  0
LINE
  8
_1-1_
  6
CONTINUOUS
 62
    7
 10
348.2536604597762
 20
200.4746555637669
 11
353.86198301573057
 21
199.70863136085305
  0
LINE
  8
_1-b_
  6
CONTINUOUS
 62
    3
 10
297.11460422825172
 20
182.03942376214107
 11
352.80873066670188
 21
202.53882330817146
  0
LINE
  8
_1-b_
  6
CONTINUOUS
 62
    3
 10
353.49958265149917
 20
200.66191802153716
 11
355.18880483266474
 21
201.28368480785474
  0
LINE
  8
_1-b_
  6
CONTINUOUS
 62
    3
 10
352.80873066670188
 20
202.53882330817146
 11
353.49958265149917
 21
200.66191802153716
  0
LINE
  8
_1-b_
  6
CONTINUOUS
 62
    3
 10
297.83089302681589
 20
185.28671264648437
 11
352.02927048141896
 21
205.23557095914273
  0
LINE
  8
_1-b_
  6
CONTINUOUS
 62
    3
 10
296.88203553895693
 20
183.23251672693203
 11
297.29936754381339
 21
182.09867322767104
  0
LINE
  8
_1-b_
  6
CONTINUOUS
 62
    3
 10
339.73564354149073
 20
202.53454259923987
 11
340.15297554634714
 21
201.40067435599664
  0
LINE
  8
_1-b_
  6
CONTINUOUS
 62
    3
 10
339.96821223078547
 20
201.34143726245779
 11
375.16494338576859
 21
214.29634712837839
  0
LINE
  8
_1-b_
  6
CONTINUOUS
 62
    3
 10
340.68450102934969
 20
204.58873851879224
 11
374.01308626741979
 21
216.85601311760982
  0
LINE
  8
_1-b_
  6
CONTINUOUS
 62
    3
 10
351.85143548089104
 20
205.71533203125
 11
352.02256486222552
 21
205.25044209248313
  0
LINE
  8
_1-b_
  6
CONTINUOUS
 62
    3
 10
351.85252421611068
 20
205.71572793496622
 11
352.02927048141896
 21
205.23557095914273
  0
LINE
  8
_1-b_
  6
CONTINUOUS
 62
    3
 10
351.85146022487334
 20
205.71530728726773
 11
352.02256486222552
 21
205.25044209248313
  0
LINE
  8
_1-b_
  6
CONTINUOUS
 62
    3
 10
308.99785222233953
 20
186.41329378695102
 11
309.16895685969172
 21
185.94842859216641
  0
LINE
  8
_1-b_
  6
CONTINUOUS
 62
    3
 10
310.49934181007183
 20
186.96597537478885
 11
312.32846646695526
 21
181.99653006888727
  0
LINE
  8
_1-b_
  6
CONTINUOUS
 62
    3
 10
308.99785222233953
 20
186.41329378695102
 11
309.16895685969172
 21
185.94842859216641
  0
LINE
  8
_1-b_
  6
CONTINUOUS
 62
    3
 10
310.49936655405406
 20
186.96597537478885
 11
312.3284912109375
 21
181.99653006888727
  0
LINE
  8
_1-b_
  6
CONTINUOUS
 62
    3
 10
266.13753860061234
 20
167.12616379196581
 11
266.30864323796453
 21
166.66128622519005
  0
LINE
  8
_1-b_
  6
CONTINUOUS
 62
    3
 10
267.63902818834458
 20
167.67882063582138
 11
269.46815284522808
 21
162.70938770191091
  0
LINE
  8
_1-c_
  6
CONTINUOUS
 62
    7
 10
251.53472900390625
 20
170.70222596864443
 11
254.02172191722974
 21
163.9453867319468
  0
LINE
  8
_1-c_
  6
CONTINUOUS
 62
    7
 10
294.39504262563344
 20
189.98934359163852
 11
296.88203553895693
 21
183.23251672693203
  0
LINE
  8
_1-c_
  6
CONTINUOUS
 62
    7
 10
337.24865062816724
 20
209.2913818359375
 11
339.73564354149073
 21
202.5345178552576
  0
LINE
  8
_1-c_
  6
CONTINUOUS
 62
    7
 10
338.19748337204396
 20
211.34557775548987
 11
371.5260933540963
 21
223.61285235430745
  0
LINE
  8
_1-c_
  6
CONTINUOUS
 62
    7
 10
295.34387536951016
 20
192.04353951119089
 11
337.83988334037161
 21
207.68510148331927
  0
LINE
  8
_1-c_
  6
CONTINUOUS
 62
    7
 10
252.48358649176521
 20
172.75640951620568
 11
294.98063370988177
 21
188.39835502005914
  0
LINE
  8
_1-0_
  6
CONTINUOUS
 62
    7
 10
193.67441538217906
 20
125.86969324060389
 11
377.69313502956084
 21
208.67812697951859
  0
LINE
  8
_1-1_
  6
DASHED1
 62
    3
 10
193.67441538217906
 20
126.74695401578337
 11
377.36485661687078
 21
209.40767855257602
  0
LINE
  8
_1-1_
  6
CONTINUOUS
 62
    7
 10
162.06778861380914
 20
141.84721663191513
 11
166.44499907622466
 21
139.87745955183701
  0
LINE
  8
_1-1_
  6
CONTINUOUS
 62
    7
 10
123.58468545449747
 20
159.16460191881336
 11
124.81579754803633
 21
161.90037082981419
  0
LINE
  8
_1-1_
  6
CONTINUOUS
 62
    7
 10
124.81579754803633
 20
161.90037082981419
 11
120.43856234163852
 21
163.87012790989232
  0
LINE
  8
_1-1_
  6
CONTINUOUS
 62
    7
 10
120.43856234163852
 20
163.87012790989232
 11
119.20747499208193
 21
161.13435899889149
  0
LINE
  8
_1-1_
  6
CONTINUOUS
 62
    7
 10
119.20747499208193
 20
161.13435899889149
 11
123.58468545449747
 21
159.16460191881336
  0
LINE
  8
_1-1_
  6
CONTINUOUS
 62
    7
 10
80.72437183277026
 20
178.45174428578972
 11
81.955483926309114
 21
181.18751319679055
  0
LINE
  8
_1-1_
  6
CONTINUOUS
 62
    7
 10
81.955483926309114
 20
181.18751319679055
 11
77.578248719911301
 21
183.15727027686867
  0
LINE
  8
_1-1_
  6
CONTINUOUS
 62
    7
 10
77.578248719911301
 20
183.15727027686867
 11
76.34716137035474
 21
180.42150136586784
  0
LINE
  8
_1-1_
  6
CONTINUOUS
 62
    7
 10
76.34716137035474
 20
180.42150136586784
 11
80.72437183277026
 21
178.45174428578972
  0
LINE
  8
_1-1_
  6
CONTINUOUS
 62
    7
 10
39.095170304581927
 20
200.4746555637669
 11
34.717935098184114
 21
202.44442501583617
  0
LINE
  8
_1-1_
  6
CONTINUOUS
 62
    7
 10
34.717935098184114
 20
202.44442501583617
 11
33.486847748627525
 21
199.70865610483531
  0
LINE
  8
_1-1_
  6
CONTINUOUS
 62
    7
 10
33.486847748627525
 20
199.70865610483531
 11
37.864058211043073
 21
197.73891139674834
  0
LINE
  8
_1-1_
  6
CONTINUOUS
 62
    7
 10
39.095170304581927
 20
200.4746555637669
 11
33.48682300464526
 21
199.70863136085305
  0
LINE
  8
_1-1_
  6
CONTINUOUS
 62
    7
 10
81.955483926309114
 20
181.18751319679055
 11
76.34716137035474
 21
180.42150136586784
  0
LINE
  8
_1-1_
  6
CONTINUOUS
 62
    7
 10
124.81579754803633
 20
161.90037082981419
 11
119.20747499208193
 21
161.13435899889149
  0
LINE
  8
_1-1_
  6
CONTINUOUS
 62
    7
 10
123.58468545449747
 20
159.16460191881336
 11
124.81577280405406
 21
161.90037082981419
  0
LINE
  8
_1-1_
  6
CONTINUOUS
 62
    7
 10
124.81577280405406
 20
161.90037082981419
 11
120.43856234163852
 21
163.87012790989232
  0
LINE
  8
_1-1_
  6
CONTINUOUS
 62
    7
 10
120.43856234163852
 20
163.87012790989232
 11
119.20745024809968
 21
161.13435899889149
  0
LINE
  8
_1-1_
  6
CONTINUOUS
 62
    7
 10
119.20745024809968
 20
161.13435899889149
 11
123.58468545449747
 21
159.16460191881336
  0
LINE
  8
_1-1_
  6
CONTINUOUS
 62
    7
 10
124.81577280405406
 20
161.90037082981419
 11
119.20745024809968
 21
161.13435899889149
  0
LINE
  8
_1-b_
  6
CONTINUOUS
 62
    3
 10
119.56987535631335
 20
162.0876456595756
 11
117.88067791913008
 21
162.70938770191091
  0
LINE
  8
_1-b_
  6
CONTINUOUS
 62
    3
 10
120.26070259712839
 20
163.96453857421875
 11
119.56987535631335
 21
162.0876456595756
  0
LINE
  8
_1-b_
  6
CONTINUOUS
 62
    3
 10
175.23856498099664
 20
146.71242791253169
 11
121.04018752639358
 21
166.66128622519005
  0
LINE
  8
_1-1_
  6
CONTINUOUS
 62
    7
 10
124.81577280405406
 20
161.90038320180534
 11
120.43856234163852
 21
163.87014028188347
  0
LINE
  8
_1-1_
  6
CONTINUOUS
 62
    7
 10
80.72437183277026
 20
178.45174428578972
 11
81.955483926309114
 21
181.18751319679055
  0
LINE
  8
_1-1_
  6
CONTINUOUS
 62
    7
 10
81.955483926309114
 20
181.18751319679055
 11
77.578248719911301
 21
183.15727027686867
  0
LINE
  8
_1-1_
  6
CONTINUOUS
 62
    7
 10
77.578248719911301
 20
183.15727027686867
 11
76.34716137035474
 21
180.42150136586784
  0
LINE
  8
_1-1_
  6
CONTINUOUS
 62
    7
 10
76.34716137035474
 20
180.42150136586784
 11
80.72437183277026
 21
178.45174428578972
  0
LINE
  8
_1-1_
  6
CONTINUOUS
 62
    7
 10
81.955483926309114
 20
181.18751319679055
 11
76.34716137035474
 21
180.42150136586784
  0
LINE
  8
_1-b_
  6
CONTINUOUS
 62
    3
 10
133.09454015783362
 20
162.75228139516472
 11
77.400413719383437
 21
183.2516809411951
  0
LINE
  8
_1-b_
  6
CONTINUOUS
 62
    3
 10
76.709561734586146
 20
181.37478802655195
 11
75.020339553420627
 21
181.99653006888727
  0
LINE
  8
_1-b_
  6
CONTINUOUS
 62
    3
 10
77.400413719383437
 20
183.2516809411951
 11
76.709561734586146
 21
181.37478802655195
  0
LINE
  8
_1-b_
  6
CONTINUOUS
 62
    3
 10
132.37825135926943
 20
165.99957027950802
 11
78.179873904666408
 21
185.94842859216641
  0
LINE
  8
_1-b_
  6
CONTINUOUS
 62
    3
 10
133.32710884712839
 20
163.94537435995568
 11
132.90977684227198
 21
162.81153086069469
  0
LINE
  8
_1-1_
  6
CONTINUOUS
 62
    7
 10
81.955483926309114
 20
181.18751319679055
 11
77.578248719911301
 21
183.15727027686867
  0
LINE
  8
_1-1_
  6
CONTINUOUS
 62
    7
 10
77.578248719911301
 20
183.15727027686867
 11
76.34716137035474
 21
180.42150136586784
  0
LINE
  8
_1-1_
  6
CONTINUOUS
 62
    7
 10
37.864058211043073
 20
197.73888665276607
 11
39.095170304581927
 21
200.4746555637669
  0
LINE
  8
_1-1_
  6
CONTINUOUS
 62
    7
 10
39.095170304581927
 20
200.4746555637669
 11
34.717935098184114
 21
202.44442501583617
  0
LINE
  8
_1-1_
  6
CONTINUOUS
 62
    7
 10
34.717935098184114
 20
202.44442501583617
 11
33.486847748627525
 21
199.70863136085305
  0
LINE
  8
_1-1_
  6
CONTINUOUS
 62
    7
 10
33.486847748627525
 20
199.70863136085305
 11
37.864058211043073
 21
197.73888665276607
  0
LINE
  8
_1-1_
  6
CONTINUOUS
 62
    7
 10
39.095170304581927
 20
200.4746555637669
 11
33.486847748627525
 21
199.70863136085305
  0
LINE
  8
_1-1_
  6
CONTINUOUS
 62
    7
 10
81.955483926309114
 20
181.18751319679055
 11
76.34716137035474
 21
180.42150136586784
  0
LINE
  8
_1-1_
  6
CONTINUOUS
 62
    7
 10
81.955459182326877
 20
181.18751319679055
 11
77.578248719911301
 21
183.15727027686867
  0
LINE
  8
_1-1_
  6
CONTINUOUS
 62
    7
 10
77.578248719911301
 20
183.15727027686867
 11
76.347136626372475
 21
180.42150136586784
  0
LINE
  8
_1-1_
  6
CONTINUOUS
 62
    7
 10
81.955459182326877
 20
181.18751319679055
 11
76.347136626372475
 21
180.42150136586784
  0
LINE
  8
_1-b_
  6
CONTINUOUS
 62
    3
 10
76.709561734586146
 20
181.37478802655195
 11
75.020364297402864
 21
181.99653006888727
  0
LINE
  8
_1-1_
  6
CONTINUOUS
 62
    7
 10
81.955459182326877
 20
181.18752556878169
 11
77.578248719911301
 21
183.15728264885982
  0
LINE
  8
_1-1_
  6
CONTINUOUS
 62
    7
 10
37.864058211043073
 20
197.73888665276607
 11
39.095170304581927
 21
200.4746555637669
  0
LINE
  8
_1-1_
  6
CONTINUOUS
 62
    7
 10
39.095170304581927
 20
200.4746555637669
 11
34.717935098184114
 21
202.44442501583617
  0
LINE
  8
_1-1_
  6
CONTINUOUS
 62
    7
 10
34.717935098184114
 20
202.44442501583617
 11
33.486847748627525
 21
199.70863136085305
  0
LINE
  8
_1-1_
  6
CONTINUOUS
 62
    7
 10
33.486847748627525
 20
199.70863136085305
 11
37.864058211043073
 21
197.73888665276607
  0
LINE
  8
_1-1_
  6
CONTINUOUS
 62
    7
 10
39.095170304581927
 20
200.4746555637669
 11
33.486847748627525
 21
199.70863136085305
  0
LINE
  8
_1-b_
  6
CONTINUOUS
 62
    3
 10
90.234226536106419
 20
182.03942376214107
 11
34.54010009765625
 21
202.53882330817146
  0
LINE
  8
_1-b_
  6
CONTINUOUS
 62
    3
 10
33.849248112858959
 20
200.66191802153716
 11
32.160025931693411
 21
201.28368480785474
  0
LINE
  8
_1-b_
  6
CONTINUOUS
 62
    3
 10
34.54010009765625
 20
202.53882330817146
 11
33.849248112858959
 21
200.66191802153716
  0
LINE
  8
_1-b_
  6
CONTINUOUS
 62
    3
 10
89.51793773754224
 20
185.28671264648437
 11
35.319560282939193
 21
205.23557095914273
  0
LINE
  8
_1-b_
  6
CONTINUOUS
 62
    3
 10
90.466795225401185
 20
183.23251672693203
 11
90.049463220544766
 21
182.09867322767104
  0
LINE
  8
_1-b_
  6
CONTINUOUS
 62
    3
 10
47.613187222867396
 20
202.53454259923987
 11
47.19585521801099
 21
201.40067435599664
  0
LINE
  8
_1-b_
  6
CONTINUOUS
 62
    3
 10
47.38061853357263
 20
201.34143726245779
 11
12.183887378589532
 21
214.29634712837839
  0
LINE
  8
_1-b_
  6
CONTINUOUS
 62
    3
 10
46.664329735008437
 20
204.58873851879224
 11
13.335744496938332
 21
216.85601311760982
  0
LINE
  8
_1-b_
  6
CONTINUOUS
 62
    3
 10
35.497395283467057
 20
205.71533203125
 11
35.326265902132604
 21
205.25044209248313
  0
LINE
  8
_1-b_
  6
CONTINUOUS
 62
    3
 10
35.496306548247475
 20
205.71572793496622
 11
35.319560282939193
 21
205.23557095914273
  0
LINE
  8
_1-b_
  6
CONTINUOUS
 62
    3
 10
35.497370539484791
 20
205.71530728726773
 11
35.326265902132604
 21
205.25044209248313
  0
LINE
  8
_1-b_
  6
CONTINUOUS
 62
    3
 10
33.994767472550677
 20
206.2683847788218
 11
32.160025931693411
 21
201.28368480785474
  0
LINE
  8
_1-b_
  6
CONTINUOUS
 62
    3
 10
78.350978542018595
 20
186.41329378695102
 11
78.179873904666408
 21
185.94842859216641
  0
LINE
  8
_1-b_
  6
CONTINUOUS
 62
    3
 10
76.849488954286301
 20
186.96597537478885
 11
75.020364297402864
 21
181.99653006888727
  0
LINE
  8
_1-b_
  6
CONTINUOUS
 62
    3
 10
78.350978542018595
 20
186.41329378695102
 11
78.179873904666408
 21
185.94842859216641
  0
LINE
  8
_1-b_
  6
CONTINUOUS
 62
    3
 10
76.849464210304063
 20
186.96597537478885
 11
75.020339553420627
 21
181.99653006888727
  0
LINE
  8
_1-b_
  6
CONTINUOUS
 62
    3
 10
121.21129216374578
 20
167.12616379196581
 11
121.04018752639358
 21
166.66128622519005
  0
LINE
  8
_1-b_
  6
CONTINUOUS
 62
    3
 10
119.70980257601352
 20
167.67882063582138
 11
117.88067791913008
 21
162.70938770191091
  0
LINE
  8
_1-c_
  6
CONTINUOUS
 62
    7
 10
135.81410176045188
 20
170.70222596864443
 11
133.32710884712839
 21
163.9453867319468
  0
LINE
  8
_1-c_
  6
CONTINUOUS
 62
    7
 10
92.953788138724661
 20
189.98934359163852
 11
90.466795225401185
 21
183.23251672693203
  0
LINE
  8
_1-c_
  6
CONTINUOUS
 62
    7
 10
50.100180136190886
 20
209.2913818359375
 11
47.613187222867396
 21
202.5345178552576
  0
LINE
  8
_1-c_
  6
CONTINUOUS
 62
    7
 10
49.151347392314193
 20
211.34557775548987
 11
15.822737410261823
 21
223.61285235430745
  0
LINE
  8
_1-c_
  6
CONTINUOUS
 62
    7
 10
92.004955394847983
 20
192.04353951119089
 11
49.508947423986484
 21
207.68510148331927
  0
LINE
  8
_1-c_
  6
CONTINUOUS
 62
    7
 10
134.86524427259292
 20
172.75640951620568
 11
92.368197054476354
 21
188.39835502005914
  0
LINE
  8
_1-0_
  6
CONTINUOUS
 62
    7
 10
193.67441538217906
 20
125.86969324060389
 11
9.6556957347972912
 21
208.67812697951859
  0
LINE
  8
_1-0_
  6
CONTINUOUS
 62
    7
 10
167.53205170502534
 20
139.38829576646961
 11
10.31225256017737
 21
210.1372053816512
  0
LINE
  8
_1-2_
  6
CONTINUOUS
 62
    7
 10
167.53205170502534
 20
139.38829576646961
 11
167.28583670951227
 21
138.84114445866766
  0
LINE
  8
_1-0_
  6
CONTINUOUS
 62
    7
 10
167.28583670951227
 20
138.84114445866766
 11
10.066049936655418
 21
209.59006644584039
  0
LINE
  8
_1-0_
  6
CONTINUOUS
 62
    7
 10
219.37485153610643
 20
139.18941600902662
 11
377.03657820418078
 21
210.1372053816512
  0
LINE
  8
_1-0_
  6
CONTINUOUS
 62
    7
 10
219.62105415962839
 20
138.64227707321581
 11
377.28278082770271
 21
209.59006644584039
  0
LINE
  8
_1-2_
  6
CONTINUOUS
 62
    7
 10
219.37485153610643
 20
139.18941600902662
 11
219.62105415962839
 21
138.64227707321581
  0
LINE
  8
_1-1_
  6
CONTINUOUS
 62
    7
 10
219.67271959459461
 20
142.61322846283784
 11
219.67274433857688
 21
142.61324083482899
  0
LINE
  8
_1-2_
  6
CONTINUOUS
 62
    7
 10
219.11726668074326
 20
145.16076990076013
 11
227.47449720228042
 21
148.52089134422511
  0
LINE
  8
_1-1_
  6
CONTINUOUS
 62
    7
 10
225.28104215054901
 20
141.84721663191513
 11
220.90383168813347
 21
139.87745955183701
  0
LINE
  8
_1-2_
  6
CONTINUOUS
 62
    7
 10
219.11726668074326
 20
145.16076990076013
 11
221.39527191986909
 21
140.09860889331716
  0
LINE
  8
_1-2_
  6
CONTINUOUS
 62
    7
 10
227.47449720228042
 20
148.52089134422511
 11
229.60255390888938
 21
143.79188331397805
  0
LINE
  8
_1-2_
  6
CONTINUOUS
 62
    7
 10
219.11726668074326
 20
145.16076990076013
 11
229.60255390888938
 21
143.79188331397805
  0
LINE
  8
_1-1_
  6
CONTINUOUS
 62
    7
 10
167.67611116976352
 20
142.61322846283784
 11
167.67608642578125
 21
142.61324083482899
  0
LINE
  8
_1-2_
  6
CONTINUOUS
 62
    7
 10
168.23156408361487
 20
145.16076990076013
 11
159.87433356207771
 21
148.52089134422511
  0
LINE
  8
_1-1_
  6
CONTINUOUS
 62
    7
 10
162.06778861380914
 20
141.84721663191513
 11
166.44499907622466
 21
139.87745955183701
  0
LINE
  8
_1-2_
  6
CONTINUOUS
 62
    7
 10
168.23156408361487
 20
145.16076990076013
 11
165.95355884448904
 21
140.09860889331716
  0
LINE
  8
_1-2_
  6
CONTINUOUS
 62
    7
 10
159.87433356207771
 20
148.52089134422511
 11
157.74627685546875
 21
143.79188331397805
  0
LINE
  8
_1-2_
  6
CONTINUOUS
 62
    7
 10
168.23156408361487
 20
145.16076990076013
 11
157.74627685546875
 21
143.79188331397805
  0
LINE
  8
_1-2_
  6
CONTINUOUS
 62
    3
 10
166.41216381176099
 20
140.17099741342906
 11
193.54582090635557
 21
127.96084429766681
  0
LINE
  8
_1-2_
  6
CONTINUOUS
 62
    3
 10
168.67441950617609
 20
145.19815805796031
 11
164.59126652898016
 21
146.83983467720651
  0
LINE
  8
_1-2_
  6
CONTINUOUS
 62
    3
 10
164.59126652898016
 20
146.83983467720651
 11
168.32410657728042
 21
146.15467380832982
  0
LINE
  8
_1-2_
  6
CONTINUOUS
 62
    3
 10
193.54582090635557
 20
127.96084429766681
 11
220.79015783361487
 21
140.22079467773437
  0
LINE
  8
_1-2_
  6
CONTINUOUS
 62
    3
 10
220.79015783361487
 20
140.22079467773437
 11
218.60125567461995
 21
145.08496671109586
  0
LINE
  8
_1-2_
  6
CONTINUOUS
 62
    3
 10
218.60125567461995
 20
145.08496671109586
 11
218.54644775390625
 21
145.20675659179687
  0
LINE
  8
_1-2_
  6
CONTINUOUS
 62
    3
 10
218.54644775390625
 20
145.20675659179687
 11
223.04007865287164
 21
147.01347557274073
  0
LINE
  8
_1-2_
  6
CONTINUOUS
 62
    3
 10
223.04007865287164
 20
147.01347557274073
 11
220.71889516469597
 21
146.79889575855154
  0
LINE
  8
_1-3_
  6
CONTINUOUS
 62
    7
 10
217.54800332559122
 20
74.966311068148229
 11
244.66374577702703
 21
87.168391459697006
  0
LINE
  8
_1-3_
  6
CONTINUOUS
 62
    7
 10
197.86383139120568
 20
118.70892086544553
 11
217.54800332559122
 21
74.966311068148229
  0
LINE
  8
_1-3_
  6
CONTINUOUS
 62
    7
 10
224.97956147065034
 20
130.91099507099875
 11
244.66374577702703
 21
87.168391459697006
  0
LINE
  8
_1-3_
  6
CONTINUOUS
 62
    7
 10
172.25536861935177
 20
80.420825030352617
 11
145.03641901789484
 21
92.669349876610013
  0
LINE
  8
_1-3_
  6
CONTINUOUS
 62
    7
 10
189.18397645692568
 20
118.03994256096918
 11
172.25536861935177
 21
80.420825030352617
  0
LINE
  8
_1-3_
  6
CONTINUOUS
 62
    7
 10
161.96502685546875
 20
130.28847359322214
 11
145.03641901789484
 21
92.669349876610013
  0
LINE
  8
_1-3_
  6
CONTINUOUS
 62
    7
 10
265.54524189717063
 20
156.68604670344172
 11
290.72580698374156
 21
225.86903340107688
  0
LINE
  8
_1-3_
  6
CONTINUOUS
 62
    7
 10
290.72580698374156
 20
225.86903340107688
 11
299.71695358688771
 21
250.57201488597974
  0
LINE
  8
_1-3_
  6
CONTINUOUS
 62
    7
 10
301.98711498363599
 20
236.60492768158784
 11
294.63335191881339
 21
236.60492768158784
  0
LINE
  8
_1-3_
  6
CONTINUOUS
 62
    7
 10
297.14459393475511
 20
243.5045149519637
 11
301.83377652554901
 21
243.5045149519637
  0
LINE
  8
_1-3_
  6
CONTINUOUS
 62
    7
 10
299.71695358688771
 20
250.57201488597974
 11
301.37381063925255
 21
250.57201488597974
  0
LINE
  8
_1-3_
  6
CONTINUOUS
 62
    7
 10
299.71695358688771
 20
250.57201488597974
 11
301.99622076910896
 21
256.83424666121203
  0
LINE
  8
_1-3_
  6
CONTINUOUS
 62
    7
 10
301.99622076910896
 20
256.83424666121203
 11
303.77855455553214
 21
256.83424666121203
  0
LINE
  8
_1-3_
  6
CONTINUOUS
 62
    7
 10
162.07508808857688
 20
203.45910149651607
 11
188.7723850559544
 21
130.10889414194469
  0
LINE
  8
_1-3_
  6
CONTINUOUS
 62
    7
 10
145.13513513513513
 20
220.54054054054055
 11
155.85795222101984
 21
220.54054054054055
  0
LINE
  8
_1-3_
  6
CONTINUOUS
 62
    7
 10
162.07508808857688
 20
203.45910149651607
 11
155.85795222101984
 21
220.54054054054055
  0
LINE
  8
_1-3_
  6
DASHED1
 62
    3
 10
193.63185573268584
 20
126.32551450987121
 11
118.50250656540329
 21
160.13372472814612
  0
LINE
  8
_1-0_
  6
CONTINUOUS
 62
    7
 10
193.67441538217906
 20
121.92197645032729
 11
379.17044974662167
 21
205.39520676071581
  0
LINE
  8
_1-0_
  6
CONTINUOUS
 62
    7
 10
193.67441538217906
 20
125.86969324060389
 11
193.67441538217906
 21
121.92198882231843
  0
LINE
  8
_1-0_
  6
CONTINUOUS
 62
    3
 10
205.45397371859164
 20
122.83643980283996
 11
205.81876187711148
 21
123.00059138117611
  0
LINE
  8
_1-0_
  6
CONTINUOUS
 62
    3
 10
210.7431360193201
 20
112.05752810916385
 11
210.37836023279141
 21
111.89337653082771
  0
LINE
  8
_1-0_
  6
CONTINUOUS
 62
    3
 10
203.0647442791913
 20
125.7089934477935
 11
196.49895332955026
 21
122.75438875765414
  0
LINE
  8
_1-0_
  6
CONTINUOUS
 62
    3
 10
204.38702557538008
 20
125.20743292731208
 11
205.45397371859164
 21
122.83643980283996
  0
LINE
  8
_1-0_
  6
CONTINUOUS
 62
    3
 10
204.58766215556378
 20
125.73634792018582
 11
205.81876187711148
 21
123.00059138117611
  0
LINE
  8
_1-0_
  6
CONTINUOUS
 62
    3
 10
203.265380859375
 20
126.23790844066724
 11
195.97002596468539
 21
122.95500059385559
  0
LINE
  8
_1-0_
  6
CONTINUOUS
 62
    3
 10
211.44529600401182
 20
109.52238340635559
 11
210.37836023279141
 21
111.89337653082771
  0
LINE
  8
_1-0_
  6
CONTINUOUS
 62
    3
 10
211.97422336887669
 20
109.32175919816301
 11
210.7431360193201
 21
112.05752810916385
  0
LINE
  8
_1-0_
  6
CONTINUOUS
 62
    3
 10
204.37794453388938
 20
105.24548504803633
 11
210.94373548353042
 21
108.20008973817568
  0
LINE
  8
_1-0_
  6
CONTINUOUS
 62
    3
 10
203.0556632377006
 20
105.74704556851775
 11
195.99739280906886
 21
121.43209508947425
  0
LINE
  8
_1-0_
  6
CONTINUOUS
 62
    3
 10
202.8550266575169
 20
105.21811820365288
 11
195.46846544420399
 21
121.63270692567568
  0
LINE
  8
ADD_LINE
  6
DOT
 62
    3
 10
195.97002596468539
 20
122.95500059385559
 11
194.69491907068203
 21
122.38120001715583
  0
LINE
  8
ADD_LINE
  6
DOT
 62
    3
 10
195.46846544420399
 20
121.63270692567568
 11
194.84830701673354
 21
123.01084776182434
  0
LINE
  8
_1-0_
  6
CONTINUOUS
 62
    7
 10
193.67441538217906
 20
125.86969324060389
 11
193.67441538217906
 21
121.92198882231843
  0
LINE
  8
_1-0_
  6
CONTINUOUS
 62
    3
 10
181.89485704576649
 20
122.83643980283996
 11
181.53006888724664
 21
123.00059138117611
  0
LINE
  8
_1-0_
  6
CONTINUOUS
 62
    3
 10
176.60569474503802
 20
112.05752810916385
 11
176.97047053156675
 21
111.89337653082771
  0
LINE
  8
_1-0_
  6
CONTINUOUS
 62
    3
 10
184.28408648516682
 20
125.7089934477935
 11
190.84987743480787
 21
122.75438875765414
  0
LINE
  8
_1-0_
  6
CONTINUOUS
 62
    3
 10
182.96180518897805
 20
125.20743292731208
 11
181.89485704576649
 21
122.83643980283996
  0
LINE
  8
_1-0_
  6
CONTINUOUS
 62
    3
 10
184.08344990498313
 20
126.23790844066724
 11
191.37880479967274
 21
122.95500059385559
  0
LINE
  8
_1-0_
  6
CONTINUOUS
 62
    3
 10
175.9035347603463
 20
109.52238340635559
 11
176.97047053156675
 21
111.89337653082771
  0
LINE
  8
_1-0_
  6
CONTINUOUS
 62
    3
 10
175.37460739548143
 20
109.32175919816301
 11
176.60569474503802
 21
112.05752810916385
  0
LINE
  8
_1-0_
  6
CONTINUOUS
 62
    3
 10
182.97088623046875
 20
105.24548504803633
 11
176.40509528082771
 21
108.20008973817568
  0
LINE
  8
_1-0_
  6
CONTINUOUS
 62
    3
 10
184.29316752665753
 20
105.74704556851775
 11
191.35143795528927
 21
121.43209508947425
  0
LINE
  8
_1-0_
  6
CONTINUOUS
 62
    3
 10
184.49380410684122
 20
105.21811820365288
 11
191.88036532015414
 21
121.63270692567568
  0
LINE
  8
_1-0_
  6
CONTINUOUS
 62
    3
 10
183.17152281065245
 20
104.71657005516259
 11
175.87616791596284
 21
107.99947790197425
  0
LINE
  8
ADD_LINE
  6
DOT
 62
    3
 10
191.37880479967274
 20
122.95500059385559
 11
192.65391169367612
 21
122.38120001715583
  0
LINE
  8
ADD_LINE
  6
DOT
 62
    3
 10
191.88036532015414
 20
121.63270692567568
 11
192.50052374762458
 21
123.01084776182434
  0
LINE
  8
ADD_LINE
  6
DOT
 62
    3
 10
184.49380410684122
 20
105.21811820365288
 11
183.9062953639675
 21
103.91253909549198
  0
LINE
  8
_1-0_
  6
CONTINUOUS
 62
    7
 10
204.52675484322214
 20
126.80553539379224
 11
212.73406157622466
 21
108.56710485509925
  0
LINE
  8
_1-0_
  6
CONTINUOUS
 62
    7
 10
206.16822113861909
 20
123.15785176045186
 11
380.81191604201859
 21
201.74752312737544
  0
LINE
  8
_1-0_
  6
CONTINUOUS
 62
    7
 10
211.09259528082771
 20
112.21478848843962
 11
385.73633967219172
 21
190.80443511138091
  0
LINE
  8
_1-0_
  6
CONTINUOUS
 62
    7
 10
212.73406157622466
 20
108.56710485509925
 11
387.37778122360646
 21
187.15673910604943
  0
LINE
  8
_1-0_
  6
DASHED1
 62
    7
 10
212.48783420872044
 20
109.11425616290119
 11
387.13155385610224
 21
187.70389041385135
  0
LINE
  8
_1-0_
  6
DASHED1
 62
    7
 10
204.77296983873524
 20
126.2583840859903
 11
379.41667711412589
 21
204.84805545291385
  0
LINE
  8
_1-0_
  6
CONTINUOUS
 62
    7
 10
174.61568471547722
 20
108.5666965793919
 11
-0.0289277239023135
 21
187.15678859401396
  0
LINE
  8
_1-0_
  6
CONTINUOUS
 62
    7
 10
182.82297907648862
 20
126.80512711808488
 11
174.61568471547722
 21
108.5666965793919
  0
LINE
  8
_1-0_
  6
CONTINUOUS
 62
    3
 10
182.76116860879435
 20
125.73634792018582
 11
181.53006888724664
 21
123.00059138117611
  0
LINE
  8
_1-0_
  6
CONTINUOUS
 62
    7
 10
182.82297907648862
 20
126.80512711808488
 11
8.178379471237605
 21
205.39520676071581
  0
LINE
  8
_1-0_
  6
CONTINUOUS
 62
    7
 10
181.18152515308279
 20
123.15744348474452
 11
6.5369201350856372
 21
201.74752312737544
  0
LINE
  8
_1-0_
  6
CONTINUOUS
 62
    7
 10
176.25713863888302
 20
112.21438021273227
 11
1.6125207656138514
 21
190.80447222735432
  0
LINE
  8
_1-0_
  6
DASHED1
 62
    7
 10
182.57676408097552
 20
126.25797581028294
 11
7.9321598362278394
 21
204.84805545291385
  0
LINE
  8
_1-0_
  6
DASHED1
 62
    7
 10
174.86189971099029
 20
109.11384788719384
 11
0.217280726175062
 21
187.70393990181589
  0
LINE
  8
_1-0_
  6
CONTINUOUS
 62
    3
 10
343.95414610166807
 20
166.60816089527029
 11
363.95416259765625
 21
166.60816089527029
  0
LINE
  8
_1-0_
  6
CONTINUOUS
 62
    3
 10
363.95416259765625
 20
126.60815264727619
 11
343.95414610166807
 21
126.60815264727619
  0
LINE
  8
_1-0_
  6
CONTINUOUS
 62
    3
 10
343.95414610166807
 20
126.60815264727619
 11
343.95414610166807
 21
128.20816040039063
  0
LINE
  8
_1-0_
  6
CONTINUOUS
 62
    3
 10
343.95414610166807
 20
165.00816551414698
 11
343.95414610166807
 21
166.60816089527029
  0
LINE
  8
_1-0_
  6
CONTINUOUS
 62
    3
 10
363.95416259765625
 20
166.60816089527029
 11
363.95416259765625
 21
165.00816551414698
  0
LINE
  8
_1-0_
  6
CONTINUOUS
 62
    3
 10
363.95416259765625
 20
128.20816040039063
 11
363.95416259765625
 21
126.60815264727619
  0
LINE
  8
_1-0_
  6
CONTINUOUS
 62
    3
 10
352.35415896853885
 20
165.00816551414698
 11
343.95414610166807
 21
165.00816551414698
  0
LINE
  8
_1-0_
  6
CONTINUOUS
 62
    3
 10
355.55414973078547
 20
165.00816551414698
 11
363.95416259765625
 21
165.00816551414698
  0
LINE
  8
_1-0_
  6
CONTINUOUS
 62
    3
 10
354.55414643158787
 20
129.20816369958825
 11
354.55414643158787
 21
164.00816221494932
  0
LINE
  8
_1-0_
  6
CONTINUOUS
 62
    3
 10
355.55414973078547
 20
128.20816040039063
 11
363.95416259765625
 21
128.20816040039063
  0
LINE
  8
_1-0_
  6
CONTINUOUS
 62
    3
 10
352.35415896853885
 20
128.20816040039063
 11
343.95414610166807
 21
128.20816040039063
  0
LINE
  8
_1-0_
  6
CONTINUOUS
 62
    3
 10
353.35416226773651
 20
129.20816369958825
 11
353.35416226773651
 21
164.00816221494932
  0
LINE
  8
_1-0_
  6
CONTINUOUS
 62
    3
 10
43.394684662690054
 20
166.60816089527029
 11
23.394668166701848
 21
166.60816089527029
  0
LINE
  8
_1-0_
  6
CONTINUOUS
 62
    3
 10
23.394668166701848
 20
126.60815264727619
 11
43.394684662690054
 21
126.60815264727619
  0
LINE
  8
_1-0_
  6
CONTINUOUS
 62
    3
 10
43.394684662690054
 20
126.60815264727619
 11
43.394684662690054
 21
128.20816040039063
  0
LINE
  8
_1-0_
  6
CONTINUOUS
 62
    3
 10
43.394684662690054
 20
165.00816551414698
 11
43.394684662690054
 21
166.60816089527029
  0
LINE
  8
_1-0_
  6
CONTINUOUS
 62
    3
 10
23.394668166701848
 20
166.60816089527029
 11
23.394668166701848
 21
165.00816551414698
  0
LINE
  8
_1-0_
  6
CONTINUOUS
 62
    3
 10
23.394668166701848
 20
128.20816040039063
 11
23.394668166701848
 21
126.60815264727619
  0
LINE
  8
_1-0_
  6
CONTINUOUS
 62
    3
 10
34.994671795819272
 20
165.00816551414698
 11
43.394684662690054
 21
165.00816551414698
  0
LINE
  8
_1-0_
  6
CONTINUOUS
 62
    3
 10
31.79468103357263
 20
165.00816551414698
 11
23.394668166701848
 21
165.00816551414698
  0
LINE
  8
_1-0_
  6
CONTINUOUS
 62
    3
 10
32.79468433277026
 20
129.20816369958825
 11
32.79468433277026
 21
164.00816221494932
  0
LINE
  8
_1-0_
  6
CONTINUOUS
 62
    3
 10
31.79468103357263
 20
128.20816040039063
 11
23.394668166701848
 21
128.20816040039063
  0
LINE
  8
_1-0_
  6
CONTINUOUS
 62
    3
 10
34.994671795819272
 20
128.20816040039063
 11
43.394684662690054
 21
128.20816040039063
  0
LINE
  8
_1-0_
  6
CONTINUOUS
 62
    3
 10
33.994668496621614
 20
129.20816369958825
 11
33.994668496621614
 21
164.00816221494932
  0
LINE
  8
_1-5_
  6
CONTINUOUS
 62
    7
 10
289.34989310599661
 20
222.72644867768159
 11
301.98711498363599
 21
222.72644867768159
  0
LINE
  8
_1-3_
  6
CONTINUOUS
 62
    7
 10
301.98711498363599
 20
229.39868823902029
 11
292.01048979888094
 21
229.39868823902029
  0
LINE
  8
_1-5_
  6
CONTINUOUS
 62
    7
 10
265.54524189717063
 20
156.68604670344172
 11
259.53997637774495
 21
140.18673458614865
  0
LINE
  8
_1-1_
  6
CONTINUOUS
 62
    7
 10
182.82297907648862
 20
126.80512711808488
 11
193.67441538217906
 21
121.92197645032729
  0
LINE
  8
_1-1_
  6
CONTINUOUS
 62
    4
 10
375.88521596547724
 20
203.9168404244088
 11
378.60970162056589
 21
206.64133845148862
  0
LINE
  8
_1-1_
  6
CONTINUOUS
 62
    4
 10
371.77113301045188
 20
202.06550804344386
 11
377.90749214790964
 21
208.2018548089105
  0
LINE
  8
_1-1_
  6
CONTINUOUS
 62
    4
 10
367.6570747994088
 20
200.21417566247891
 11
374.83473494246203
 21
207.39183580553211
  0
LINE
  8
_1-1_
  6
CONTINUOUS
 62
    4
 10
363.54299184438349
 20
198.36284328151396
 11
370.72067673141896
 21
205.54050342456716
  0
LINE
  8
_1-1_
  6
CONTINUOUS
 62
    4
 10
359.42890888935813
 20
196.51151090054898
 11
366.60659377639359
 21
203.68917104360222
  0
LINE
  8
_1-1_
  6
CONTINUOUS
 62
    4
 10
355.31487542229729
 20
194.66017851958404
 11
362.49253556535052
 21
201.83785103462839
  0
LINE
  8
_1-1_
  6
CONTINUOUS
 62
    4
 10
351.20079246727198
 20
192.80885851061024
 11
358.37847735430745
 21
199.98651865366344
  0
LINE
  8
_1-1_
  6
CONTINUOUS
 62
    4
 10
347.08675900021115
 20
190.95753850163641
 11
354.26441914326438
 21
198.13519864468961
  0
LINE
  8
_1-1_
  6
CONTINUOUS
 62
    4
 10
342.97270078916807
 20
189.10620612067146
 11
350.1503609322213
 21
196.28386626372466
  0
LINE
  8
_1-1_
  6
CONTINUOUS
 62
    4
 10
338.85869206608953
 20
187.25489848368878
 11
346.03632746516047
 21
194.43254625475086
  0
LINE
  8
_1-1_
  6
CONTINUOUS
 62
    4
 10
334.74460911106422
 20
185.40356610272383
 11
341.92224451013516
 21
192.58122624577703
  0
LINE
  8
_1-1_
  6
CONTINUOUS
 62
    4
 10
330.63055090002115
 20
183.55224609375
 11
337.80818629909209
 21
190.72989386481208
  0
LINE
  8
_1-1_
  6
CONTINUOUS
 62
    4
 10
326.51644320101354
 20
181.70090134079393
 11
333.69412808804901
 21
188.87856148384714
  0
LINE
  8
_1-1_
  6
CONTINUOUS
 62
    4
 10
322.40236024598818
 20
179.84955658783784
 11
329.58002038904141
 21
187.02721673089107
  0
LINE
  8
_1-1_
  6
CONTINUOUS
 62
    4
 10
318.28825254698057
 20
177.99821183488177
 11
325.4659126900338
 21
185.17587197793497
  0
LINE
  8
_1-1_
  6
CONTINUOUS
 62
    4
 10
314.17416959195526
 20
176.14686708192568
 11
321.35182973500844
 21
183.32452722497891
  0
LINE
  8
_1-1_
  6
CONTINUOUS
 62
    4
 10
310.06011138091219
 20
174.29553470096073
 11
317.23777152396536
 21
181.47319484401393
  0
LINE
  8
_1-1_
  6
CONTINUOUS
 62
    4
 10
305.94602842588682
 20
172.44420231999578
 11
313.12371331292229
 21
179.62187483504013
  0
LINE
  8
_1-1_
  6
CONTINUOUS
 62
    4
 10
301.83194547086151
 20
170.59286993903083
 11
309.00963035789698
 21
177.77054245407518
  0
LINE
  8
_1-1_
  6
CONTINUOUS
 62
    4
 10
297.71786251583615
 20
168.74153755806589
 11
304.89554740287161
 21
175.91919770111909
  0
LINE
  8
_1-1_
  6
CONTINUOUS
 62
    4
 10
293.60382904877537
 20
166.89020517710094
 11
300.7814644478463
 21
174.06786532015414
  0
LINE
  8
_1-1_
  6
CONTINUOUS
 62
    4
 10
289.48969660578547
 20
165.03886042414484
 11
296.66738149282094
 21
172.21652056719807
  0
LINE
  8
_1-1_
  6
CONTINUOUS
 62
    4
 10
285.3756383947424
 20
163.1875280431799
 11
292.55329853779563
 21
170.36518818623313
  0
LINE
  8
_1-1_
  6
CONTINUOUS
 62
    4
 10
281.26153069573479
 20
161.33618329022383
 11
288.43921558277026
 21
168.51384343327703
  0
LINE
  8
_1-1_
  6
CONTINUOUS
 62
    4
 10
277.14744774070948
 20
159.48485090925888
 11
284.32513262774495
 21
166.66252342430323
  0
LINE
  8
_1-1_
  6
CONTINUOUS
 62
    4
 10
273.03338952966641
 20
157.63351852829393
 11
280.21107441670188
 21
164.81119104333828
  0
LINE
  8
_1-1_
  6
CONTINUOUS
 62
    4
 10
268.91930657464104
 20
155.78217377533784
 11
276.09696671769427
 21
162.95984629038219
  0
LINE
  8
_1-1_
  6
CONTINUOUS
 62
    4
 10
264.80524836359797
 20
153.93085376636404
 11
271.98293325063344
 21
161.10851390941724
  0
LINE
  8
_1-1_
  6
CONTINUOUS
 62
    4
 10
260.69116540857266
 20
152.07952138539909
 11
267.86885029560813
 21
159.25718152845229
  0
LINE
  8
_1-1_
  6
CONTINUOUS
 62
    4
 10
256.57708245354729
 20
150.22818900443414
 11
263.75476734058276
 21
157.40584914748734
  0
LINE
  8
_1-1_
  6
CONTINUOUS
 62
    4
 10
252.46299949852198
 20
148.37683187948693
 11
259.64065964157516
 21
155.55450439453125
  0
LINE
  8
_1-1_
  6
CONTINUOUS
 62
    4
 10
248.34891654349664
 20
146.52549949852198
 11
255.52657668654984
 21
153.70315964157518
  0
LINE
  8
_1-1_
  6
CONTINUOUS
 62
    4
 10
244.2348335884713
 20
144.674167117557
 11
251.41249373152451
 21
151.85182726061024
  0
LINE
  8
_1-1_
  6
CONTINUOUS
 62
    4
 10
240.12075063344597
 20
142.82282236460094
 11
247.2983860325169
 21
150.00049487964529
  0
LINE
  8
_1-1_
  6
CONTINUOUS
 62
    4
 10
236.00666767842063
 20
140.97148998363599
 11
243.18435256545609
 21
148.14915012668919
  0
LINE
  8
_1-1_
  6
CONTINUOUS
 62
    4
 10
231.89260946737755
 20
139.12015760267104
 11
239.07026961043076
 21
146.29783011771539
  0
LINE
  8
_1-1_
  6
CONTINUOUS
 62
    4
 10
227.77852651235222
 20
137.26882522170609
 11
234.95618665540542
 21
144.4464853647593
  0
LINE
  8
_1-1_
  6
CONTINUOUS
 62
    4
 10
223.66444355732688
 20
135.41749284074115
 11
230.84210370038008
 21
142.59515298379435
  0
LINE
  8
_1-1_
  6
CONTINUOUS
 62
    4
 10
219.55036060230154
 20
133.56614808778505
 11
226.72802074535474
 21
140.7438206028294
  0
LINE
  8
_1-1_
  6
CONTINUOUS
 62
    4
 10
215.4362776472762
 20
131.7148157068201
 11
222.6139377903294
 21
138.89247584987331
  0
LINE
  8
_1-1_
  6
CONTINUOUS
 62
    4
 10
211.32219469225086
 20
129.86348332585516
 11
218.49985483530406
 21
137.04114346890836
  0
LINE
  8
_1-1_
  6
CONTINUOUS
 62
    4
 10
207.20813648120779
 20
128.01215094489021
 11
214.38582136824326
 21
135.18981108794341
  0
LINE
  8
_1-1_
  6
CONTINUOUS
 62
    4
 10
203.09401641020904
 20
126.160793819943
 11
210.27168892525339
 21
133.33846633498734
  0
LINE
  8
_1-1_
  6
CONTINUOUS
 62
    4
 10
198.97995819916596
 20
124.30947381096918
 11
206.15763071421031
 21
131.48714632601352
  0
LINE
  8
_1-1_
  6
CONTINUOUS
 62
    4
 10
194.86588761613177
 20
122.45814143000423
 11
202.04356013117612
 21
129.63580157305745
  0
LINE
  8
_1-1_
  6
CONTINUOUS
 62
    4
 10
193.67441538217906
 20
123.52940739812078
 11
197.92947717615078
 21
127.78446919209249
  0
LINE
  8
_1-1_
  6
CONTINUOUS
 62
    4
 10
193.67441538217906
 20
125.79214560019004
 11
193.81540659311656
 21
125.93313681112754
  0
LINE
  8
_1-1_
  6
CONTINUOUS
 62
    4
 10
193.67441538217906
 20
123.10937829919764
 11
194.49331747519005
 21
122.29047620618667
  0
LINE
  8
_1-1_
  6
CONTINUOUS
 62
    4
 10
193.67441538217906
 20
125.37210412927577
 11
196.05380908862966
 21
122.99271042282517
  0
LINE
  8
_1-1_
  6
CONTINUOUS
 62
    4
 10
194.89175744958828
 20
126.41750026393582
 11
197.61432544605154
 21
123.69493226747255
  0
LINE
  8
_1-1_
  6
CONTINUOUS
 62
    4
 10
196.45227380701016
 20
127.11973448057434
 11
199.17482943148227
 21
124.39716648411107
  0
LINE
  8
_1-1_
  6
CONTINUOUS
 62
    4
 10
198.01277779244089
 20
127.82195632522172
 11
200.73534578890414
 21
125.09938832875845
  0
LINE
  8
_1-1_
  6
CONTINUOUS
 62
    4
 10
199.57328177787164
 20
128.52417816986909
 11
202.2958497743349
 21
125.80162254539697
  0
LINE
  8
_1-1_
  6
CONTINUOUS
 62
    4
 10
201.13379813529352
 20
129.2264123865076
 11
203.85635375976562
 21
126.50385676203548
  0
LINE
  8
_1-1_
  6
CONTINUOUS
 62
    4
 10
202.69430212072425
 20
129.92864660314612
 11
205.41685774519638
 21
127.20607860668287
  0
LINE
  8
_1-1_
  6
CONTINUOUS
 62
    4
 10
204.254806106155
 20
130.63086844779352
 11
206.97737410261826
 21
127.90830045133025
  0
LINE
  8
_1-1_
  6
CONTINUOUS
 62
    4
 10
205.81531009158573
 20
131.33309029244089
 11
208.53787808804898
 21
128.61053466796875
  0
LINE
  8
_1-1_
  6
CONTINUOUS
 62
    4
 10
207.3758264490076
 20
132.0353245090794
 11
210.09838207347974
 21
129.31275651261615
  0
LINE
  8
_1-1_
  6
CONTINUOUS
 62
    4
 10
208.93630569045609
 20
132.73755872571792
 11
211.6588860589105
 21
130.01499072925466
  0
LINE
  8
_1-1_
  6
CONTINUOUS
 62
    4
 10
210.49680967588682
 20
133.43978057036529
 11
213.21939004434122
 21
130.71722494589318
  0
LINE
  8
_1-1_
  6
CONTINUOUS
 62
    4
 10
212.05733840529984
 20
134.14200241501268
 11
214.77989402977198
 21
131.41944679054055
  0
LINE
  8
_1-1_
  6
CONTINUOUS
 62
    4
 10
213.61786713471284
 20
134.8442366316512
 11
216.34042275918497
 21
132.12168100717906
  0
LINE
  8
_1-1_
  6
CONTINUOUS
 62
    4
 10
215.17834637616133
 20
135.54647084828972
 11
217.90090200063347
 21
132.82390285182643
  0
LINE
  8
_1-1_
  6
CONTINUOUS
 62
    4
 10
216.73887510557432
 20
136.24869269293708
 11
219.46143073004646
 21
133.52613706846495
  0
LINE
  8
_1-1_
  6
CONTINUOUS
 62
    4
 10
218.29937909100508
 20
136.95091453758448
 11
221.02193471547722
 21
134.22835891311234
  0
LINE
  8
_1-1_
  6
CONTINUOUS
 62
    4
 10
219.85988307643584
 20
137.65314875422297
 11
222.58243870090794
 21
134.93058075775971
  0
LINE
  8
_1-1_
  6
CONTINUOUS
 62
    4
 10
221.42038706186656
 20
138.35537059887037
 11
224.1429426863387
 21
135.63281497439823
  0
LINE
  8
_1-1_
  6
CONTINUOUS
 62
    4
 10
222.98089104729732
 20
139.05759244351773
 11
225.70344667176943
 21
136.33503681904563
  0
LINE
  8
_1-1_
  6
CONTINUOUS
 62
    4
 10
224.54139503272805
 20
139.75982666015625
 11
227.26395065720018
 21
137.03727103568414
  0
LINE
  8
_1-1_
  6
CONTINUOUS
 62
    4
 10
226.1018990181588
 20
140.46206087679477
 11
228.82445464263091
 21
137.73949288033151
  0
LINE
  8
_1-1_
  6
CONTINUOUS
 62
    4
 10
227.66240300358953
 20
141.16429509343328
 11
230.38498337204393
 21
138.44172709697003
  0
LINE
  8
_1-1_
  6
CONTINUOUS
 62
    4
 10
229.22290698902029
 20
141.86651693808068
 11
231.94548735747466
 21
139.14396131360854
  0
LINE
  8
_1-1_
  6
CONTINUOUS
 62
    4
 10
230.78341097445102
 20
142.56873878272805
 11
233.50599134290542
 21
139.84618315825591
  0
LINE
  8
_1-1_
  6
CONTINUOUS
 62
    4
 10
232.34393970386404
 20
143.27097299936656
 11
235.06649532833617
 21
140.54841737489443
  0
LINE
  8
_1-1_
  6
CONTINUOUS
 62
    4
 10
233.90444368929477
 20
143.97320721600508
 11
236.6269993137669
 21
141.25063921954182
  0
LINE
  8
_1-1_
  6
CONTINUOUS
 62
    4
 10
235.46494767472552
 20
144.67542906065245
 11
238.18750329919766
 21
141.95287343618034
  0
LINE
  8
_1-1_
  6
CONTINUOUS
 62
    4
 10
237.02545166015625
 20
145.37766327729096
 11
239.74800728462839
 21
142.65509528082771
  0
LINE
  8
_1-1_
  6
CONTINUOUS
 62
    4
 10
238.58595564558701
 20
146.07988512193836
 11
241.30853601404141
 21
143.35732949746622
  0
LINE
  8
_1-1_
  6
CONTINUOUS
 62
    4
 10
240.14645963101776
 20
146.78211933857688
 11
242.86903999947214
 21
144.05955134211359
  0
LINE
  8
_1-1_
  6
CONTINUOUS
 62
    4
 10
241.70698836043076
 20
147.48435355521539
 11
244.42954398490289
 21
144.76178555875211
  0
LINE
  8
_1-1_
  6
CONTINUOUS
 62
    4
 10
243.26749234586151
 20
148.18657539986276
 11
245.99004797033362
 21
145.46400740339951
  0
LINE
  8
_1-1_
  6
CONTINUOUS
 62
    4
 10
244.82799633129224
 20
148.88879724451013
 11
247.55055195576438
 21
146.16624162003802
  0
LINE
  8
_1-1_
  6
CONTINUOUS
 62
    4
 10
246.388500316723
 20
149.59103146114865
 11
249.1110559411951
 21
146.86846346468539
  0
LINE
  8
_1-1_
  6
CONTINUOUS
 62
    4
 10
247.94900430215372
 20
150.29325330579604
 11
250.67155992662586
 21
147.57068530933279
  0
LINE
  8
_1-1_
  6
CONTINUOUS
 62
    4
 10
249.50950828758448
 20
150.99547515044341
 11
252.23206391205659
 21
148.2729195259713
  0
LINE
  8
_1-1_
  6
CONTINUOUS
 62
    4
 10
251.07001227301521
 20
151.69770936708193
 11
253.79256789748734
 21
148.97515374260982
  0
LINE
  8
_1-1_
  6
CONTINUOUS
 62
    4
 10
252.63051625844597
 20
152.39994358372044
 11
255.3530718829181
 21
149.67737558725719
  0
LINE
  8
_1-1_
  6
CONTINUOUS
 62
    4
 10
254.19102024387669
 20
153.10216542836784
 11
256.91360061233109
 21
150.3796098038957
  0
LINE
  8
_1-1_
  6
CONTINUOUS
 62
    4
 10
255.75152422930745
 20
153.80438727301521
 11
258.47410459776182
 21
151.08183164854307
  0
LINE
  8
_1-1_
  6
CONTINUOUS
 62
    4
 10
257.31202821473818
 20
154.50662148965372
 11
260.03460858319261
 21
151.78406586518159
  0
LINE
  8
_1-1_
  6
CONTINUOUS
 62
    4
 10
258.87253220016891
 20
155.20885570629224
 11
261.59511256862334
 21
152.48628770982899
  0
LINE
  8
_1-1_
  6
CONTINUOUS
 62
    4
 10
260.43306092958193
 20
155.91108992293076
 11
263.15561655405406
 21
153.1885219264675
  0
LINE
  8
_1-1_
  6
CONTINUOUS
 62
    4
 10
261.99356491501266
 20
156.61331176757813
 11
264.71612053948479
 21
153.89074377111487
  0
LINE
  8
_1-1_
  6
CONTINUOUS
 62
    4
 10
263.55406890044344
 20
157.31553361222552
 11
266.27662452491558
 21
154.59297798775339
  0
LINE
  8
_1-1_
  6
CONTINUOUS
 62
    4
 10
265.11459762985646
 20
158.01776782886404
 11
267.8371285103463
 21
155.29519983240075
  0
LINE
  8
_1-1_
  6
CONTINUOUS
 62
    4
 10
266.67510161528719
 20
158.72000204550255
 11
269.39765723975933
 21
155.99743404903927
  0
LINE
  8
_1-1_
  6
CONTINUOUS
 62
    4
 10
268.23560560071792
 20
159.42222389014992
 11
270.95816122519005
 21
156.69966826567779
  0
LINE
  8
_1-1_
  6
CONTINUOUS
 62
    4
 10
269.79610958614865
 20
160.12444573479732
 11
272.51866521062078
 21
157.40189011032518
  0
LINE
  8
_1-1_
  6
CONTINUOUS
 62
    4
 10
271.35661357157943
 20
160.82667995143581
 11
274.07916919605151
 21
158.1041243269637
  0
LINE
  8
_1-1_
  6
CONTINUOUS
 62
    4
 10
272.91711755701016
 20
161.5289017960832
 11
275.63967318148229
 21
158.80633379961995
  0
LINE
  8
_1-1_
  6
CONTINUOUS
 62
    4
 10
274.47762154244089
 20
162.23112364073057
 11
277.20017716691302
 21
159.50856801625847
  0
LINE
  8
_1-1_
  6
CONTINUOUS
 62
    4
 10
276.03812552787161
 20
162.93335785736909
 11
278.76068115234375
 21
160.21080223289698
  0
LINE
  8
_1-1_
  6
CONTINUOUS
 62
    4
 10
277.5986295133024
 20
163.6355920740076
 11
280.32118513777453
 21
160.91302407754435
  0
LINE
  8
_1-1_
  6
CONTINUOUS
 62
    4
 10
279.15913349873313
 20
164.33782629064612
 11
281.88168912320526
 21
161.61525829418287
  0
LINE
  8
_1-1_
  6
CONTINUOUS
 62
    4
 10
280.71963748416385
 20
165.04004813529352
 11
283.44221785261828
 21
162.31748013883023
  0
LINE
  8
_1-1_
  6
CONTINUOUS
 62
    4
 10
282.28014146959458
 20
165.74226997994089
 11
285.00272183804901
 21
163.01971435546875
  0
LINE
  8
_1-1_
  6
CONTINUOUS
 62
    4
 10
283.84064545502537
 20
166.4445041965794
 11
286.56322582347974
 21
163.72193620011615
  0
LINE
  8
_1-1_
  6
CONTINUOUS
 62
    4
 10
285.40117418443833
 20
167.14672604122677
 11
288.12372980891047
 21
164.42417041675466
  0
LINE
  8
_1-1_
  6
CONTINUOUS
 62
    4
 10
286.96167816986912
 20
167.84896025786529
 11
289.68423379434125
 21
165.12639226140203
  0
LINE
  8
_1-1_
  6
CONTINUOUS
 62
    4
 10
288.52218215529984
 20
168.5511944745038
 11
291.24473777977198
 21
165.82862647804055
  0
LINE
  8
_1-1_
  6
CONTINUOUS
 62
    4
 10
290.08268614073057
 20
169.2534163191512
 11
292.80524176520271
 21
166.53086069467906
  0
LINE
  8
_1-1_
  6
CONTINUOUS
 62
    4
 10
291.64321487014359
 20
169.95565053578972
 11
294.36577049461573
 21
167.23309491131758
  0
LINE
  8
_1-1_
  6
CONTINUOUS
 62
    4
 10
293.20371885557432
 20
170.65787238043708
 11
295.92627448004646
 21
167.93531675596495
  0
LINE
  8
_1-1_
  6
CONTINUOUS
 62
    4
 10
294.76422284100511
 20
171.3601065970756
 11
297.48677846547719
 21
168.63753860061234
  0
LINE
  8
_1-1_
  6
CONTINUOUS
 62
    4
 10
296.32472682643584
 20
172.06232844172297
 11
299.04728245090797
 21
169.33977281725086
  0
LINE
  8
_1-1_
  6
CONTINUOUS
 62
    4
 10
297.88520606788433
 20
172.76455028637037
 11
300.60776169235646
 21
170.04198228990711
  0
LINE
  8
_1-1_
  6
CONTINUOUS
 62
    4
 10
299.44573479729729
 20
173.46678450300888
 11
302.16826567778719
 21
170.74421650654563
  0
LINE
  8
_1-1_
  6
CONTINUOUS
 62
    4
 10
301.00623878272808
 20
174.16900634765625
 11
303.72879440720021
 21
171.44645072318414
  0
LINE
  8
_1-1_
  6
CONTINUOUS
 62
    4
 10
302.5667427681588
 20
174.87124056429477
 11
305.28932313661318
 21
172.14868493982266
  0
LINE
  8
_1-1_
  6
CONTINUOUS
 62
    4
 10
304.12724675358953
 20
175.57347478093328
 11
306.84982712204396
 21
172.85090678447003
  0
LINE
  8
_1-1_
  6
CONTINUOUS
 62
    4
 10
305.68775073902026
 20
176.27569662558068
 11
308.41033110747469
 21
173.5531286291174
  0
LINE
  8
_1-1_
  6
CONTINUOUS
 62
    4
 10
307.24825472445104
 20
176.97791847022805
 11
309.97083509290542
 21
174.25536284575591
  0
LINE
  8
_1-1_
  6
CONTINUOUS
 62
    4
 10
308.80875870988177
 20
177.68015268686656
 11
311.53133907833615
 21
174.95759706239443
  0
LINE
  8
_1-1_
  6
CONTINUOUS
 62
    4
 10
310.36928743929479
 20
178.38238690350508
 11
313.09184306376693
 21
175.65983127903294
  0
LINE
  8
_1-1_
  6
CONTINUOUS
 62
    4
 10
311.92979142472552
 20
179.08460874815245
 11
314.65234704919766
 21
176.36205312368034
  0
LINE
  8
_1-1_
  6
CONTINUOUS
 62
    4
 10
313.49029541015625
 20
179.78683059279984
 11
316.21285103462839
 21
177.06427496832771
  0
LINE
  8
_1-1_
  6
CONTINUOUS
 62
    4
 10
315.05079939558703
 20
180.48906480943836
 11
317.77335502005911
 21
177.76650918496622
  0
LINE
  8
_1-1_
  6
CONTINUOUS
 62
    4
 10
316.61130338101776
 20
181.19129902607688
 11
319.33388374947214
 21
178.46874340160474
  0
LINE
  8
_1-1_
  6
CONTINUOUS
 62
    4
 10
318.17183211043078
 20
181.89352087072425
 11
320.89438773490286
 21
179.17096524625211
  0
LINE
  8
_1-1_
  6
CONTINUOUS
 62
    4
 10
319.73233609586151
 20
182.59575508736276
 11
322.45489172033365
 21
179.87318709089951
  0
LINE
  8
_1-1_
  6
CONTINUOUS
 62
    4
 10
321.29284008129224
 20
183.29797693201016
 11
324.01539570576438
 21
180.57542130753802
  0
LINE
  8
_1-1_
  6
CONTINUOUS
 62
    4
 10
322.85334406672297
 20
184.00021114864865
 11
325.5758996911951
 21
181.27764315218539
  0
LINE
  8
_1-1_
  6
CONTINUOUS
 62
    4
 10
324.41384805215375
 20
184.70243299329604
 11
327.13640367662589
 21
181.97986499683279
  0
LINE
  8
_1-1_
  6
CONTINUOUS
 62
    4
 10
325.97435203758448
 20
185.40465483794341
 11
328.69690766205662
 21
182.6820992134713
  0
LINE
  8
_1-1_
  6
CONTINUOUS
 62
    4
 10
327.53485602301521
 20
186.10688905458193
 11
330.25741164748734
 21
183.38433343010982
  0
LINE
  8
_1-1_
  6
CONTINUOUS
 62
    4
 10
329.09536000844594
 20
186.80912327122044
 11
331.81791563291807
 21
184.08655527475719
  0
LINE
  8
_1-1_
  6
CONTINUOUS
 62
    4
 10
330.65586399387672
 20
187.51134511586784
 11
333.37841961834886
 21
184.78877711940456
  0
LINE
  8
_1-1_
  6
CONTINUOUS
 62
    4
 10
332.21636797930745
 20
188.21357933250636
 11
334.93894834776182
 21
185.49101133604307
  0
LINE
  8
_1-1_
  6
CONTINUOUS
 62
    4
 10
333.77689670872047
 20
188.91580117715372
 11
336.49945233319261
 21
186.19324555268159
  0
LINE
  8
_1-1_
  6
CONTINUOUS
 62
    4
 10
335.3374006941512
 20
189.61803539379224
 11
338.05995631862334
 21
186.8954797693201
  0
LINE
  8
_1-1_
  6
CONTINUOUS
 62
    4
 10
336.89790467958193
 20
190.32025723843961
 11
339.62046030405406
 21
187.5977016139675
  0
LINE
  8
_1-1_
  6
CONTINUOUS
 62
    4
 10
338.45840866501271
 20
191.02249145507812
 11
341.18096428948479
 21
188.29992345861487
  0
LINE
  8
_1-1_
  6
CONTINUOUS
 62
    4
 10
340.01891265044344
 20
191.72471329972552
 11
342.74146827491558
 21
189.00215767525339
  0
LINE
  8
_1-1_
  6
CONTINUOUS
 62
    4
 10
341.57941663587417
 20
192.42694751636404
 11
344.3019722603463
 21
189.7043918918919
  0
LINE
  8
_1-1_
  6
CONTINUOUS
 62
    4
 10
343.1399206213049
 20
193.12916936101141
 11
345.86247624577703
 21
190.40661373653927
  0
LINE
  8
_1-1_
  6
CONTINUOUS
 62
    4
 10
344.70044935071792
 20
193.83140357764992
 11
347.42300497519005
 21
191.10884795317779
  0
LINE
  8
_1-1_
  6
CONTINUOUS
 62
    4
 10
346.26095333614865
 20
194.53362542229732
 11
348.98348421663854
 21
191.81106979782518
  0
LINE
  8
_1-1_
  6
CONTINUOUS
 62
    4
 10
347.82145732157943
 20
195.23585963893584
 11
350.54401294605157
 21
192.5133040144637
  0
LINE
  8
_1-1_
  6
CONTINUOUS
 62
    4
 10
349.38196130701016
 20
195.9380814835832
 11
352.10451693148229
 21
193.21552585911107
  0
LINE
  8
_1-1_
  6
CONTINUOUS
 62
    4
 10
350.94246529244089
 20
196.64031570022172
 11
353.66499617293078
 21
193.91774770375847
  0
LINE
  8
_1-1_
  6
CONTINUOUS
 62
    4
 10
352.50296927787161
 20
197.34253754486909
 11
355.22552490234375
 21
194.61998192039698
  0
LINE
  8
_1-1_
  6
CONTINUOUS
 62
    4
 10
354.0634732633024
 20
198.0447717615076
 11
356.78605363175677
 21
195.3222161370355
  0
LINE
  8
_1-1_
  6
CONTINUOUS
 62
    4
 10
355.62397724873313
 20
198.746993606155
 11
358.3465576171875
 21
196.02443798168287
  0
LINE
  8
_1-1_
  6
CONTINUOUS
 62
    4
 10
357.18448123416385
 20
199.44922782279352
 11
359.90706160261828
 21
196.72665982633023
  0
LINE
  8
_1-1_
  6
CONTINUOUS
 62
    4
 10
358.74500996357688
 20
200.15144966744089
 11
361.46756558804901
 21
197.42889404296875
  0
LINE
  8
_1-1_
  6
CONTINUOUS
 62
    4
 10
360.3055139490076
 20
200.8536838840794
 11
363.02806957347974
 21
198.13112825960727
  0
LINE
  8
_1-1_
  6
CONTINUOUS
 62
    4
 10
361.86601793443839
 20
201.55591810071792
 11
364.58857355891047
 21
198.83333773226352
  0
LINE
  8
_1-1_
  6
CONTINUOUS
 62
    4
 10
363.42652191986912
 20
202.25813994536529
 11
366.14907754434125
 21
199.53557194890203
  0
LINE
  8
_1-1_
  6
CONTINUOUS
 62
    4
 10
364.98702590529984
 20
202.9603741620038
 11
367.70958152977198
 21
200.23780616554055
  0
LINE
  8
_1-1_
  6
CONTINUOUS
 62
    4
 10
366.54752989073057
 20
203.6625960066512
 11
369.270110259185
 21
200.94004038217906
  0
LINE
  8
_1-1_
  6
CONTINUOUS
 62
    4
 10
368.10803387616136
 20
204.36483022328972
 11
370.83058950063349
 21
201.64226222682646
  0
LINE
  8
_1-1_
  6
CONTINUOUS
 62
    4
 10
369.66853786159209
 20
205.06705206793708
 11
372.39109348606422
 21
202.34448407147383
  0
LINE
  8
_1-1_
  6
CONTINUOUS
 62
    4
 10
371.22906659100511
 20
205.7692862845756
 11
373.95162221547724
 21
203.04671828811234
  0
LINE
  8
_1-1_
  6
CONTINUOUS
 62
    4
 10
372.78957057643584
 20
206.471508129223
 11
375.51215094489021
 21
203.74895250475086
  0
LINE
  8
_1-1_
  6
CONTINUOUS
 62
    4
 10
374.35004981788433
 20
207.17372997387037
 11
377.07260544235646
 21
204.45116197740711
  0
LINE
  8
_1-1_
  6
CONTINUOUS
 62
    4
 10
375.91057854729729
 20
207.87595181851773
 11
378.63313417176943
 21
205.15339619404563
  0
LINE
  8
_1-1_
  6
CONTINUOUS
 62
    4
 10
377.47108253272808
 20
208.57818603515625
 11
377.956633696685
 21
208.09263487119932
  0
LINE
  8
_1-1_
  6
CONTINUOUS
 62
    4
 10
8.6087546477446608
 20
206.35164827913852
 11
10.69986085633974
 21
204.26054671004013
  0
LINE
  8
_1-1_
  6
CONTINUOUS
 62
    4
 10
9.3109888643831766
 20
207.91215226456927
 11
14.813928346376173
 21
202.40921432907518
  0
LINE
  8
_1-1_
  6
CONTINUOUS
 62
    4
 10
11.750348065350522
 20
207.73552971917232
 11
18.927995836412578
 21
200.55788194811024
  0
LINE
  8
_1-1_
  6
CONTINUOUS
 62
    4
 10
15.864418648384714
 20
205.88419733820737
 11
23.04206487294789
 21
198.70654956714529
  0
LINE
  8
_1-1_
  6
CONTINUOUS
 62
    4
 10
19.978476859427786
 20
204.03286495724242
 11
27.15612463048987
 21
196.85522955817146
  0
LINE
  8
_1-1_
  6
CONTINUOUS
 62
    4
 10
24.092547442462006
 20
202.18154494826859
 11
31.270189027528517
 21
195.00389717720651
  0
LINE
  8
_1-1_
  6
CONTINUOUS
 62
    4
 10
28.206605653505079
 20
200.33021256730365
 11
35.384256517564921
 21
193.15256479624156
  0
LINE
  8
_1-1_
  6
CONTINUOUS
 62
    4
 10
32.320676236539271
 20
198.4788801863387
 11
39.498320914603568
 21
191.30123241527662
  0
LINE
  8
_1-1_
  6
CONTINUOUS
 62
    4
 10
36.434759191564609
 20
196.62754780537375
 11
43.612391497637788
 21
189.44990003431167
  0
LINE
  8
_1-1_
  6
CONTINUOUS
 62
    4
 10
40.548817402607682
 20
194.7762154244088
 11
47.726455894676405
 21
187.59858002533784
  0
LINE
  8
_1-1_
  6
CONTINUOUS
 62
    4
 10
44.662887985641902
 20
192.92488304344386
 11
51.840526477710625
 21
185.74723527238177
  0
LINE
  8
_1-1_
  6
CONTINUOUS
 62
    4
 10
48.776958568676093
 20
191.07355066247891
 11
55.95459396774703
 21
183.89591526340794
  0
LINE
  8
_1-1_
  6
CONTINUOUS
 62
    4
 10
52.891004407728047
 20
189.22223065350508
 11
60.06866455078125
 21
182.044582882443
  0
LINE
  8
_1-1_
  6
CONTINUOUS
 62
    4
 10
57.005087362753386
 20
187.37088590054898
 11
64.182722761824323
 21
180.19325050147805
  0
LINE
  8
_1-1_
  6
CONTINUOUS
 62
    4
 10
61.119145573796459
 20
185.51956589157518
 11
68.296793344858543
 21
178.3419181205131
  0
LINE
  8
_1-1_
  6
CONTINUOUS
 62
    4
 10
65.233216156830679
 20
183.66823351061024
 11
72.410857741897189
 21
176.49058573954815
  0
LINE
  8
_1-1_
  6
CONTINUOUS
 62
    4
 10
69.34728673986487
 20
181.81690112964529
 11
76.524915952940262
 21
174.63926573057432
  0
LINE
  8
_1-1_
  6
CONTINUOUS
 62
    4
 10
73.461320206925677
 20
179.96558112067146
 11
80.638961791992188
 21
172.78794572160052
  0
LINE
  8
_1-1_
  6
CONTINUOUS
 62
    4
 10
77.575390789959897
 20
178.11426111169766
 11
84.753026189030834
 21
170.93661334063557
  0
LINE
  8
_1-1_
  6
CONTINUOUS
 62
    4
 10
81.689436629011823
 20
176.26294110272383
 11
88.86709677206504
 21
169.08528095967063
  0
LINE
  8
_1-1_
  6
CONTINUOUS
 62
    4
 10
85.80349484005491
 20
174.41160872175888
 11
92.981142611116979
 21
167.2339609506968
  0
LINE
  8
_1-1_
  6
CONTINUOUS
 62
    4
 10
89.917571609084675
 20
172.56027634079393
 11
97.095219380146759
 21
165.38262856973185
  0
LINE
  8
_1-1_
  6
CONTINUOUS
 62
    4
 10
94.031636006123321
 20
170.70894395982899
 11
101.2092652191987
 21
163.53130856075802
  0
LINE
  8
_1-1_
  6
CONTINUOUS
 62
    4
 10
98.145694217166394
 20
168.85762395085516
 11
105.32332961623733
 21
161.67997617979307
  0
LINE
  8
_1-1_
  6
CONTINUOUS
 62
    4
 10
102.25978335818729
 20
167.00627919789909
 11
109.4374249432538
 21
159.82863142683701
  0
LINE
  8
_1-1_
  6
CONTINUOUS
 62
    4
 10
106.37384775522594
 20
165.15494681693414
 11
113.55149552628801
 21
157.97729904587206
  0
LINE
  8
_1-1_
  6
CONTINUOUS
 62
    4
 10
110.48791833826014
 20
163.30362680796031
 11
117.66556610932221
 21
156.12597903689823
  0
LINE
  8
_1-1_
  6
CONTINUOUS
 62
    4
 10
114.60197654930322
 20
161.45228205500422
 11
121.77963669235642
 21
154.27464665593328
  0
LINE
  8
_1-1_
  6
CONTINUOUS
 62
    4
 10
118.71603476034629
 20
159.60096204603042
 11
125.89368253140837
 21
152.42332664695948
  0
LINE
  8
_1-1_
  6
CONTINUOUS
 62
    4
 10
122.83009297138936
 20
157.74964203705659
 11
130.00775311444258
 21
150.57198189400339
  0
LINE
  8
_1-1_
  6
CONTINUOUS
 62
    4
 10
126.9441759264147
 20
155.89830965609164
 11
134.1217989534945
 21
148.72066188502956
  0
LINE
  8
_1-1_
  6
CONTINUOUS
 62
    4
 10
131.05823413745779
 20
154.04697727512669
 11
138.23588190851984
 21
146.86932950406461
  0
LINE
  8
_1-1_
  6
CONTINUOUS
 62
    4
 10
135.17227997650971
 20
152.19565726615289
 11
142.3499277475718
 21
145.01800949509081
  0
LINE
  8
_1-1_
  6
CONTINUOUS
 62
    4
 10
139.28635055954393
 20
150.34432488518794
 11
146.46399833060602
 21
143.16667711412586
  0
LINE
  8
_1-1_
  6
CONTINUOUS
 62
    4
 10
143.40042114257812
 20
148.49299250422297
 11
150.57805654164909
 21
141.31535710515203
  0
LINE
  8
_1-1_
  6
CONTINUOUS
 62
    4
 10
147.51451646959461
 20
146.6416477512669
 11
154.69215186866555
 21
139.46401235219597
  0
LINE
  8
_1-1_
  6
CONTINUOUS
 62
    4
 10
151.62856230864654
 20
144.79032774229307
 11
158.8061977077175
 21
137.61269234322214
  0
LINE
  8
_1-1_
  6
CONTINUOUS
 62
    4
 10
155.74265763566302
 20
142.93898298933701
 11
162.92029303473396
 21
135.76134759026604
  0
LINE
  8
_1-1_
  6
CONTINUOUS
 62
    4
 10
159.85669110272383
 20
141.08766298036318
 11
167.03433887378591
 21
133.91002758129224
  0
LINE
  8
_1-1_
  6
CONTINUOUS
 62
    4
 10
163.97077405774917
 20
139.23633059939823
 11
171.14842182881125
 21
132.05868282833615
  0
LINE
  8
_1-1_
  6
CONTINUOUS
 62
    4
 10
168.08483226879224
 20
137.38501059042443
 11
175.26248003985432
 21
130.20736281936234
  0
LINE
  8
_1-1_
  6
CONTINUOUS
 62
    4
 10
172.19890285182643
 20
135.53367820945948
 11
179.37655062288852
 21
128.35601806640625
  0
LINE
  8
_1-1_
  6
CONTINUOUS
 62
    4
 10
176.31297343486065
 20
133.6823458284945
 11
183.49062120592274
 21
126.50469805743244
  0
LINE
  8
_1-1_
  6
CONTINUOUS
 62
    4
 10
180.42704401789487
 20
131.83101344752956
 11
187.60469178895693
 21
124.65336567646749
  0
LINE
  8
_1-1_
  6
CONTINUOUS
 62
    4
 10
184.5410898569468
 20
129.97969343855576
 11
191.71873762800888
 21
122.80203329550254
  0
LINE
  8
_1-1_
  6
CONTINUOUS
 62
    4
 10
188.65514806798987
 20
128.12836105759081
 11
193.67441538217906
 21
123.10909374340162
  0
LINE
  8
_1-1_
  6
CONTINUOUS
 62
    4
 10
192.76921865102409
 20
126.27702867662585
 11
193.67441538217906
 21
125.37183194547087
  0
LINE
  8
_1-1_
  6
CONTINUOUS
 62
    4
 10
192.56584786080026
 20
122.42085224873311
 11
193.67441538217906
 21
123.52943214210305
  0
LINE
  8
_1-1_
  6
CONTINUOUS
 62
    4
 10
191.00533150337839
 20
123.12308646537163
 11
193.67441538217906
 21
125.79217034417231
  0
LINE
  8
_1-1_
  6
CONTINUOUS
 62
    4
 10
189.44481514595651
 20
123.82530831001901
 11
192.16737077042865
 21
126.54786393449113
  0
LINE
  8
_1-1_
  6
CONTINUOUS
 62
    4
 10
187.88431116052578
 20
124.52753015466639
 11
190.60686678499789
 21
127.25009815112965
  0
LINE
  8
_1-1_
  6
CONTINUOUS
 62
    4
 10
186.32379480310391
 20
125.22976437130491
 11
189.04635042757602
 21
127.95231999577703
  0
LINE
  8
_1-1_
  6
CONTINUOUS
 62
    4
 10
184.76329081767315
 20
125.93199858794343
 11
187.48584644214529
 21
128.65455421241555
  0
LINE
  8
_1-1_
  6
CONTINUOUS
 62
    4
 10
183.20277446025128
 20
126.63423280458193
 11
185.92533008472341
 21
129.35677605706292
  0
LINE
  8
_1-1_
  6
CONTINUOUS
 62
    4
 10
181.64227047482052
 20
127.33645464922931
 11
184.36482609929266
 21
130.05901027370143
  0
LINE
  8
_1-1_
  6
CONTINUOUS
 62
    4
 10
180.08176648938979
 20
128.03867649387669
 11
182.80430974187078
 21
130.76123211834883
  0
LINE
  8
_1-1_
  6
CONTINUOUS
 62
    4
 10
178.52125013196792
 20
128.74091071051521
 11
181.24380575644005
 21
131.46346633498734
  0
LINE
  8
_1-1_
  6
CONTINUOUS
 62
    4
 10
176.96073377454604
 20
129.44314492715372
 11
179.6833017710093
 21
132.16570055162586
  0
LINE
  8
_1-1_
  6
CONTINUOUS
 62
    4
 10
175.40021741712417
 20
130.14537914379224
 11
178.12278541358742
 21
132.86792239627323
  0
LINE
  8
_1-1_
  6
CONTINUOUS
 62
    4
 10
173.83972580368456
 20
130.84760098843961
 11
176.56228142815669
 21
133.57015661291175
  0
LINE
  8
_1-1_
  6
CONTINUOUS
 62
    4
 10
172.27920944626268
 20
131.54982283308701
 11
175.00176507073482
 21
134.27237845755914
  0
LINE
  8
_1-1_
  6
CONTINUOUS
 62
    4
 10
170.71869308884081
 20
132.25205704972552
 11
173.44126108530406
 21
134.97461267419763
  0
LINE
  8
_1-1_
  6
CONTINUOUS
 62
    4
 10
169.15818910341005
 20
132.95429126636404
 11
171.88073235589107
 21
135.67684689083615
  0
LINE
  8
_1-1_
  6
CONTINUOUS
 62
    4
 10
167.59767274598818
 20
133.65652548300255
 11
170.32022837046031
 21
136.37908110747466
  0
LINE
  8
_1-1_
  6
CONTINUOUS
 62
    4
 10
166.0371563885663
 20
134.35875969964104
 11
168.75972438502956
 21
137.08130295212206
  0
LINE
  8
_1-1_
  6
CONTINUOUS
 62
    4
 10
164.47665240313557
 20
135.06099391627956
 11
167.19920802760768
 21
137.78353716876057
  0
LINE
  8
_1-1_
  6
CONTINUOUS
 62
    4
 10
162.91614841770482
 20
135.76320338893581
 11
165.63869167018581
 21
138.48577138539909
  0
LINE
  8
_1-1_
  6
CONTINUOUS
 62
    4
 10
161.35563206028294
 20
136.46543760557432
 11
164.07818768475508
 21
139.18799323004646
  0
LINE
  8
_1-1_
  6
CONTINUOUS
 62
    4
 10
159.79511570286107
 20
137.16767182221284
 11
162.51768369932432
 21
139.89022744668497
  0
LINE
  8
_1-1_
  6
CONTINUOUS
 62
    4
 10
158.23461171743034
 20
137.86990603885135
 11
160.95715496991133
 21
140.59246166332349
  0
LINE
  8
_1-1_
  6
CONTINUOUS
 62
    4
 10
156.67409536000847
 20
138.57214025548987
 11
159.39663861248945
 21
141.29469587996201
  0
LINE
  8
_1-1_
  6
CONTINUOUS
 62
    4
 10
155.11357900258659
 20
139.27437447212839
 11
157.8361346270587
 21
141.99691772460937
  0
LINE
  8
_1-1_
  6
CONTINUOUS
 62
    4
 10
153.55307501715583
 20
139.97658394478464
 11
156.27563064162797
 21
142.69915194124789
  0
LINE
  8
_1-1_
  6
CONTINUOUS
 62
    4
 10
151.99255865973396
 20
140.67881816142315
 11
154.71511428420609
 21
143.40137378589529
  0
LINE
  8
_1-1_
  6
CONTINUOUS
 62
    4
 10
150.43205467430323
 20
141.38105237806167
 11
153.15461029877534
 21
144.1036080025338
  0
LINE
  8
_1-1_
  6
CONTINUOUS
 62
    4
 10
148.87155068887247
 20
142.08328659470018
 11
151.59409394135346
 21
144.80584221917229
  0
LINE
  8
_1-1_
  6
CONTINUOUS
 62
    4
 10
147.31100958746833
 20
142.7855208113387
 11
150.03357758393159
 21
145.50807643581081
  0
LINE
  8
_1-1_
  6
CONTINUOUS
 62
    4
 10
145.75050560203761
 20
143.48775502797722
 11
148.47307359850086
 21
146.2102982804582
  0
LINE
  8
_1-1_
  6
CONTINUOUS
 62
    4
 10
144.19000161660685
 20
144.18997687262458
 11
146.91255724107899
 21
146.91253249709672
  0
LINE
  8
_1-1_
  6
CONTINUOUS
 62
    4
 10
142.62949763117609
 20
144.89219871727198
 11
145.35205325564823
 21
147.61475434174409
  0
LINE
  8
_1-1_
  6
CONTINUOUS
 62
    4
 10
141.06898127375422
 20
145.59443293391047
 11
143.79153689822635
 21
148.3169885583826
  0
LINE
  8
_1-1_
  6
CONTINUOUS
 62
    4
 10
139.50847728832349
 20
146.29666715054898
 11
142.23103291279563
 21
149.01922277502112
  0
LINE
  8
_1-1_
  6
CONTINUOUS
 62
    4
 10
137.94796093090162
 20
146.9989013671875
 11
140.67051655537375
 21
149.72144461966852
  0
LINE
  8
_1-1_
  6
CONTINUOUS
 62
    4
 10
136.38744457347974
 20
147.70113558382602
 11
139.11000019795188
 21
150.423678836307
  0
LINE
  8
_1-1_
  6
CONTINUOUS
 62
    4
 10
134.82692821605787
 20
148.40335742847341
 11
137.54948384053
 21
151.12591305294552
  0
LINE
  8
_1-1_
  6
CONTINUOUS
 62
    4
 10
133.26642423062711
 20
149.10557927312078
 11
135.98896748310813
 21
151.82814726958404
  0
LINE
  8
_1-1_
  6
CONTINUOUS
 62
    4
 10
131.70590787320523
 20
149.8078134897593
 11
134.42846349767737
 21
152.53036911423143
  0
LINE
  8
_1-1_
  6
CONTINUOUS
 62
    4
 10
130.14540388777451
 20
150.51004770639781
 11
132.86795951224664
 21
153.23260333086995
  0
LINE
  8
_1-1_
  6
CONTINUOUS
 62
    4
 10
128.58488753035263
 20
151.21228192303633
 11
131.30744315482477
 21
153.93483754750847
  0
LINE
  8
_1-1_
  6
CONTINUOUS
 62
    4
 10
127.02438354492188
 20
151.9145037676837
 11
129.74693916939401
 21
154.63705939215583
  0
LINE
  8
_1-1_
  6
CONTINUOUS
 62
    4
 10
125.46387955949113
 20
152.61672561233109
 11
128.18643518396325
 21
155.33928123680323
  0
LINE
  8
_1-1_
  6
CONTINUOUS
 62
    4
 10
123.90335083007812
 20
153.31895982896961
 11
126.62590645455026
 21
156.04151545344172
  0
LINE
  8
_1-1_
  6
CONTINUOUS
 62
    4
 10
122.34283447265625
 20
154.02119404560813
 11
125.06539009712839
 21
156.74374967008023
  0
LINE
  8
_1-1_
  6
CONTINUOUS
 62
    4
 10
120.78233048722551
 20
154.72342826224664
 11
123.50488611169764
 21
157.44598388671875
  0
LINE
  8
_1-1_
  6
CONTINUOUS
 62
    4
 10
119.22181412980363
 20
155.42566247888513
 11
121.9443821262669
 21
158.14821810335727
  0
LINE
  8
_1-1_
  6
CONTINUOUS
 62
    4
 10
117.66131014437289
 20
156.12788432353253
 11
120.38386576884503
 21
158.85043994800466
  0
LINE
  8
_1-1_
  6
CONTINUOUS
 62
    4
 10
116.10080615894215
 20
156.83011854017104
 11
118.82336178341428
 21
159.55267416464318
  0
LINE
  8
_1-1_
  6
CONTINUOUS
 62
    4
 10
114.54028980152027
 20
157.53235275680956
 11
117.26284542599241
 21
160.25489600929055
  0
LINE
  8
_1-1_
  6
CONTINUOUS
 62
    4
 10
112.97978581608953
 20
158.23457460145693
 11
115.70234144056167
 21
160.95713022592906
  0
LINE
  8
_1-1_
  6
CONTINUOUS
 62
    4
 10
111.41926945866766
 20
158.93680881809544
 11
114.14182508313979
 21
161.65936444256758
  0
LINE
  8
_1-1_
  6
CONTINUOUS
 62
    4
 10
109.85876547323691
 20
159.63903066274284
 11
112.58130872571792
 21
162.36158628721495
  0
LINE
  8
_1-1_
  6
CONTINUOUS
 62
    4
 10
108.29824911581504
 20
160.34126487938136
 11
111.02080474028716
 21
163.06382050385346
  0
LINE
  8
_1-1_
  6
CONTINUOUS
 62
    4
 10
106.7377451303843
 20
161.04348672402872
 11
109.46030075485642
 21
163.76604234850086
  0
LINE
  8
_1-1_
  6
CONTINUOUS
 62
    4
 10
105.17722877296242
 20
161.74572094066724
 11
107.89978439743454
 21
164.46827656513938
  0
LINE
  8
_1-1_
  6
CONTINUOUS
 62
    4
 10
103.61671241554055
 20
162.44795515730576
 11
106.33926804001267
 21
165.17051078177789
  0
LINE
  8
_1-1_
  6
CONTINUOUS
 62
    4
 10
102.05620843010981
 20
163.15018937394427
 11
104.77876405458193
 21
165.87274499841641
  0
LINE
  8
_1-1_
  6
CONTINUOUS
 62
    4
 10
100.49569207268793
 20
163.85241121859164
 11
103.21825388315563
 21
166.57496684306378
  0
LINE
  8
_1-1_
  6
CONTINUOUS
 62
    4
 10
98.935181901261615
 20
164.55464543523016
 11
101.65774371172931
 21
167.27720105970229
  0
LINE
  8
_1-1_
  6
CONTINUOUS
 62
    4
 10
97.374677915830873
 20
165.25686727987755
 11
100.09722735430744
 21
167.97942290434966
  0
LINE
  8
_1-1_
  6
CONTINUOUS
 62
    4
 10
95.814167744404571
 20
165.95910149651607
 11
98.536717182881134
 21
168.68165712098818
  0
LINE
  8
_1-1_
  6
CONTINUOUS
 62
    4
 10
94.253663758973829
 20
166.66133571315456
 11
96.976213197450392
 21
169.38389133762669
  0
LINE
  8
_1-1_
  6
CONTINUOUS
 62
    4
 10
92.693153587547513
 20
167.36355755780195
 11
95.415709212019635
 21
170.08611318227409
  0
LINE
  8
_1-1_
  6
CONTINUOUS
 62
    4
 10
91.132643416121198
 20
168.06579177444047
 11
93.855199040593334
 21
170.78834739891261
  0
LINE
  8
_1-1_
  6
CONTINUOUS
 62
    4
 10
89.572127058699323
 20
168.76801361908784
 11
92.294682683171459
 21
171.49056924355997
  0
LINE
  8
_1-1_
  6
CONTINUOUS
 62
    4
 10
88.011610701277448
 20
169.47024783572635
 11
90.734166325749584
 21
172.19280346019849
  0
LINE
  8
_1-1_
  6
CONTINUOUS
 62
    4
 10
86.451100529851146
 20
170.17248205236487
 11
89.173649968327709
 21
172.89503767683701
  0
LINE
  8
_1-1_
  6
CONTINUOUS
 62
    4
 10
84.890584172429271
 20
170.87471626900339
 11
87.613145982896967
 21
173.59727189347552
  0
LINE
  8
_1-1_
  6
CONTINUOUS
 62
    4
 10
83.330074001002956
 20
171.5769504856419
 11
86.052617253483959
 21
174.29950611011404
  0
LINE
  8
_1-1_
  6
CONTINUOUS
 62
    4
 10
81.769563829576668
 20
172.27917233028927
 11
84.492113268053217
 21
175.00172795476141
  0
LINE
  8
_1-1_
  6
CONTINUOUS
 62
    4
 10
80.209047472154793
 20
172.98140654692779
 11
82.931596910631342
 21
175.70396217139992
  0
LINE
  8
_1-1_
  6
CONTINUOUS
 62
    4
 10
78.648531114732918
 20
173.6836407635663
 11
81.371080553209481
 21
176.40619638803844
  0
LINE
  8
_1-1_
  6
CONTINUOUS
 62
    4
 10
77.088020943306589
 20
174.3858626082137
 11
79.810564195787606
 21
177.10843060467695
  0
LINE
  8
_1-1_
  6
CONTINUOUS
 62
    4
 10
75.527516957875832
 20
175.08809682485222
 11
78.250072582347968
 21
177.81065244932432
  0
LINE
  8
_1-1_
  6
CONTINUOUS
 62
    4
 10
73.966994414458412
 20
175.79033104149073
 11
76.689543852934975
 21
178.51288666596284
  0
LINE
  8
_1-1_
  6
CONTINUOUS
 62
    4
 10
72.406484243032082
 20
176.49256525812925
 11
75.129039867504218
 21
179.21512088260135
  0
LINE
  8
_1-1_
  6
CONTINUOUS
 62
    4
 10
70.845967885610207
 20
177.19479947476773
 11
73.568511138091225
 21
179.91735509923987
  0
LINE
  8
_1-1_
  6
CONTINUOUS
 62
    4
 10
69.285451528188332
 20
177.89702131941513
 11
72.00799478066935
 21
180.61958931587839
  0
LINE
  8
_1-1_
  6
CONTINUOUS
 62
    4
 10
67.724935170766457
 20
178.59925553605365
 11
70.447490795238593
 21
181.32181116052578
  0
LINE
  8
_1-1_
  6
CONTINUOUS
 62
    4
 10
66.164424999340156
 20
179.30148975269216
 11
68.886986809807865
 21
182.02403300517315
  0
LINE
  8
_1-1_
  6
CONTINUOUS
 62
    4
 10
64.603914827913854
 20
180.00371159733953
 11
67.326482824377109
 21
182.72626722181167
  0
LINE
  8
_1-1_
  6
CONTINUOUS
 62
    4
 10
63.043410842483127
 20
180.70594581397805
 11
65.765966466955234
 21
183.42850143845018
  0
LINE
  8
_1-1_
  6
CONTINUOUS
 62
    4
 10
61.482900671056797
 20
181.40818003061656
 11
64.205450109533359
 21
184.1307356550887
  0
LINE
  8
_1-1_
  6
CONTINUOUS
 62
    4
 10
59.922378127639377
 20
182.11041424725508
 11
62.644921380120365
 21
184.83296987172722
  0
LINE
  8
_1-1_
  6
CONTINUOUS
 62
    4
 10
58.361867956213047
 20
182.81263609190245
 11
61.084417394689609
 21
185.53520408836573
  0
LINE
  8
_1-1_
  6
CONTINUOUS
 62
    4
 10
56.801357784786745
 20
183.51487030854096
 11
59.523913409258881
 21
186.2374259330131
  0
LINE
  8
_1-1_
  6
CONTINUOUS
 62
    4
 10
55.24084142736487
 20
184.21710452517948
 11
57.963409423828125
 21
186.9396477776605
  0
LINE
  8
_1-1_
  6
CONTINUOUS
 62
    4
 10
53.680325069942995
 20
184.91932636982688
 11
56.402880694415131
 21
187.64188199429898
  0
LINE
  8
_1-1_
  6
CONTINUOUS
 62
    4
 10
52.11980871252112
 20
185.62156058646539
 11
54.842364336993256
 21
188.3441162109375
  0
LINE
  8
_1-1_
  6
CONTINUOUS
 62
    4
 10
50.559301634092606
 20
186.32379480310391
 11
53.281847979571381
 21
189.04635042757602
  0
LINE
  8
_1-1_
  6
CONTINUOUS
 62
    4
 10
48.998791462666276
 20
187.0260290197424
 11
51.721343994140625
 21
189.74858464421453
  0
LINE
  8
_1-1_
  6
CONTINUOUS
 62
    4
 10
47.438275105244401
 20
187.72825086438979
 11
50.16082763671875
 21
190.45081886085305
  0
LINE
  8
_1-1_
  6
CONTINUOUS
 62
    4
 10
45.877761840820313
 20
188.43048508102831
 11
48.600323651288022
 21
191.15304070550044
  0
LINE
  8
_1-1_
  6
CONTINUOUS
 62
    4
 10
44.317245483398438
 20
189.13271929766682
 11
47.039794921875
 21
191.85527492213896
  0
LINE
  8
_1-1_
  6
CONTINUOUS
 62
    4
 10
42.75674149796771
 20
189.83494114231419
 11
45.479290936444272
 21
192.55749676678633
  0
LINE
  8
_1-1_
  6
CONTINUOUS
 62
    4
 10
41.196234419539167
 20
190.53717535895271
 11
43.918786951013516
 21
193.25973098342484
  0
LINE
  8
_1-1_
  6
CONTINUOUS
 62
    4
 10
39.635724248112865
 20
191.23939720360011
 11
42.35828296558276
 21
193.96196520006336
  0
LINE
  8
_1-1_
  6
CONTINUOUS
 62
    4
 10
38.075223355679896
 20
191.94163142023862
 11
40.797778980152032
 21
194.66418704471073
  0
LINE
  8
_1-1_
  6
CONTINUOUS
 62
    4
 10
36.514719370249168
 20
192.64385326488599
 11
39.237274994721275
 21
195.36640888935813
  0
LINE
  8
_1-1_
  6
CONTINUOUS
 62
    4
 10
34.954209198822838
 20
193.34608748152451
 11
37.676771009290547
 21
196.06864310599664
  0
LINE
  8
_1-1_
  6
CONTINUOUS
 62
    4
 10
33.393699027396536
 20
194.04830932617187
 11
36.116267023859791
 21
196.77086495064401
  0
LINE
  8
_1-1_
  6
CONTINUOUS
 62
    4
 10
31.833191948968022
 20
194.75054354281039
 11
34.555750666437916
 21
197.47309916728253
  0
LINE
  8
_1-1_
  6
CONTINUOUS
 62
    4
 10
30.272684870539479
 20
195.45276538745779
 11
32.995234309016041
 21
198.1753210119299
  0
LINE
  8
_1-1_
  6
CONTINUOUS
 62
    4
 10
28.712174699113177
 20
196.1549996040963
 11
31.434730323585313
 21
198.87755522856841
  0
LINE
  8
_1-1_
  6
CONTINUOUS
 62
    4
 10
27.151667620684663
 20
196.85723382073482
 11
29.874213966163438
 21
199.57978944520693
  0
LINE
  8
_1-1_
  6
CONTINUOUS
 62
    4
 10
25.591166728251693
 20
197.55945566538219
 11
28.313722352723829
 21
200.28201128985432
  0
LINE
  8
_1-1_
  6
CONTINUOUS
 62
    4
 10
24.030658103324271
 20
198.26167751002959
 11
26.753218367293073
 21
200.98423313450169
  0
LINE
  8
_1-1_
  6
CONTINUOUS
 62
    4
 10
22.470152571394635
 20
198.96391172666807
 11
25.192714381862345
 21
201.68646735114021
  0
LINE
  8
_1-1_
  6
CONTINUOUS
 62
    4
 10
20.909643946467213
 20
199.66613357131547
 11
23.63219802444047
 21
202.38870156777872
  0
LINE
  8
_1-1_
  6
CONTINUOUS
 62
    4
 10
19.349135321539791
 20
200.36836778795399
 11
22.071694039009714
 21
203.09092341242612
  0
LINE
  8
_1-1_
  6
CONTINUOUS
 62
    4
 10
17.788628243111276
 20
201.0706020045925
 11
20.511190053578957
 21
203.79314525707349
  0
LINE
  8
_1-1_
  6
CONTINUOUS
 62
    4
 10
16.228121164682761
 20
201.77282384923987
 11
18.950673696157082
 21
204.49537947371201
  0
LINE
  8
_1-1_
  6
CONTINUOUS
 62
    4
 10
14.667614086254218
 20
202.47505806587839
 11
17.390169710726354
 21
205.19761369035052
  0
LINE
  8
_1-1_
  6
CONTINUOUS
 62
    4
 10
13.107113193821249
 20
203.17727991052578
 11
15.829665725295598
 21
205.89983553499789
  0
LINE
  8
_1-1_
  6
CONTINUOUS
 62
    4
 10
11.546605342143295
 20
203.87950175517315
 11
14.26916173986487
 21
206.60205737964529
  0
LINE
  8
_1-1_
  6
CONTINUOUS
 62
    4
 10
9.9860974904653119
 20
204.58173597181167
 11
12.708657754434114
 21
207.3042915962838
  0
LINE
  8
_1-1_
  6
CONTINUOUS
 62
    4
 10
8.4255888655378897
 20
205.28397018845018
 11
11.148153769003386
 21
208.00652581292232
  0
LINE
  8
_1-c_
  6
CONTINUOUS
 62
    7
 10
212.30064598289698
 20
154.45474573083825
 11
252.12034483213685
 21
169.11121265308279
  0
LINE
  8
_1-b_
  6
CONTINUOUS
 62
    3
 10
211.57589474239867
 20
143.53209624419341
 11
267.08812816722974
 21
163.96453857421875
  0
LINE
  8
_1-1_
  6
CONTINUOUS
 62
    7
 10
211.57874030035896
 20
143.52438849371833
 11
212.30064598289698
 21
154.45474573083825
  0
LINE
  8
_1-c_
  6
CONTINUOUS
 62
    7
 10
175.04818478146115
 20
154.45474573083825
 11
135.2284859322213
 21
169.11121265308279
  0
LINE
  8
_1-1_
  6
CONTINUOUS
 62
    7
 10
175.77009046399917
 20
143.52438849371833
 11
175.04818478146115
 21
154.45474573083825
  0
LINE
  8
_1-b_
  6
CONTINUOUS
 62
    3
 10
175.77292364996833
 20
143.53209624419341
 11
120.26070259712839
 21
163.96453857421875
  0
LINE
  8
_1-1_
  6
CONTINUOUS
 62
    7
 10
37.864058211043073
 20
197.73891139674834
 11
39.095170304581927
 21
200.4746555637669
  0
LINE
  8
_1-b_
  6
CONTINUOUS
 62
    3
 10
77.400388975401199
 20
183.2516809411951
 11
76.709561734586146
 21
181.37478802655195
  0
LINE
  8
_1-2_
  6
CONTINUOUS
 62
    3
 10
166.41216381176099
 20
140.17099741342906
 11
168.70096979914484
 21
145.25716008366766
  0
LINE
  8
_1-0_
  6
CONTINUOUS
 62
    3
 10
204.17730795370568
 20
104.71657005516259
 11
211.47266284839529
 21
107.99947790197425
  0
LINE
  8
_1-b_
  6
CONTINUOUS
 62
    3
 10
353.35406329180745
 20
206.2683847788218
 11
355.18880483266474
 21
201.28368480785474
  0
LINE
  8
_1-3_
  6
DASHED1
 62
    3
 10
193.63185573268584
 20
126.32551450987121
 11
239.41980310388516
 21
146.9301007245038
  0
LINE
  8
_1-1_
  6
DASHED1
 62
    3
 10
193.67441538217906
 20
126.74695401578337
 11
148.07834522144216
 21
147.26519610430745
  0
LINE
  8
_1-3_
  6
DASHED1
 62
    7
 10
239.33072476773651
 20
146.58544179555534
 11
193.73466697899073
 21
126.06719970703125
  0
LINE
  8
_1-3_
  6
DASHED1
 62
    7
 10
193.73466697899073
 20
126.06719970703125
 11
148.13858444626268
 21
146.58544179555534
  0
LINE
  8
_1-3_
  6
CONTINUOUS
 62
    7
 10
142.20557135504646
 20
133.40095726219386
 11
145.35315436285896
 21
140.39557379645271
  0
LINE
  8
_1-3_
  6
CONTINUOUS
 62
    7
 10
187.61948869035052
 20
112.96469198690879
 11
190.76705932617187
 21
119.95930852116766
  0
LINE
  8
_1-3_
  6
CONTINUOUS
 62
    7
 10
142.20557135504646
 20
133.40095726219386
 11
187.61948869035052
 21
112.96469198690879
  0
LINE
  8
_1-3_
  6
CONTINUOUS
 62
    7
 10
200.13406701990078
 20
111.84630110457138
 11
196.12758327174834
 21
120.74960657068202
  0
LINE
  8
_1-3_
  6
CONTINUOUS
 62
    7
 10
245.73013718063768
 20
132.36453082110432
 11
241.72366580447635
 21
141.26783628721495
  0
LINE
  8
_1-3_
  6
CONTINUOUS
 62
    7
 10
200.13406701990078
 20
111.84630110457138
 11
245.73013718063768
 21
132.36453082110432
  0
LINE
  8
_1-2_
  6
CONTINUOUS
 62
    3
 10
305.59731148384714
 20
70.159576003615925
 11
332.73096857844172
 21
57.949422887853672
  0
LINE
  8
_1-2_
  6
CONTINUOUS
 62
    3
 10
332.73096857844172
 20
57.949422887853672
 11
359.97530550570104
 21
70.209373267921251
  0
LINE
  8
_1-2_
  6
CONTINUOUS
 62
    3
 10
357.78640334670609
 20
75.073545301282735
 11
357.7315954259924
 21
75.195335181983751
  0
LINE
  8
_1-2_
  6
CONTINUOUS
 62
    3
 10
303.77640182907521
 20
76.828413267393373
 11
308.19048082506339
 21
76.828413267393373
  0
LINE
  8
_1-2_
  6
CONTINUOUS
 62
    3
 10
362.22522632495782
 20
77.002054162927578
 11
357.44023503483953
 21
77.002054162927578
  0
LINE
  8
_1-2_
  6
CONTINUOUS
 62
    3
 10
307.85955480627115
 20
75.186736648147175
 11
303.77640182907521
 21
76.828413267393373
  0
LINE
  8
_1-2_
  6
CONTINUOUS
 62
    3
 10
305.59731148384714
 20
70.159576003615925
 11
307.85955480627115
 21
75.186736648147175
  0
LINE
  8
_1-2_
  6
CONTINUOUS
 62
    3
 10
359.97530550570104
 20
70.209373267921251
 11
357.7315954259924
 21
75.195335181983751
  0
LINE
  8
_1-2_
  6
CONTINUOUS
 62
    3
 10
357.7315954259924
 20
75.195335181983751
 11
362.22522632495782
 21
77.002054162927578
  0
LINE
  8
_1-2_
  6
CONTINUOUS
 62
    7
 10
313.4854455896326
 20
96.56258660393793
 11
317.32905207453547
 21
96.56258660393793
  0
LINE
  8
_1-2_
  6
CONTINUOUS
 62
    7
 10
309.19926823796453
 20
81.867086049672722
 11
313.4854455896326
 21
96.56258660393793
  0
LINE
  8
_1-2_
  6
CONTINUOUS
 62
    7
 10
309.19926823796453
 20
81.867086049672722
 11
309.19926823796453
 21
85.6434322047878
  0
LINE
  8
_1-3_
  6
CONTINUOUS
 62
    7
 10
145.13513513513513
 20
220.54054054054055
 11
125.85401792783996
 21
220.54054054054055
  0
ARC
  8
_1-b_
  6
CONTINUOUS
 62
    3
 10
255.52323624894427
 20
164.49804357580237
 40
1.5999999239638045
 50
110.20680236816406
 51
200.20738220214844
  0
ARC
  8
_1-b_
  6
CONTINUOUS
 62
    3
 10
298.38354987067146
 20
183.78518594277872
 40
1.5999999239638045
 50
110.20680236816406
 51
200.20738220214844
  0
ARC
  8
_1-b_
  6
CONTINUOUS
 62
    3
 10
341.23715787320526
 20
203.08719944309544
 40
1.5999999239638045
 50
110.20680236816406
 51
200.20738220214844
  0
ARC
  8
_1-c_
  6
CONTINUOUS
 62
    7
 10
253.03624333562078
 20
171.2548828125
 40
1.5999999239638045
 50
110.20722961425781
 51
200.20695495605469
  0
ARC
  8
_1-c_
  6
CONTINUOUS
 62
    7
 10
295.89655695734797
 20
190.54200043549409
 40
1.5999999239638045
 50
110.20748901367187
 51
200.20695495605469
  0
ARC
  8
_1-c_
  6
CONTINUOUS
 62
    7
 10
338.75016495988177
 20
209.84403867979307
 40
1.5999999239638045
 50
110.20748901367187
 51
200.20695495605469
  0
ARC
  8
_1-b_
  6
CONTINUOUS
 62
    3
 10
131.82559451541385
 20
164.49804357580237
 40
1.5999999239638045
 50
339.79261779785156
 51
69.793197631835938
  0
ARC
  8
_1-b_
  6
CONTINUOUS
 62
    3
 10
88.965280893686653
 20
183.78518594277872
 40
1.5999999239638045
 50
339.79261779785156
 51
69.793197631835938
  0
ARC
  8
_1-b_
  6
CONTINUOUS
 62
    3
 10
46.111672891152864
 20
203.08719944309544
 40
1.5999999239638045
 50
339.79261779785156
 51
69.793197631835938
  0
ARC
  8
_1-c_
  6
CONTINUOUS
 62
    7
 10
134.31258742873734
 20
171.2548828125
 40
1.5999999239638045
 50
339.79304504394526
 51
69.792770385742131
  0
ARC
  8
_1-c_
  6
CONTINUOUS
 62
    7
 10
91.452273807010144
 20
190.54200043549409
 40
1.5999999239638045
 50
339.79304504394526
 51
69.792510986328125
  0
ARC
  8
_1-c_
  6
CONTINUOUS
 62
    7
 10
48.598665804476354
 20
209.84403867979307
 40
1.5999999239638045
 50
339.79304504394526
 51
69.792510986328125
  0
ARC
  8
_1-0_
  6
CONTINUOUS
 62
    3
 10
196.38039253853464
 20
122.04307349952492
 40
0.9999999162313101
 50
114.22773742675781
 51
204.22773742675781
  0
ARC
  8
_1-0_
  6
CONTINUOUS
 62
    3
 10
196.90930753140836
 20
121.84246166332349
 40
0.9999999162313101
 50
114.22773742675781
 51
204.22773742675781
  0
ARC
  8
_1-0_
  6
CONTINUOUS
 62
    3
 10
203.47511085304055
 20
124.79706635346284
 40
0.9999999162313101
 50
24.227737426757813
 51
114.22773742675781
  0
ARC
  8
_1-0_
  6
CONTINUOUS
 62
    3
 10
203.67573506123313
 20
125.32598134633658
 40
0.9999999162313101
 50
24.227737426757813
 51
114.22773742675781
  0
ARC
  8
_1-0_
  6
CONTINUOUS
 62
    3
 10
210.53338128167232
 20
109.11201683250634
 40
0.9999999162313101
 50
294.22773742675781
 51
24.227737426757809
  0
ARC
  8
_1-0_
  6
CONTINUOUS
 62
    3
 10
211.06230864653716
 20
108.91139262431378
 40
0.9999999162313101
 50
294.22773742675781
 51
24.227737426757809
  0
ARC
  8
_1-0_
  6
CONTINUOUS
 62
    3
 10
203.96757796004013
 20
106.15741214236698
 40
0.9999999162313101
 50
204.22773742675781
 51
294.22773742675781
  0
ARC
  8
_1-0_
  6
CONTINUOUS
 62
    3
 10
203.76695375184755
 20
105.62848477750212
 40
0.9999999162313101
 50
204.22773742675781
 51
294.22773742675781
  0
ARC
  8
_1-0_
  6
CONTINUOUS
 62
    3
 10
190.96843822582349
 20
122.04307349952492
 40
0.9999999162313101
 50
335.77293395996094
 51
65.772933959960937
  0
ARC
  8
_1-0_
  6
CONTINUOUS
 62
    3
 10
190.43952323294977
 20
121.84246166332349
 40
0.9999999162313101
 50
335.77293395996094
 51
65.772933959960937
  0
ARC
  8
_1-0_
  6
CONTINUOUS
 62
    3
 10
183.87371991131758
 20
124.79706635346284
 40
0.9999999162313101
 50
65.772933959960937
 51
155.77293395996094
  0
ARC
  8
_1-0_
  6
CONTINUOUS
 62
    3
 10
183.673095703125
 20
125.32598134633658
 40
0.9999999162313101
 50
65.772933959960937
 51
155.77293395996094
  0
ARC
  8
_1-0_
  6
CONTINUOUS
 62
    3
 10
176.81544948268581
 20
109.11201683250634
 40
0.9999999162313101
 50
155.77293395996094
 51
245.77293395996091
  0
ARC
  8
_1-0_
  6
CONTINUOUS
 62
    3
 10
176.28652211782097
 20
108.91139262431378
 40
0.9999999162313101
 50
155.77293395996094
 51
245.77293395996091
  0
ARC
  8
_1-0_
  6
CONTINUOUS
 62
    3
 10
183.381252804318
 20
106.15741214236698
 40
0.9999999162313101
 50
245.77293395996091
 51
335.77293395996094
  0
ARC
  8
_1-0_
  6
CONTINUOUS
 62
    3
 10
183.58187701251057
 20
105.62848477750212
 40
0.9999999162313101
 50
245.77293395996091
 51
335.77293395996094
  0
ARC
  8
_1-0_
  6
CONTINUOUS
 62
    3
 10
352.35415896853885
 20
164.00816221494932
 40
0.9999999162313101
 50
0
 51
90
  0
ARC
  8
_1-0_
  6
CONTINUOUS
 62
    3
 10
355.55414973078547
 20
164.00816221494932
 40
0.9999999162313101
 50
90
 51
180
  0
ARC
  8
_1-0_
  6
CONTINUOUS
 62
    3
 10
355.55414973078547
 20
129.20816369958825
 40
0.9999999162313101
 50
180
 51
270
  0
ARC
  8
_1-0_
  6
CONTINUOUS
 62
    3
 10
352.35415896853885
 20
129.20816369958825
 40
0.9999999162313101
 50
270
 51
0
  0
ARC
  8
_1-0_
  6
CONTINUOUS
 62
    3
 10
34.994671795819272
 20
164.00816221494932
 40
0.9999999162313101
 50
90
 51
180
  0
ARC
  8
_1-0_
  6
CONTINUOUS
 62
    3
 10
31.79468103357263
 20
164.00816221494932
 40
0.9999999162313101
 50
0
 51
90
  0
ARC
  8
_1-0_
  6
CONTINUOUS
 62
    3
 10
31.79468103357263
 20
129.20816369958825
 40
0.9999999162313101
 50
270
 51
0
  0
ARC
  8
_1-0_
  6
CONTINUOUS
 62
    3
 10
34.994671795819272
 20
129.20816369958825
 40
0.9999999162313101
 50
180
 51
270
  0
ARC
  8
_1-b_
  6
CONTINUOUS
 62
    3
 10
212.66292262721709
 20
145.21090120882602
 40
1.5999999239638045
 50
110.20680236816406
 51
123.57087707519531
  0
ARC
  8
_1-b_
  6
CONTINUOUS
 62
    3
 10
174.68590813714107
 20
145.21090120882602
 40
1.5999999239638045
 50
56.429122924804687
 51
69.793197631835938
  0
ARC
  8
_1-b_
  6
CONTINUOUS
 62
    3
 10
174.68590813714107
 20
145.21090120882602
 40
1.5999999239638045
 50
56.429122924804687
 51
69.793197631835938
  0
CIRCLE
  8
_1-2_
  6
CONTINUOUS
 62
    7
 10
307.91104703336151
 20
76.410320385082358
 40
5.6067640716965137
  0
TEXT
  8
_0-0_
 62
    7
 10
141.89189395389042
 20
14.594594594594582
 40
2.5
 41
1
 50
0
  1
縮尺
  0
TEXT
  8
_0-0_
 62
    7
 10
377.10214563318203
 20
22.865493362014362
 40
2.5
 41
1
 50
0
  1
ＮＯ
  0
TEXT
  8
_0-0_
 62
    7
 10
14.594594336844779
 20
24.324324324324323
 40
2.5
 41
1
 50
0
  1
和形
  0
TEXT
  8
_0-0_
 62
    7
 10
383.23801896378802
 20
18.523427086907475
 40
3
 41
1
 50
0
  1
Ｊ
  0
TEXT
  8
_1-0_
 62
    7
 10
169.90681828679266
 20
13.3181144095756
 40
2.5
 41
1
 50
0
  1
1/5
  0
TEXT
  8
_1-5_
 62
    7
 10
303.11177846547719
 20
249.23668113914698
 40
2.5
 41
1
 50
0
  1
瓦桟　
  0
TEXT
  8
_1-3_
 62
    7
 10
229.1908420817729
 20
80.753880513801164
 40
2.5
 41
1
 50
24.227555699644494
  1
150
  0
TEXT
  8
_1-3_
 62
    7
 10
157.1412239361058
 20
87.770480905998113
 40
2.5
 41
1
 50
-24.227719460851628
  1
150
  0
TEXT
  8
_1-3_
 62
    7
 10
39.721903414339636
 20
15.395235628695104
 40
2.5
 41
1
 50
0
  1
谷　　1
  0
TEXT
  8
_1-3_
 62
    7
 10
25.556194717819636
 20
20.211577544341225
 40
2.5
 41
1
 50
0
  1
鉄骨
  0
TEXT
  8
_1-1_
 62
    7
 10
333.29958529085729
 20
227.30799494562925
 40
2.5
 41
1
 50
0
  1
ｔ＝18
  0
TEXT
  8
_1-3_
 62
    7
 10
152.18336934243368
 20
129.63613675825434
 40
2.5
 41
1
 50
-24.227744086663812
  1
250  谷底部分捨て貼り
  0
TEXT
  8
_1-3_
 62
    7
 10
210.75794998389233
 20
117.17533487635427
 40
2.5
 41
1
 50
24.227755168281259
  1
250　谷底部分捨て貼り
  0
TEXT
  8
_1-3_
 62
    7
 10
148.58098416715058
 20
47.897316185203763
 40
2.5
 41
1
 50
0
  1
谷巾については専門業者と相談
  0
TEXT
  8
_1-3_
 62
    7
 10
148.72099386679162
 20
52.446392162426093
 40
2.5
 41
1
 50
0
  1
谷底部分には捨て貼りをする
  0
TEXT
  8
_1-2_
 62
    7
 10
317.84822206239448
 20
95.438758231498099
 40
2.5
 41
1
 50
0
  1
ハぜを必ず付けること
  0
TEXT
  8
_1-2_
 62
    7
 10
328.85982039168073
 20
51.837130366144947
 40
3
 41
1
 50
0
  1
谷樋
  0
TEXT
  8
_1-3_
 62
    7
 10
394.12606316643792
 20
14.855213680782839
 40
2.5
 41
1
 50
0
  1
42
  0
TEXT
  8
_1-3_
 62
    7
 10
82.272199682287265
 20
219.05038369668497
 40
2.5
 41
1
 50
0
  1
ステンレス　（ＳＵＳ３０４）又は、
  0
TEXT
  8
_1-3_
 62
    7
 10
73.361177186708204
 20
218.93614073057432
 40
2.5
 41
1
 50
0
  1
谷樋
  0
TEXT
  8
_1-3_
 62
    7
 10
82.272201744285795
 20
215.62306996938347
 40
2.5
 41
1
 50
0
  1
銅板ｔ=0.4以上もしくは、耐久性の有する材料を使用すること
  0
TEXT
  8
_1-3_
 62
    7
 10
310.76395395639781
 20
246.03988235061234
 40
2.5
 41
1
 50
0
  1
※　地域により瓦桟木の大きさは、異なります
  0
TEXT
  8
_1-3_
 62
    7
 10
310.53306785789698
 20
249.22703098606419
 40
2.5
 41
1
 50
0
  1
15×21以上　（防腐処理）
  0
TEXT
  8
_1-3_
 62
    7
 10
304.72008370064401
 20
255.66598428262247
 40
2.5
 41
1
 50
0
  1
桟瓦
  0
TEXT
  8
_1-1_
 62
    7
 10
302.9805611275338
 20
228.03814037426099
 40
2.5
 41
1
 50
0
  1
硬質木片セメント板
  0
TEXT
  8
_1-5_
 62
    7
 10
303.18521035684125
 20
221.79629764041385
 40
2.5
 41
1
 50
0
  1
垂木　Ｃ－100ｘ50ｘ20ｘ2.3
  0
POINT
  8
_1-3_
 62
    7
 10
217.54800332559122
 20
74.966311068148229
  0
POINT
  8
_1-3_
 62
    7
 10
244.66374577702703
 20
87.168391459697006
  0
POINT
  8
_1-3_
 62
    7
 10
172.25536861935177
 20
80.420825030352617
  0
POINT
  8
_1-3_
 62
    7
 10
145.03641901789484
 20
92.669349876610013
  0
POINT
  8
_1-3_
 62
    7
 10
142.20557135504646
 20
133.40095726219386
  0
POINT
  8
_1-3_
 62
    7
 10
187.61948869035052
 20
112.96469198690879
  0
POINT
  8
_1-3_
 62
    7
 10
200.13406701990078
 20
111.84630110457138
  0
POINT
  8
_1-3_
 62
    7
 10
245.73013718063768
 20
132.36453082110432
  0
TEXT
  8
_1-5_
 62
    7
 10
303.11333733635979
 20
242.23668278874578
 40
2.5
 41
1
 50
0
  1
縦桟
  0
TEXT
  8
_1-1_
 62
    7
 10
302.77589952623521
 20
235.4055621172931
 40
2.5
 41
1
 50
0
  1
ルーフィング
  0
TEXT
  8
_1-3_
 62
    7
 10
148.44101983147698
 20
56.886736895587006
 40
2.5
 41
1
 50
0
  1
谷部分のルーフィングは、両方向へそれぞれ250ｍｍ以上重ね合わせること。
  0
ENDSEC
  0
EOF
