  0
SECTION
  2
HEADER
  9
$ACADVER
  1
AC1009
  9
$INSBASE
 10
0
 20
0
 30
0
  9
$EXTMIN
 10
0
 20
0
  9
$EXTMAX
 10
420
 20
297
  9
$LIMMIN
 10
0
 20
0
  9
$LIMMAX
 10
420
 20
297
  9
$LTSCALE
 40
1
  0
ENDSEC
  0
SECTION
  2
TABLES
  0
TABLE
  2
LTYPE
 70
     9
  0
LTYPE
  2
CONTINUOUS
 70
    64
  3
実線
 72
    65
 73
     0
 40
0.0
  0
LTYPE
  2
DASHED1
 70
    64
  3
--  --  --  --  --  --  --  --  
 72
    65
 73
     2
 40
2.5
 49
1.25
 49
-1.25
  0
LTYPE
  2
DASHED2
 70
    64
  3
----    ----    ----    ----    
 72
    65
 73
     2
 40
5.0
 49
2.5
 49
-2.5
  0
LTYPE
  2
DASHED3
 70
    64
  3
------  ------  ------  ------  
 72
    65
 73
     2
 40
5.0
 49
3.75
 49
-1.25
  0
LTYPE
  2
CENTER1
 70
    64
  3
----- - ----- - ----- - ----- - 
 72
    65
 73
     4
 40
10.0
 49
6.25
 49
-1.25
 49
1.25
 49
-1.25
  0
LTYPE
  2
CENTER2
 70
    64
  3
----------  --  ----------  --  
 72
    65
 73
     4
 40
20.0
 49
12.5
 49
-2.5
 49
2.5
 49
-2.5
  0
LTYPE
  2
PHANTOM1
 70
    64
  3
--- - - --- - - --- - - --- - - 
 72
    65
 73
     6
 40
10.0
 49
3.25
 49
-1.25
 49
1.25
 49
-1.25
 49
1.25
 49
-1.25
  0
LTYPE
  2
PHANTOM2
 70
    64
  3
--------  -  -  --------  -  -  
 72
    65
 73
     6
 40
20.0
 49
10.0
 49
-2.5
 49
1.25
 49
-2.5
 49
1.25
 49
-2.5
  0
LTYPE
  2
DOT
 70
    64
  3
-   -   -   -   -   -   -   -   
 72
    65
 73
     2
 40
2.5
 49
0.625
 49
-1.875
  0
LTYPE
  2
DUMMY
 70
    64
  3
ダミー
 72
    65
 73
     0
 40
0.0
  0
LTYPE
  2
RAND1
 70
    64
  3
ランダム線1
 72
    65
 73
     4
 40
10.0
 49
1.0
 49
-2.0
 49
3.0
 49
-4.0
  0
LTYPE
  2
RAND2
 70
    64
  3
ランダム線2
 72
    65
 73
     4
 40
14.0
 49
2.0
 49
-3.0
 49
4.0
 49
-5.0
  0
LTYPE
  2
RAND3
 70
    64
  3
ランダム線3
 72
    65
 73
     4
 40
18.0
 49
3.0
 49
-4.0
 49
5.0
 49
-6.0
  0
LTYPE
  2
RAND4
 70
    64
  3
ランダム線4
 72
    65
 73
     4
 40
22.0
 49
4.0
 49
-5.0
 49
6.0
 49
-7.0
  0
LTYPE
  2
RAND5
 70
    64
  3
ランダム線5
 72
    65
 73
     4
 40
26.0
 49
5.0
 49
-6.0
 49
7.0
 49
-8.0
  0
LTYPE
  2
LONG1
 70
    64
  3
----------  --  ----------  --  
 72
    65
 73
     4
 40
40.0
 49
32.5
 49
-2.5
 49
2.5
 49
-2.5
  0
LTYPE
  2
LONG2
 70
    64
  3
--------  -  -  --------  -  -  
 72
    65
 73
     6
 40
40.0
 49
30.0
 49
-2.5
 49
1.25
 49
-2.5
 49
1.25
 49
-2.5
  0
LTYPE
  2
LONG3
 70
    64
  3
+++++++++++++++..+++++++++++++++
 72
    65
 73
     2
 40
40.0
 49
37.5
 49
-2.5
  0
LTYPE
  2
LONG4
 70
    64
  3
+++++++++++++++..+++++++++++++++
 72
    65
 73
     2
 40
80.0
 49
75.0
 49
-5.0
  0
LTYPE
  2
LONG5
 70
    64
  3
----------  --  ----------  --  
 72
    65
 73
     4
 40
60.0
 49
37.5
 49
-7.5
 49
7.5
 49
-7.5
  0
LTYPE
  2
dashed
 70
   64
  3
-------   -------------   ------
 72
   65
 73
    2
 40
7.5
 49
6
 49
-1.5
  0
LTYPE
  2
dashed_spaced
 70
   64
  3
----        --------        ----
 72
   65
 73
    2
 40
12
 49
6
 49
-6
  0
LTYPE
  2
long_dashed_dotted
 70
   64
  3
------------- --- --------------
 72
   65
 73
    4
 40
15.25
 49
12
 49
-1.5
 49
0.25
 49
-1.5
  0
LTYPE
  2
long_dashed_double-dotted
 70
   64
  3
----------- --- --- ------------
 72
   65
 73
    6
 40
17
 49
12
 49
-1.5
 49
0.25
 49
-1.5
 49
0.25
 49
-1.5
  0
LTYPE
  2
long_dashed_triplicate-dotted
 70
   64
  3
--------- --- --- --- ----------
 72
   65
 73
    8
 40
18.75
 49
12
 49
-1.5
 49
0.25
 49
-1.5
 49
0.25
 49
-1.5
 49
0.25
 49
-1.5
  0
LTYPE
  2
dotted
 70
   64
  3
   -       -       -       -    
 72
   65
 73
    2
 40
1.75
 49
0.25
 49
-1.5
  0
LTYPE
  2
chain
 70
   64
  3
-------------- -- --------------
 72
   65
 73
    4
 40
18.5
 49
12
 49
-1.5
 49
3.5
 49
-1.5
  0
LTYPE
  2
chain_double_dash
 70
   64
  3
------------ -- -- -------------
 72
   65
 73
    6
 40
23.5
 49
12
 49
-1.5
 49
3.5
 49
-1.5
 49
3.5
 49
-1.5
  0
LTYPE
  2
dashed_dotted
 70
   64
  3
-----------     -     ----------
 72
   65
 73
    4
 40
9.25
 49
6
 49
-1.5
 49
0.25
 49
-1.5
  0
LTYPE
  2
double-dashed_dotted
 70
   64
  3
------   -----------   -   -----
 72
   65
 73
    6
 40
16.75
 49
6
 49
-1.5
 49
6
 49
-1.5
 49
0.25
 49
-1.5
  0
LTYPE
  2
dashed_double-dotted
 70
   64
  3
---------    -    -    ---------
 72
   65
 73
    6
 40
11
 49
6
 49
-1.5
 49
0.25
 49
-1.5
 49
0.25
 49
-1.5
  0
LTYPE
  2
double-dashed_double-dotted
 70
   64
  3
-----   ---------   -   -   ----
 72
   65
 73
    8
 40
18.5
 49
6
 49
-1.5
 49
6
 49
-1.5
 49
0.25
 49
-1.5
 49
0.25
 49
-1.5
  0
LTYPE
  2
dashed_triplicate-dotted
 70
   64
  3
-------    -    -    -    ------
 72
   65
 73
    8
 40
12.75
 49
6
 49
-1.5
 49
0.25
 49
-1.5
 49
0.25
 49
-1.5
 49
0.25
 49
-1.5
  0
LTYPE
  2
double-dashed_triplicate-dotted
 70
   64
  3
-----  ---------  -  -  -  -----
 72
   65
 73
   10
 40
20.25
 49
6
 49
-1.5
 49
6
 49
-1.5
 49
0.25
 49
-1.5
 49
0.25
 49
-1.5
 49
0.25
 49
-1.5
  0
LTYPE
  2
undefined
 70
   64
  3
--------------------------------
 72
   65
 73
    0
 40
0
  0
ENDTAB
  0
TABLE
  2
STYLE
  5
3
100
AcDbSymbolTable
 70
     1
  0
STYLE
  5
10
100
AcDbSymbolTableRecord
100
AcDbTextStyleTableRecord
  2
STANDARD
 70
     0
 40
0.0
 41
1.0
 50
0.0
 71
     0
 42
0.2
  3
txt
  4
bigfont.shx
  0
STYLE
  5
26
100
AcDbSymbolTableRecord
100
AcDbTextStyleTableRecord
  2
TATEGAKI
 70
    68
 40
0.0
 41
1.0
 50
0.0
 71
     0
 42
1.0
  3
txt
  4
bigfont.shx
  0
ENDTAB
  0
TABLE
  2
LAYER
 70
   10
  0
LAYER
  2
_0-0_
 70
   64
 62
    7
  6
CONTINUOUS
  0
LAYER
  2
_1-0_
 70
   64
 62
    7
  6
CONTINUOUS
  0
LAYER
  2
_1-1_
 70
   64
 62
    7
  6
CONTINUOUS
  0
LAYER
  2
_1-4_
 70
   64
 62
    7
  6
CONTINUOUS
  0
LAYER
  2
_1-5_
 70
   64
 62
    7
  6
CONTINUOUS
  0
LAYER
  2
_1-a_
 70
   64
 62
    7
  6
CONTINUOUS
  0
LAYER
  2
_1-b_
 70
   64
 62
    7
  6
CONTINUOUS
  0
LAYER
  2
_1-c_
 70
   64
 62
    7
  6
CONTINUOUS
  0
LAYER
  2
_1-f_
 70
   64
 62
    7
  6
CONTINUOUS
  0
LAYER
  2
ADD_LINE
 70
   64
 62
    7
  6
CONTINUOUS
  0
ENDTAB
  0
ENDSEC
  0
SECTION
  2
BLOCKS
  0
ENDSEC
  0
SECTION
  2
ENTITIES
  0
LINE
  8
_0-0_
  6
CONTINUOUS
 62
    5
 10
6.7567526327597136
 20
280.13513513513516
 11
406.75677325274495
 21
280.13513513513516
  0
LINE
  8
_0-0_
  6
CONTINUOUS
 62
    5
 10
406.75677325274495
 20
10.13513513513513
 11
6.7567526327597136
 21
10.13513513513513
  0
LINE
  8
_0-0_
  6
CONTINUOUS
 62
    5
 10
406.75677325274495
 20
30.135133073136615
 11
6.7567402607685949
 21
30.135133073136615
  0
LINE
  8
_0-0_
  6
CONTINUOUS
 62
    5
 10
371.75678150073907
 20
10.13513513513513
 11
371.75678150073907
 21
30.135133073136615
  0
LINE
  8
_0-0_
  6
CONTINUOUS
 62
    5
 10
137.02703939901818
 20
30.135133073136615
 11
137.02703939901818
 21
10.13513513513513
  0
LINE
  8
_0-0_
  6
CONTINUOUS
 62
    5
 10
214.86486486486487
 20
30.135133073136615
 11
214.86486486486487
 21
10.13513513513513
  0
LINE
  8
_0-0_
  6
CONTINUOUS
 62
    5
 10
137.02703939901818
 20
20.135134104135886
 11
214.86486486486487
 21
20.135134104135886
  0
LINE
  8
_0-0_
  6
CONTINUOUS
 62
    5
 10
396.48648648648651
 20
25.945945945945951
 11
383.91891891891896
 21
13.378379924877265
  0
LINE
  8
_1-0_
  6
CONTINUOUS
 62
    7
 10
146.74028963656039
 20
149.07143257759714
 11
146.98650463207349
 21
148.52428126979518
  0
LINE
  8
_1-1_
  6
CONTINUOUS
 62
    7
 10
169.93542233028927
 20
159.5092484757707
 11
168.70432260874156
 21
162.24501738677154
  0
LINE
  8
_1-1_
  6
CONTINUOUS
 62
    7
 10
168.70432260874156
 20
162.24501738677154
 11
173.08154544314823
 21
164.21477446684966
  0
LINE
  8
_1-1_
  6
CONTINUOUS
 62
    7
 10
173.08154544314823
 20
164.21477446684966
 11
174.31264516469597
 21
161.47900555584883
  0
LINE
  8
_1-1_
  6
CONTINUOUS
 62
    7
 10
174.31264516469597
 20
161.47900555584883
 11
169.93542233028927
 21
159.5092484757707
  0
LINE
  8
ADD_LINE
  6
DOT
 62
    3
 10
113.78827069256758
 20
148.14211046373524
 11
111.93075231603675
 21
155.33277356946792
  0
LINE
  8
_1-a_
  6
CONTINUOUS
 62
    3
 10
117.16043008340372
 20
146.28299610034841
 11
118.56338913376267
 21
140.85201366527662
  0
LINE
  8
_1-a_
  6
CONTINUOUS
 62
    3
 10
173.08154544314823
 20
164.21477446684966
 11
117.16043008340372
 21
146.28299610034841
  0
LINE
  8
_1-a_
  6
CONTINUOUS
 62
    3
 10
113.78827069256758
 20
148.14211046373524
 11
111.7840576171875
 21
155.90066033440669
  0
LINE
  8
ADD_LINE
  6
DOT
 62
    3
 10
113.78827069256758
 20
148.14211046373524
 11
116.29353703679266
 21
138.44390456740922
  0
LINE
  8
_1-a_
  6
CONTINUOUS
 62
    3
 10
113.78827069256758
 20
148.14211046373524
 11
116.29353703679266
 21
138.44390456740922
  0
LINE
  8
_1-a_
  6
CONTINUOUS
 62
    3
 10
109.1133653795397
 20
155.04427110826649
 11
111.7840576171875
 21
155.90066033440669
  0
LINE
  8
_1-a_
  6
CONTINUOUS
 62
    3
 10
109.1133653795397
 20
155.04427110826649
 11
113.62283242715372
 21
137.58751534126901
  0
LINE
  8
_1-a_
  6
CONTINUOUS
 62
    3
 10
113.62283242715372
 20
137.58751534126901
 11
116.29353703679266
 21
138.44390456740922
  0
LINE
  8
_1-a_
  6
CONTINUOUS
 62
    3
 10
115.89269689611487
 20
139.99562443913641
 11
118.56338913376267
 21
140.85201366527662
  0
LINE
  8
ADD_LINE
  6
DOT
 62
    3
 10
108.94859520164697
 20
147.68568296690245
 11
110.37847570470862
 21
142.15044176256336
  0
LINE
  8
_1-a_
  6
CONTINUOUS
 62
    3
 10
171.92520966400971
 20
166.78441228093328
 11
113.78827069256758
 21
148.14211046373524
  0
LINE
  8
_1-a_
  6
CONTINUOUS
 62
    3
 10
171.92520966400971
 20
166.78441228093328
 11
172.78234120961784
 21
164.11141885293497
  0
LINE
  8
_1-a_
  6
CONTINUOUS
 62
    3
 10
113.78827069256758
 20
148.14211046373524
 11
116.29353703679266
 21
138.44390456740922
  0
LINE
  8
_1-1_
  6
CONTINUOUS
 62
    7
 10
212.79572358002534
 20
178.79637847075591
 11
211.56461148648648
 21
181.53214738175677
  0
LINE
  8
_1-1_
  6
CONTINUOUS
 62
    7
 10
211.56461148648648
 20
181.53214738175677
 11
215.9418466928843
 21
183.5019044618349
  0
LINE
  8
_1-1_
  6
CONTINUOUS
 62
    7
 10
215.9418466928843
 20
183.5019044618349
 11
217.17293404244089
 21
180.76613555083404
  0
LINE
  8
_1-1_
  6
CONTINUOUS
 62
    7
 10
217.17293404244089
 20
180.76613555083404
 11
212.79572358002534
 21
178.79637847075591
  0
LINE
  8
_1-1_
  6
CONTINUOUS
 62
    7
 10
255.65603720175255
 20
198.08352083773227
 11
254.4249251082137
 21
200.81928974873313
  0
LINE
  8
_1-1_
  6
CONTINUOUS
 62
    7
 10
254.4249251082137
 20
200.81928974873313
 11
258.80216031461151
 21
202.78904682881125
  0
LINE
  8
_1-1_
  6
CONTINUOUS
 62
    7
 10
258.80216031461151
 20
202.78904682881125
 11
260.03324766416807
 21
200.05327791781039
  0
LINE
  8
_1-1_
  6
CONTINUOUS
 62
    7
 10
260.03324766416807
 20
200.05327791781039
 11
255.65603720175255
 21
198.08352083773227
  0
LINE
  8
_1-1_
  6
CONTINUOUS
 62
    7
 10
298.51635082347974
 20
217.37066320470862
 11
297.28523872994089
 21
220.10643211570948
  0
LINE
  8
_1-1_
  6
CONTINUOUS
 62
    7
 10
297.28523872994089
 20
220.10643211570948
 11
301.6624739363387
 21
222.07620156777872
  0
LINE
  8
_1-1_
  6
CONTINUOUS
 62
    7
 10
301.6624739363387
 20
222.07620156777872
 11
302.89356128589526
 21
219.34040791279563
  0
LINE
  8
_1-1_
  6
CONTINUOUS
 62
    7
 10
302.89356128589526
 20
219.34040791279563
 11
298.51635082347974
 21
217.37066320470862
  0
LINE
  8
_1-1_
  6
CONTINUOUS
 62
    7
 10
297.28523872994089
 20
220.10643211570948
 11
302.89356128589526
 21
219.34040791279563
  0
LINE
  8
_1-1_
  6
CONTINUOUS
 62
    7
 10
254.4249251082137
 20
200.81928974873313
 11
260.03324766416807
 21
200.05327791781039
  0
LINE
  8
_1-1_
  6
CONTINUOUS
 62
    7
 10
211.56461148648648
 20
181.53214738175677
 11
217.17293404244089
 21
180.76613555083404
  0
LINE
  8
_1-1_
  6
CONTINUOUS
 62
    7
 10
168.70432260874156
 20
162.24501738677154
 11
174.31264516469597
 21
161.47900555584883
  0
LINE
  8
_1-b_
  6
CONTINUOUS
 62
    3
 10
160.42555525496201
 20
163.09691558013091
 11
216.11968169341216
 21
183.59631512616133
  0
LINE
  8
_1-b_
  6
CONTINUOUS
 62
    3
 10
216.81053367820948
 20
181.71942221151818
 11
218.499755859375
 21
182.34116425385346
  0
LINE
  8
_1-b_
  6
CONTINUOUS
 62
    3
 10
216.11968169341216
 20
183.59631512616133
 11
216.81053367820948
 21
181.71942221151818
  0
LINE
  8
_1-b_
  6
CONTINUOUS
 62
    3
 10
161.1418440535262
 20
166.34420446447425
 11
215.34022150812925
 21
186.2930627771326
  0
LINE
  8
_1-b_
  6
CONTINUOUS
 62
    3
 10
160.19298656566724
 20
164.29000854492187
 11
160.61031857052365
 21
163.15616504566091
  0
LINE
  8
ADD_LINE
  6
DOT
 62
    3
 10
215.9418466928843
 20
183.50191683382602
 11
215.9418466928843
 21
183.96070738096495
  0
LINE
  8
ADD_LINE
  6
DOT
 62
    3
 10
215.9418466928843
 20
183.50191683382602
 11
215.9418466928843
 21
183.11887998838682
  0
LINE
  8
_1-1_
  6
CONTINUOUS
 62
    7
 10
211.56463623046875
 20
181.53215975374789
 11
215.94187143686656
 21
183.50191683382602
  0
LINE
  8
_1-1_
  6
CONTINUOUS
 62
    7
 10
255.65603720175255
 20
198.08352083773227
 11
254.42494985219597
 21
200.81928974873313
  0
LINE
  8
_1-1_
  6
CONTINUOUS
 62
    7
 10
254.42494985219597
 20
200.81928974873313
 11
258.80216031461151
 21
202.78904682881125
  0
LINE
  8
_1-1_
  6
CONTINUOUS
 62
    7
 10
258.80216031461151
 20
202.78904682881125
 11
260.03327240815037
 21
200.05327791781039
  0
LINE
  8
_1-1_
  6
CONTINUOUS
 62
    7
 10
260.03327240815037
 20
200.05327791781039
 11
255.65603720175255
 21
198.08352083773227
  0
LINE
  8
_1-1_
  6
CONTINUOUS
 62
    7
 10
254.42494985219597
 20
200.81928974873313
 11
260.03327240815037
 21
200.05327791781039
  0
LINE
  8
_1-b_
  6
CONTINUOUS
 62
    3
 10
203.28586887668919
 20
182.38405794710727
 11
258.98002005912161
 21
202.88345749313768
  0
LINE
  8
_1-b_
  6
CONTINUOUS
 62
    3
 10
259.67084729993667
 20
201.00656457849453
 11
261.36004473711995
 21
201.62830662082982
  0
LINE
  8
_1-b_
  6
CONTINUOUS
 62
    3
 10
258.98002005912161
 20
202.88345749313768
 11
259.67084729993667
 21
201.00656457849453
  0
LINE
  8
_1-b_
  6
CONTINUOUS
 62
    3
 10
204.00215767525339
 20
185.6313468314506
 11
258.20053512985641
 21
205.58020514410896
  0
LINE
  8
_1-b_
  6
CONTINUOUS
 62
    3
 10
203.05330018739443
 20
183.57715091189823
 11
203.47063219225086
 21
182.44330741263727
  0
LINE
  8
_1-1_
  6
CONTINUOUS
 62
    7
 10
254.42494985219597
 20
200.81930212072425
 11
258.80216031461151
 21
202.78905920080237
  0
LINE
  8
_1-1_
  6
CONTINUOUS
 62
    7
 10
298.51635082347974
 20
217.37066320470862
 11
297.28523872994089
 21
220.10643211570948
  0
LINE
  8
_1-1_
  6
CONTINUOUS
 62
    7
 10
297.28523872994089
 20
220.10643211570948
 11
301.6624739363387
 21
222.07620156777872
  0
LINE
  8
_1-1_
  6
CONTINUOUS
 62
    7
 10
301.6624739363387
 20
222.07620156777872
 11
302.89356128589526
 21
219.34040791279563
  0
LINE
  8
_1-1_
  6
CONTINUOUS
 62
    7
 10
302.89356128589526
 20
219.34040791279563
 11
298.51635082347974
 21
217.37066320470862
  0
LINE
  8
_1-1_
  6
CONTINUOUS
 62
    7
 10
297.28523872994089
 20
220.10643211570948
 11
302.89356128589526
 21
219.34040791279563
  0
LINE
  8
_1-b_
  6
CONTINUOUS
 62
    3
 10
246.14618249841641
 20
201.67120031408362
 11
301.84030893686656
 21
222.17059986011404
  0
LINE
  8
_1-b_
  6
CONTINUOUS
 62
    3
 10
302.53116092166385
 20
220.29369457347974
 11
304.22038310282943
 21
220.91546135979732
  0
LINE
  8
_1-b_
  6
CONTINUOUS
 62
    3
 10
301.84030893686656
 20
222.17059986011404
 11
302.53116092166385
 21
220.29369457347974
  0
LINE
  8
_1-b_
  6
CONTINUOUS
 62
    3
 10
246.8624712969806
 20
204.91848919842695
 11
301.06084875158365
 21
224.86734751108531
  0
LINE
  8
_1-b_
  6
CONTINUOUS
 62
    3
 10
245.91361380912164
 20
202.86429327887458
 11
246.33094581397805
 21
201.73044977961362
  0
LINE
  8
_1-1_
  6
CONTINUOUS
 62
    7
 10
297.28523872994089
 20
220.10643211570948
 11
301.6624739363387
 21
222.07620156777872
  0
LINE
  8
_1-1_
  6
CONTINUOUS
 62
    7
 10
301.6624739363387
 20
222.07620156777872
 11
302.89356128589526
 21
219.34040791279563
  0
LINE
  8
_1-1_
  6
CONTINUOUS
 62
    7
 10
297.28523872994089
 20
220.10643211570948
 11
302.89356128589526
 21
219.34040791279563
  0
LINE
  8
_1-1_
  6
CONTINUOUS
 62
    7
 10
297.28526347392318
 20
220.10643211570948
 11
301.6624739363387
 21
222.07620156777872
  0
LINE
  8
_1-1_
  6
CONTINUOUS
 62
    7
 10
301.6624739363387
 20
222.07620156777872
 11
302.89358602987755
 21
219.34040791279563
  0
LINE
  8
_1-1_
  6
CONTINUOUS
 62
    7
 10
297.28526347392318
 20
220.10643211570948
 11
302.89358602987755
 21
219.34040791279563
  0
LINE
  8
_1-b_
  6
CONTINUOUS
 62
    3
 10
302.53116092166385
 20
220.29369457347974
 11
304.22035835884714
 21
220.91546135979732
  0
LINE
  8
_1-b_
  6
CONTINUOUS
 62
    3
 10
301.84033368084886
 20
222.17059986011404
 11
302.53116092166385
 21
220.29369457347974
  0
LINE
  8
_1-1_
  6
CONTINUOUS
 62
    7
 10
297.28526347392318
 20
220.10643211570948
 11
301.6624739363387
 21
222.07620156777872
  0
LINE
  8
_1-b_
  6
CONTINUOUS
 62
    3
 10
288.77392743084886
 20
222.15142327385982
 11
289.19125943570526
 21
221.01760451858109
  0
LINE
  8
_1-b_
  6
CONTINUOUS
 62
    3
 10
300.88974411423146
 20
225.33221270586995
 11
301.06084875158365
 21
224.86734751108531
  0
LINE
  8
_1-b_
  6
CONTINUOUS
 62
    3
 10
302.3912337019637
 20
225.88489429370779
 11
304.22035835884714
 21
220.91546135979732
  0
LINE
  8
_1-b_
  6
CONTINUOUS
 62
    3
 10
300.88974411423146
 20
225.33221270586995
 11
301.06084875158365
 21
224.86734751108531
  0
LINE
  8
_1-b_
  6
CONTINUOUS
 62
    3
 10
302.39125844594594
 20
225.88489429370779
 11
304.22038310282943
 21
220.91546135979732
  0
LINE
  8
_1-b_
  6
CONTINUOUS
 62
    3
 10
258.02943049250422
 20
206.04508271088471
 11
258.20053512985641
 21
205.58020514410896
  0
LINE
  8
_1-b_
  6
CONTINUOUS
 62
    3
 10
259.53092008023651
 20
206.59773955474029
 11
261.36004473711995
 21
201.62830662082982
  0
LINE
  8
_1-b_
  6
CONTINUOUS
 62
    3
 10
215.16911687077703
 20
186.75794034390836
 11
215.34022150812925
 21
186.2930627771326
  0
LINE
  8
_1-b_
  6
CONTINUOUS
 62
    3
 10
216.67063120249156
 20
187.31059718776396
 11
218.499755859375
 21
182.34116425385346
  0
LINE
  8
_1-c_
  6
CONTINUOUS
 62
    7
 10
157.70599365234375
 20
171.04686015361065
 11
160.19298656566724
 21
164.29002091691302
  0
LINE
  8
_1-c_
  6
CONTINUOUS
 62
    7
 10
200.56630727407097
 20
190.33400252058701
 11
203.05330018739443
 21
183.57716328388938
  0
LINE
  8
_1-c_
  6
CONTINUOUS
 62
    7
 10
243.42662089579815
 20
209.62114488756336
 11
245.91361380912164
 21
202.86430565086573
  0
LINE
  8
_1-c_
  6
CONTINUOUS
 62
    7
 10
286.28693451752537
 20
228.90826251055745
 11
288.77392743084886
 21
222.15142327385982
  0
LINE
  8
_1-c_
  6
CONTINUOUS
 62
    7
 10
158.12109869879646
 20
169.91907893000422
 11
112.71099193676099
 21
155.35778973553633
  0
LINE
  8
_1-c_
  6
CONTINUOUS
 62
    7
 10
244.37547838365711
 20
211.67531606313347
 11
286.87252560177365
 21
227.31727393897805
  0
LINE
  8
_1-c_
  6
CONTINUOUS
 62
    7
 10
201.51515238993878
 20
192.38818606814823
 11
244.01223672402872
 21
208.03013157200169
  0
LINE
  8
_1-c_
  6
CONTINUOUS
 62
    7
 10
158.65483876821159
 20
173.10104370117187
 11
201.15191073031039
 21
188.74298920502534
  0
LINE
  8
_1-4_
  6
CONTINUOUS
 62
    7
 10
147.79309659390836
 20
191.16905006202492
 11
129.52708888698268
 21
231.76015493032097
  0
LINE
  8
_1-4_
  6
CONTINUOUS
 62
    7
 10
129.52708888698268
 20
231.76015493032097
 11
172.3874025087099
 21
251.04729729729732
  0
LINE
  8
_1-4_
  6
CONTINUOUS
 62
    7
 10
147.79308422191724
 20
191.16905006202492
 11
129.52708888698268
 21
231.76015493032097
  0
LINE
  8
_1-4_
  6
CONTINUOUS
 62
    7
 10
190.65339784364443
 20
210.45618005701016
 11
172.3874025087099
 21
251.04729729729732
  0
LINE
  8
_1-4_
  6
CONTINUOUS
 62
    7
 10
172.3874025087099
 20
251.04729729729732
 11
215.42407886402029
 21
270.413818359375
  0
LINE
  8
_1-4_
  6
CONTINUOUS
 62
    7
 10
233.6900618269637
 20
229.82270111908784
 11
215.42407886402029
 21
270.41379361539276
  0
LINE
  8
_1-a_
  6
CONTINUOUS
 62
    7
 10
84.958314637880079
 20
211.70421703441724
 11
129.52710125897383
 21
231.76015493032097
  0
LINE
  8
_1-a_
  6
CONTINUOUS
 62
    7
 10
103.22432234480574
 20
171.11309979413008
 11
84.958314637880079
 21
211.70421703441724
  0
LINE
  8
_1-a_
  6
CONTINUOUS
 62
    7
 10
147.79309659390836
 20
191.16905006202492
 11
129.52710125897383
 21
231.76015493032097
  0
LINE
  8
_1-4_
  6
CONTINUOUS
 62
    7
 10
143.51351351351352
 20
162.16216216216216
 11
123.52651235219595
 21
196.78066356762037
  0
LINE
  8
_1-4_
  6
CONTINUOUS
 62
    7
 10
136.61849150786529
 20
149.74095524968328
 11
117.0146385399071
 21
183.69583542282518
  0
LINE
  8
_1-4_
  6
CONTINUOUS
 62
    7
 10
123.52651235219595
 20
196.78066356762037
 11
119.18918918918919
 21
196.78066356762037
  0
LINE
  8
_1-4_
  6
CONTINUOUS
 62
    7
 10
117.0146385399071
 20
183.69583542282518
 11
109.45945945945947
 21
183.69583542282518
  0
LINE
  8
_1-4_
  6
CONTINUOUS
 62
    7
 10
256.68043806746203
 20
199.93954220333615
 11
291.03473560230151
 21
140.43616629935602
  0
LINE
  8
_1-4_
  6
CONTINUOUS
 62
    7
 10
277.29729729729729
 20
221.35135135135135
 11
262.22556449271536
 21
247.45635161528719
  0
LINE
  8
_1-4_
  6
CONTINUOUS
 62
    7
 10
262.22556449271536
 20
247.45635161528719
 11
254.59459459459461
 21
247.45635161528719
  0
LINE
  8
_1-0_
  6
CONTINUOUS
 62
    7
 10
132.21336983345651
 20
137.4900364231419
 11
132.21336983345651
 21
140.77978598104943
  0
LINE
  8
_1-0_
  6
CONTINUOUS
 62
    7
 10
147.39687120592274
 20
147.61235417546453
 11
132.21336983345651
 21
140.77978598104943
  0
LINE
  8
_1-0_
  6
CONTINUOUS
 62
    7
 10
138.21336488466005
 20
140.19003790778083
 11
138.21336488466005
 21
106.94262530352619
  0
LINE
  8
_1-0_
  6
CONTINUOUS
 62
    7
 10
146.98649226008234
 20
130.97891730231208
 11
138.21336488466005
 21
127.0310149321685
  0
LINE
  8
_1-0_
  6
CONTINUOUS
 62
    7
 10
96.213374782252956
 20
106.69002636058912
 11
147.54034918707771
 21
106.69002636058912
  0
LINE
  8
_1-0_
  6
CONTINUOUS
 62
    7
 10
129.81336438978042
 20
115.09002685546875
 11
129.81336438978042
 21
106.69002636058912
  0
LINE
  8
_1-0_
  6
CONTINUOUS
 62
    7
 10
138.21336488466005
 20
106.94262530352619
 11
138.21336488466005
 21
106.69002636058912
  0
LINE
  8
_1-0_
  6
CONTINUOUS
 62
    7
 10
96.213374782252956
 20
115.09002685546875
 11
104.6133752771326
 21
106.69002636058912
  0
LINE
  8
_1-0_
  6
CONTINUOUS
 62
    7
 10
129.81336438978042
 20
115.09002685546875
 11
138.21336488466005
 21
106.94262530352619
  0
LINE
  8
_1-0_
  6
CONTINUOUS
 62
    7
 10
104.6133752771326
 20
115.09002685546875
 11
104.6133752771326
 21
106.69002636058912
  0
LINE
  8
_1-0_
  6
CONTINUOUS
 62
    7
 10
96.213374782252956
 20
115.09002685546875
 11
138.21336488466005
 21
115.09002685546875
  0
LINE
  8
_1-0_
  6
CONTINUOUS
 62
    7
 10
147.54034918707771
 20
106.69002636058912
 11
289.89772487331084
 21
106.69002636058912
  0
LINE
  8
_1-0_
  6
CONTINUOUS
 62
    7
 10
96.213374782252956
 20
106.69002636058912
 11
94.745809194203972
 21
106.69002636058912
  0
LINE
  8
_1-0_
  6
CONTINUOUS
 62
    7
 10
94.745809194203972
 20
106.69002636058912
 11
94.745809194203972
 21
105.49002982474663
  0
LINE
  8
_1-0_
  6
CONTINUOUS
 62
    7
 10
94.745809194203972
 20
105.49002982474663
 11
289.89772487331084
 21
105.49002982474663
  0
LINE
  8
_1-0_
  6
CONTINUOUS
 62
    7
 10
90.213373545053841
 20
111.66257703626479
 11
90.213373545053841
 21
103.09003056706609
  0
LINE
  8
_1-0_
  6
CONTINUOUS
 62
    7
 10
90.213373545053841
 20
103.09003056706609
 11
96.213374782252956
 21
103.09003056706609
  0
LINE
  8
_1-0_
  6
CONTINUOUS
 62
    7
 10
96.213374782252956
 20
111.66257703626479
 11
96.213374782252956
 21
106.69002636058912
  0
LINE
  8
_1-0_
  6
CONTINUOUS
 62
    7
 10
96.213374782252956
 20
105.49002982474663
 11
96.213374782252956
 21
103.09003056706609
  0
LINE
  8
_1-0_
  6
CONTINUOUS
 62
    7
 10
132.21336983345651
 20
137.4900364231419
 11
132.21336983345651
 21
117.49003229914486
  0
LINE
  8
_1-0_
  6
CONTINUOUS
 62
    7
 10
132.21336983345651
 20
117.49003229914486
 11
132.21336983345651
 21
115.09002685546875
  0
LINE
  8
_1-0_
  6
CONTINUOUS
 62
    7
 10
96.213374782252956
 20
117.49003229914486
 11
132.21336983345651
 21
117.49003229914486
  0
LINE
  8
_1-1_
  6
CONTINUOUS
 62
    3
 10
129.7569109942462
 20
118.77830299171242
 11
98.323560147672097
 21
118.77830299171242
  0
LINE
  8
_1-1_
  6
CONTINUOUS
 62
    3
 10
130.9569075300887
 20
119.97829952755491
 11
130.9569075300887
 21
141.12882459485854
  0
LINE
  8
_1-1_
  6
CONTINUOUS
 62
    3
 10
130.9569075300887
 20
141.12882459485854
 11
144.99072925464529
 21
147.44403323611698
  0
LINE
  8
_1-1_
  6
CONTINUOUS
 62
    3
 10
144.54239304001268
 20
147.72221745671453
 11
138.64111410604943
 21
145.06665616422086
  0
LINE
  8
_1-1_
  6
CONTINUOUS
 62
    3
 10
144.99072925464529
 20
147.44403323611698
 11
144.54239304001268
 21
147.72221745671453
  0
LINE
  8
_1-1_
  6
DASHED1
 62
    3
 10
147.06858042124156
 20
148.34189337653083
 11
144.01641020903716
 21
147.71400245460305
  0
LINE
  8
_1-1_
  6
CONTINUOUS
 62
    3
 10
89.361277399836368
 20
131.49004137193836
 11
89.904531530431811
 21
131.49004137193836
  0
LINE
  8
_1-1_
  6
CONTINUOUS
 62
    3
 10
89.904531530431811
 20
135.11248614336995
 11
89.904531530431811
 21
131.49004137193836
  0
LINE
  8
_1-1_
  6
CONTINUOUS
 62
    3
 10
89.5435786891628
 20
132.84853548616977
 11
89.5435786891628
 21
134.53241296716638
  0
LINE
  8
_1-1_
  6
CONTINUOUS
 62
    3
 10
89.710427361565678
 20
132.84853548616977
 11
89.5435786891628
 21
132.84853548616977
  0
LINE
  8
_1-1_
  6
CONTINUOUS
 62
    3
 10
89.361277399836368
 20
131.49004137193836
 11
89.361277399836368
 21
137.4900364231419
  0
LINE
  8
_1-1_
  6
CONTINUOUS
 62
    3
 10
89.361277399836368
 20
137.4900364231419
 11
97.123557425834036
 21
137.30737634607263
  0
LINE
  8
_1-1_
  6
CONTINUOUS
 62
    3
 10
97.123557425834036
 20
119.97829952755491
 11
97.123557425834036
 21
137.30737634607263
  0
LINE
  8
_1-0_
  6
CONTINUOUS
 62
    7
 10
90.213373545053841
 20
136.67192613756336
 11
90.213373545053841
 21
111.66257703626479
  0
LINE
  8
_1-1_
  6
CONTINUOUS
 62
    7
 10
90.213373545053841
 20
136.67192613756336
 11
96.213374782252956
 21
136.67192613756336
  0
LINE
  8
_1-0_
  6
CONTINUOUS
 62
    7
 10
96.213374782252956
 20
136.67192613756336
 11
96.213374782252956
 21
111.66257703626479
  0
LINE
  8
_1-1_
  6
CONTINUOUS
 62
    3
 10
89.710427361565678
 20
136.95893158783784
 11
89.710427361565678
 21
132.84853548616977
  0
LINE
  8
_1-1_
  6
CONTINUOUS
 62
    3
 10
89.710427361565678
 20
136.95893158783784
 11
95.876027700063347
 21
136.95893158783784
  0
LINE
  8
ADD_LINE
  6
DOT
 62
    7
 10
93.213377256651185
 20
137.84809421848607
 11
93.213377256651185
 21
129.45935223553633
  0
LINE
  8
_1-1_
  6
CONTINUOUS
 62
    7
 10
94.03906538679793
 20
103.09003056706609
 11
96.213374782252956
 21
105.26433996252112
  0
LINE
  8
_1-1_
  6
CONTINUOUS
 62
    7
 10
91.776327184728686
 20
103.09003056706609
 11
94.745809194203972
 21
106.05951257654139
  0
LINE
  8
_1-1_
  6
CONTINUOUS
 62
    7
 10
95.376316792256134
 20
106.69002636058912
 11
96.213374782252956
 21
107.52707816459038
  0
LINE
  8
_1-1_
  6
CONTINUOUS
 62
    7
 10
90.213373545053841
 20
103.78982131545608
 11
96.213374782252956
 21
109.78982873865077
  0
LINE
  8
_1-1_
  6
CONTINUOUS
 62
    7
 10
90.213373545053841
 20
106.05255951752534
 11
96.213374782252956
 21
112.05256694072003
  0
LINE
  8
_1-1_
  6
CONTINUOUS
 62
    7
 10
90.213373545053841
 20
108.3152977195946
 11
96.213374782252956
 21
114.31530514278928
  0
LINE
  8
_1-1_
  6
CONTINUOUS
 62
    7
 10
90.213373545053841
 20
110.57803592166385
 11
96.213374782252956
 21
116.57804334485854
  0
LINE
  8
_1-1_
  6
CONTINUOUS
 62
    7
 10
90.213373545053841
 20
112.84078649572425
 11
96.213374782252956
 21
118.84079391891892
  0
LINE
  8
_1-1_
  6
CONTINUOUS
 62
    7
 10
90.213373545053841
 20
115.1035246977935
 11
96.213374782252956
 21
121.10353212098818
  0
LINE
  8
_1-1_
  6
CONTINUOUS
 62
    7
 10
90.213373545053841
 20
117.36627527185389
 11
96.213374782252956
 21
123.36628269504857
  0
LINE
  8
_1-1_
  6
CONTINUOUS
 62
    7
 10
90.213373545053841
 20
119.62901347392315
 11
96.213374782252956
 21
125.62902089711783
  0
LINE
  8
_1-1_
  6
CONTINUOUS
 62
    7
 10
90.213373545053841
 20
121.89176404798354
 11
96.213374782252956
 21
127.89175909918708
  0
LINE
  8
_1-1_
  6
CONTINUOUS
 62
    7
 10
90.213373545053841
 20
124.15448987806167
 11
96.213374782252956
 21
130.15449730125633
  0
LINE
  8
_1-1_
  6
CONTINUOUS
 62
    7
 10
90.213373545053841
 20
126.41724045212204
 11
96.213374782252956
 21
132.4172355033256
  0
LINE
  8
_1-1_
  6
CONTINUOUS
 62
    7
 10
90.213373545053841
 20
128.6799786541913
 11
96.213374782252956
 21
134.67998607738599
  0
LINE
  8
_1-1_
  6
CONTINUOUS
 62
    7
 10
90.213373545053841
 20
130.94271685626057
 11
95.942582826356642
 21
136.67192613756336
  0
LINE
  8
_1-1_
  6
CONTINUOUS
 62
    7
 10
90.213373545053841
 20
133.20545505832982
 11
93.679844624287384
 21
136.67192613756336
  0
LINE
  8
_1-1_
  6
CONTINUOUS
 62
    7
 10
90.213373545053841
 20
135.46819326039909
 11
91.417106422218126
 21
136.67192613756336
  0
LINE
  8
_1-1_
  6
CONTINUOUS
 62
    7
 10
140.79480557828336
 20
153.32862235404352
 11
143.21392574825802
 21
147.95279425543708
  0
LINE
  8
_1-1_
  6
CONTINUOUS
 62
    7
 10
135.00663138724664
 20
144.2595198347762
 11
143.21392574825802
 21
147.95279425543708
  0
LINE
  8
_1-1_
  6
CONTINUOUS
 62
    7
 10
140.79480557828336
 20
153.32862235404352
 11
135.00663138724664
 21
144.2595198347762
  0
LINE
  8
_1-1_
  6
CONTINUOUS
 62
    7
 10
132.21336983345651
 20
115.09002685546875
 11
138.21336488466005
 21
140.19003790778083
  0
LINE
  8
_1-1_
  6
CONTINUOUS
 62
    7
 10
138.21336488466005
 20
115.09002685546875
 11
289.56590807115708
 21
115.09002685546875
  0
LINE
  8
_1-4_
  6
CONTINUOUS
 62
    7
 10
55.13513513513513
 20
103.09003056706609
 11
55.13513513513513
 21
137.4900364231419
  0
LINE
  8
_1-4_
  6
CONTINUOUS
 62
    7
 10
82.702702702702709
 20
103.09003056706609
 11
55.13513513513513
 21
103.09003056706609
  0
LINE
  8
_1-4_
  6
CONTINUOUS
 62
    7
 10
82.702702702702709
 20
137.4900364231419
 11
55.13513513513513
 21
137.4900364231419
  0
LINE
  8
_1-4_
  6
CONTINUOUS
 62
    7
 10
92.742356996278517
 20
104.20170964421453
 11
109.53187272355363
 21
75.121424906962631
  0
LINE
  8
_1-4_
  6
CONTINUOUS
 62
    7
 10
171.41918285472974
 20
105.81394092456715
 11
182.17750755516261
 21
87.179977829391902
  0
LINE
  8
_1-4_
  6
CONTINUOUS
 62
    7
 10
79.358701963682449
 20
179.85935520481419
 11
68.918918918918905
 21
179.85935520481419
  0
LINE
  8
_1-4_
  6
CONTINUOUS
 62
    7
 10
109.53187272355363
 20
75.121424906962631
 11
113.51351351351352
 21
75.121424906962631
  0
LINE
  8
_1-4_
  6
CONTINUOUS
 62
    7
 10
182.17750755516261
 20
87.179977829391902
 11
187.29729729729732
 21
87.179977829391902
  0
LINE
  8
_1-4_
  6
CONTINUOUS
 62
    7
 10
288.64864864864865
 20
162.16216216216216
 11
295.83011936497047
 21
162.16216216216216
  0
LINE
  8
_1-4_
  6
CONTINUOUS
 62
    7
 10
278.49121918549412
 20
162.16216216216216
 11
288.64864864864865
 21
162.16216216216216
  0
LINE
  8
_1-4_
  6
CONTINUOUS
 62
    7
 10
296.0539534285262
 20
155.87681950749578
 11
282.12007264833193
 21
155.87681950749578
  0
LINE
  8
_1-4_
  6
CONTINUOUS
 62
    7
 10
296.72545561919344
 20
148.49029541015625
 11
286.38467324746625
 21
148.49029541015625
  0
LINE
  8
_1-4_
  6
CONTINUOUS
 62
    7
 10
296.50162155563771
 20
141.77528587547511
 11
290.26158513249578
 21
141.77528587547511
  0
LINE
  8
_1-4_
  6
CONTINUOUS
 62
    7
 10
291.03473560230151
 20
140.43616629935602
 11
293.74952161634292
 21
135.73400548986487
  0
LINE
  8
_1-4_
  6
CONTINUOUS
 62
    7
 10
293.74952161634292
 20
135.73400548986487
 11
295.83011936497047
 21
135.73400548986487
  0
LINE
  8
_1-4_
  6
CONTINUOUS
 62
    7
 10
112.25817706133869
 20
116.21674408783784
 11
83.98232537346918
 21
165.19196381440034
  0
LINE
  8
_1-4_
  6
CONTINUOUS
 62
    7
 10
83.98232537346918
 20
165.19196381440034
 11
79.54711501662797
 21
165.19196381440034
  0
LINE
  8
_1-4_
  6
CONTINUOUS
 62
    7
 10
114.78735846442146
 20
118.49512048669764
 11
79.358701963682449
 21
179.85935520481419
  0
LINE
  8
_1-4_
  6
CONTINUOUS
 62
    7
 10
215.42407886402029
 20
270.413818359375
 11
220.43433936866555
 21
272.66844053526182
  0
LINE
  8
_1-0_
  6
CONTINUOUS
 62
    7
 10
146.98649226008234
 20
130.97891730231208
 11
318.36820035367401
 21
208.10070140941724
  0
LINE
  8
_1-0_
  6
CONTINUOUS
 62
    7
 10
132.21336983345651
 20
137.4900364231419
 11
313.44380146748313
 21
219.04372756545609
  0
LINE
  8
_1-0_
  6
CONTINUOUS
 62
    7
 10
147.39687120592274
 20
147.61235417546453
 11
312.21271411792651
 21
221.77949647645693
  0
LINE
  8
_1-b_
  6
CONTINUOUS
 62
    3
 10
289.00649612014359
 20
220.95834268105997
 11
309.23222722233953
 21
228.40284192884292
  0
LINE
  8
_1-b_
  6
CONTINUOUS
 62
    3
 10
289.72278491870776
 20
224.20561919341216
 11
308.08037010399073
 21
230.96253266205659
  0
LINE
  8
_1-c_
  6
CONTINUOUS
 62
    7
 10
287.23576726140203
 20
230.96245843010982
 11
305.11846593908365
 21
237.5445556640625
  0
LINE
  8
_1-0_
  6
CONTINUOUS
 62
    7
 10
146.98650463207349
 20
148.52428126979518
 11
311.80235991606844
 21
222.69143594277872
  0
LINE
  8
_1-0_
  6
CONTINUOUS
 62
    7
 10
146.74028963656039
 20
149.07143257759714
 11
311.55615729254646
 21
223.23857487858953
  0
LINE
  8
_1-1_
  6
DASHED1
 62
    3
 10
147.06858042124156
 20
148.34189337653083
 11
311.88443570523651
 21
222.50904804951438
  0
LINE
  8
_1-4_
  6
DASHED1
 62
    3
 10
131.2667516759924
 20
150.80635689400339
 11
128.47967611776818
 21
156.9998498865076
  0
LINE
  8
_1-4_
  6
CONTINUOUS
 62
    7
 10
129.12241342905406
 20
145.64854802312078
 11
117.24863000818202
 21
166.21455836940456
  0
LINE
  8
_1-4_
  6
CONTINUOUS
 62
    7
 10
129.12241342905406
 20
145.64854802312078
 11
133.66169697529563
 21
145.64854802312078
  0
LINE
  8
_1-4_
  6
CONTINUOUS
 62
    7
 10
117.24863000818202
 20
166.21455836940456
 11
113.68882462785051
 21
166.21455836940456
  0
LINE
  8
_1-1_
  6
CONTINUOUS
 62
    7
 10
132.58751121727198
 20
149.63533556139149
 11
135.00663138724664
 21
144.2595198347762
  0
LINE
  8
_1-0_
  6
CONTINUOUS
 62
    7
 10
140.79480557828336
 20
153.32862235404352
 11
132.58751121727198
 21
149.63533556139149
  0
LINE
  8
_1-0_
  6
CONTINUOUS
 62
    7
 10
132.58751121727198
 20
149.63533556139149
 11
143.21392574825802
 21
147.95279425543708
  0
ARC
  8
_1-a_
  6
CONTINUOUS
 62
    3
 10
130.06804182722763
 20
151.1465124181799
 40
21.314104441049938
 50
169.462890625
 51
219.50543212890628
  0
ARC
  8
_1-b_
  6
CONTINUOUS
 62
    3
 10
161.69450089738177
 20
164.84267776076859
 40
1.5999999239638045
 50
110.20680236816406
 51
200.20738220214844
  0
ARC
  8
_1-b_
  6
CONTINUOUS
 62
    3
 10
204.55481451910896
 20
184.12982012774495
 40
1.5999999239638045
 50
110.20680236816406
 51
200.20738220214844
  0
ARC
  8
_1-b_
  6
CONTINUOUS
 62
    3
 10
247.41512814083617
 20
203.4169624947213
 40
1.5999999239638045
 50
110.20680236816406
 51
200.20738220214844
  0
ARC
  8
_1-b_
  6
CONTINUOUS
 62
    3
 10
290.27544176256333
 20
222.70410486169766
 40
1.5999999239638045
 50
110.20680236816406
 51
200.20738220214844
  0
ARC
  8
_1-c_
  6
CONTINUOUS
 62
    7
 10
159.20750798405828
 20
171.59951699746622
 40
1.5999999239638045
 50
110.20722961425781
 51
200.20695495605469
  0
ARC
  8
_1-c_
  6
CONTINUOUS
 62
    7
 10
202.0678216057855
 20
190.88665936444258
 40
1.5999999239638045
 50
110.20722961425781
 51
200.20695495605469
  0
ARC
  8
_1-c_
  6
CONTINUOUS
 62
    7
 10
244.92813522751268
 20
210.17380173141893
 40
1.5999999239638045
 50
110.20722961425781
 51
200.20695495605469
  0
ARC
  8
_1-c_
  6
CONTINUOUS
 62
    7
 10
287.7884488492399
 20
229.46091935441302
 40
1.5999999239638045
 50
110.20748901367187
 51
200.20695495605469
  0
ARC
  8
_1-c_
  6
CONTINUOUS
 62
    7
 10
112.55797515044341
 20
156.15930918100719
 40
0.8160004744658599
 50
198.47985839843753
 51
280.80862426757812
  0
ARC
  8
_1-1_
  6
CONTINUOUS
 62
    3
 10
98.323560147672097
 20
119.97829952755491
 40
1.1999999188088082
 50
180
 51
270
  0
ARC
  8
_1-1_
  6
CONTINUOUS
 62
    3
 10
129.7569109942462
 20
119.97829952755491
 40
1.1999999188088082
 50
270
 51
0
  0
TEXT
  8
_0-0_
 62
    7
 10
141.89189395389042
 20
14.594594594594582
 40
2.5
 41
1
 50
0
  1
縮尺
  0
TEXT
  8
_0-0_
 62
    7
 10
377.10214563318203
 20
22.865493362014362
 40
2.5
 41
1
 50
0
  1
ＮＯ
  0
TEXT
  8
_0-0_
 62
    7
 10
14.594594336844779
 20
24.324324324324323
 40
2.5
 41
1
 50
0
  1
和形
  0
TEXT
  8
_0-0_
 62
    7
 10
25.556194717819636
 20
20.211577544341225
 40
2.5
 41
1
 50
0
  1
木造
  0
TEXT
  8
_0-0_
 62
    7
 10
383.23801896378802
 20
18.523427086907475
 40
3
 41
1
 50
0
  1
Ｊ
  0
TEXT
  8
_1-0_
 62
    7
 10
169.90681828679266
 20
13.3181144095756
 40
2.5
 41
1
 50
0
  1
1/5
  0
TEXT
  8
_1-a_
 62
    7
 10
105.32767380698947
 20
221.41870520091683
 40
2.5
 41
1
 50
24.227891841336699
  1
245
  0
TEXT
  8
_1-5_
 62
    7
 10
248.2545883591111
 20
246.53555380331505
 40
2.5
 41
1
 50
0
  1
桟瓦
  0
TEXT
  8
_1-5_
 62
    7
 10
298.08724068306589
 20
161.32160908467063
 40
2.5
 41
1
 50
0
  1
瓦桟　
  0
TEXT
  8
_1-5_
 62
    7
 10
298.08879955394849
 20
140.32161403346706
 40
2.5
 41
1
 50
0
  1
野地板
  0
TEXT
  8
_1-5_
 62
    7
 10
312.09329965952281
 20
140.32161403346706
 40
2.5
 41
1
 50
0
  1
ｔ＝12
  0
TEXT
  8
_1-5_
 62
    7
 10
107.97870326686549
 20
195.96500293628591
 40
2.5
 41
1
 50
0
  1
万十軒瓦
  0
TEXT
  8
_1-5_
 62
    7
 10
102.86810075914539
 20
182.65392818966427
 40
2.5
 41
1
 50
0
  1
瓦座
  0
TEXT
  8
_1-4_
 62
    7
 10
54.635133485536329
 20
118.41503658810178
 40
2.5
 41
1
 50
90
  1
172
  0
TEXT
  8
_1-4_
 62
    7
 10
189.61077097299938
 20
85.624286548511407
 40
2.5
 41
1
 50
0
  1
軒天井板
  0
TEXT
  8
_1-4_
 62
    7
 10
115.98976753853464
 20
73.65152101258974
 40
2.5
 41
1
 50
0
  1
鼻隠し
  0
TEXT
  8
_1-4_
 62
    7
 10
127.37399333232159
 20
73.482463939769858
 40
2.5
 41
1
 50
0
  1
30ｘ170
  0
TEXT
  8
_1-4_
 62
    7
 10
34.457895433580575
 20
177.34296644056167
 40
2.5
 41
1
 50
0
  1
樋　ステンレス　ｔ＝0.4
  0
TEXT
  8
_1-4_
 62
    7
 10
62.304085396431589
 20
164.14223748284419
 40
2.5
 41
1
 50
0
  1
合板　ｔ＝12
  0
TEXT
  8
_1-4_
 62
    7
 10
39.721904445338907
 20
15.395235628695104
 40
2.5
 41
1
 50
0
  1
軒先　　3
  0
TEXT
  8
_1-4_
 62
    7
 10
394.51423851219386
 20
15.372534571467213
 40
2.5
 41
1
 50
0
  1
3
  0
TEXT
  8
_1-4_
 62
    7
 10
149.04221155640883
 20
241.09024533235686
 40
2.5
 41
1
 50
24.227891841336653
  1
237
  0
TEXT
  8
_1-4_
 62
    7
 10
191.99070035893206
 20
260.41707704688389
 40
2.5
 41
1
 50
24.227891841336664
  1
237
  0
TEXT
  8
_1-4_
 62
    7
 10
106.06281796017208
 20
164.71356366131758
 40
2.5
 41
1
 50
0
  1
面戸
  0
TEXT
  8
_1-0_
 62
    7
 10
336.5664342931799
 20
161.2150862410262
 40
2.5
 41
1
 50
0
  1
※　地域により瓦桟木の大きさは、異なります
  0
POINT
  8
_1-4_
 62
    7
 10
129.52710125897383
 20
231.76015493032097
  0
POINT
  8
_1-4_
 62
    7
 10
129.52708888698268
 20
231.76015493032097
  0
POINT
  8
_1-4_
 62
    7
 10
172.3874025087099
 20
251.04729729729732
  0
POINT
  8
_1-4_
 62
    7
 10
215.42407886402029
 20
270.413818359375
  0
POINT
  8
_1-a_
 62
    7
 10
84.958314637880079
 20
211.70421703441724
  0
POINT
  8
_1-a_
 62
    7
 10
129.52710125897383
 20
231.76015493032097
  0
POINT
  8
_1-4_
 62
    7
 10
55.13513513513513
 20
103.09003056706609
  0
POINT
  8
_1-4_
 62
    7
 10
55.13513513513513
 20
137.4900364231419
  0
TEXT
  8
_1-f_
 62
    7
 10
268.62977954103121
 20
58.229028989399254
 40
2.5
 41
1
 50
0
  1
※軒面戸の納まりには、木製、金属製、樹脂製、面戸付き軒瓦等があります。
  0
TEXT
  8
_1-f_
 62
    7
 10
270.89837791146761
 20
54.473806827777324
 40
2.5
 41
1
 50
0
  1
その他に漆喰またはモルタル仕上げもありますが、この場合は、左官仕事となります。
  0
LINE
  8
_1-4_
  6
CONTINUOUS
 62
    3
 10
131.1791703507707
 20
151.00099305848818
 11
134.83610810606831
 21
142.8744617761927
  0
LINE
  8
_1-1_
  6
DASHED1
 62
    3
 10
144.01641020903716
 20
147.71400245460305
 11
134.62780919359838
 21
143.33734841565021
  0
TEXT
  8
_1-4_
 62
    7
 10
312.18497198981208
 20
161.32160908467063
 40
2.5
 41
1
 50
0
  1
15×21　樹脂桟木
  0
TEXT
  8
_1-5_
 62
    7
 10
298.08879955394849
 20
154.32161073426943
 40
2.5
 41
1
 50
0
  1
縦桟
  0
TEXT
  8
_1-5_
 62
    7
 10
298.08880367794552
 20
147.32161238386826
 40
2.5
 41
1
 50
0
  1
ルーフィング
  0
TEXT
  8
_1-4_
 62
    7
 10
298.0277520257074
 20
134.61415471257391
 40
2.5
 41
1
 50
0
  1
たる木
  0
ENDSEC
  0
EOF
