  0
SECTION
  2
HEADER
  9
$ACADVER
  1
AC1009
  9
$INSBASE
 10
0
 20
0
 30
0
  9
$EXTMIN
 10
0
 20
0
  9
$EXTMAX
 10
420
 20
297
  9
$LIMMIN
 10
0
 20
0
  9
$LIMMAX
 10
420
 20
297
  9
$LTSCALE
 40
1
  0
ENDSEC
  0
SECTION
  2
TABLES
  0
TABLE
  2
LTYPE
 70
     9
  0
LTYPE
  2
CONTINUOUS
 70
    64
  3
実線
 72
    65
 73
     0
 40
0.0
  0
LTYPE
  2
DASHED1
 70
    64
  3
--  --  --  --  --  --  --  --  
 72
    65
 73
     2
 40
2.5
 49
1.25
 49
-1.25
  0
LTYPE
  2
DASHED2
 70
    64
  3
----    ----    ----    ----    
 72
    65
 73
     2
 40
5.0
 49
2.5
 49
-2.5
  0
LTYPE
  2
DASHED3
 70
    64
  3
------  ------  ------  ------  
 72
    65
 73
     2
 40
5.0
 49
3.75
 49
-1.25
  0
LTYPE
  2
CENTER1
 70
    64
  3
----- - ----- - ----- - ----- - 
 72
    65
 73
     4
 40
10.0
 49
6.25
 49
-1.25
 49
1.25
 49
-1.25
  0
LTYPE
  2
CENTER2
 70
    64
  3
----------  --  ----------  --  
 72
    65
 73
     4
 40
20.0
 49
12.5
 49
-2.5
 49
2.5
 49
-2.5
  0
LTYPE
  2
PHANTOM1
 70
    64
  3
--- - - --- - - --- - - --- - - 
 72
    65
 73
     6
 40
10.0
 49
3.25
 49
-1.25
 49
1.25
 49
-1.25
 49
1.25
 49
-1.25
  0
LTYPE
  2
PHANTOM2
 70
    64
  3
--------  -  -  --------  -  -  
 72
    65
 73
     6
 40
20.0
 49
10.0
 49
-2.5
 49
1.25
 49
-2.5
 49
1.25
 49
-2.5
  0
LTYPE
  2
DOT
 70
    64
  3
-   -   -   -   -   -   -   -   
 72
    65
 73
     2
 40
2.5
 49
0.625
 49
-1.875
  0
LTYPE
  2
DUMMY
 70
    64
  3
ダミー
 72
    65
 73
     0
 40
0.0
  0
LTYPE
  2
RAND1
 70
    64
  3
ランダム線1
 72
    65
 73
     4
 40
10.0
 49
1.0
 49
-2.0
 49
3.0
 49
-4.0
  0
LTYPE
  2
RAND2
 70
    64
  3
ランダム線2
 72
    65
 73
     4
 40
14.0
 49
2.0
 49
-3.0
 49
4.0
 49
-5.0
  0
LTYPE
  2
RAND3
 70
    64
  3
ランダム線3
 72
    65
 73
     4
 40
18.0
 49
3.0
 49
-4.0
 49
5.0
 49
-6.0
  0
LTYPE
  2
RAND4
 70
    64
  3
ランダム線4
 72
    65
 73
     4
 40
22.0
 49
4.0
 49
-5.0
 49
6.0
 49
-7.0
  0
LTYPE
  2
RAND5
 70
    64
  3
ランダム線5
 72
    65
 73
     4
 40
26.0
 49
5.0
 49
-6.0
 49
7.0
 49
-8.0
  0
LTYPE
  2
LONG1
 70
    64
  3
----------  --  ----------  --  
 72
    65
 73
     4
 40
40.0
 49
32.5
 49
-2.5
 49
2.5
 49
-2.5
  0
LTYPE
  2
LONG2
 70
    64
  3
--------  -  -  --------  -  -  
 72
    65
 73
     6
 40
40.0
 49
30.0
 49
-2.5
 49
1.25
 49
-2.5
 49
1.25
 49
-2.5
  0
LTYPE
  2
LONG3
 70
    64
  3
+++++++++++++++..+++++++++++++++
 72
    65
 73
     2
 40
40.0
 49
37.5
 49
-2.5
  0
LTYPE
  2
LONG4
 70
    64
  3
+++++++++++++++..+++++++++++++++
 72
    65
 73
     2
 40
80.0
 49
75.0
 49
-5.0
  0
LTYPE
  2
LONG5
 70
    64
  3
----------  --  ----------  --  
 72
    65
 73
     4
 40
60.0
 49
37.5
 49
-7.5
 49
7.5
 49
-7.5
  0
LTYPE
  2
dashed
 70
   64
  3
-------   -------------   ------
 72
   65
 73
    2
 40
7.5
 49
6
 49
-1.5
  0
LTYPE
  2
dashed_spaced
 70
   64
  3
----        --------        ----
 72
   65
 73
    2
 40
12
 49
6
 49
-6
  0
LTYPE
  2
long_dashed_dotted
 70
   64
  3
------------- --- --------------
 72
   65
 73
    4
 40
15.25
 49
12
 49
-1.5
 49
0.25
 49
-1.5
  0
LTYPE
  2
long_dashed_double-dotted
 70
   64
  3
----------- --- --- ------------
 72
   65
 73
    6
 40
17
 49
12
 49
-1.5
 49
0.25
 49
-1.5
 49
0.25
 49
-1.5
  0
LTYPE
  2
long_dashed_triplicate-dotted
 70
   64
  3
--------- --- --- --- ----------
 72
   65
 73
    8
 40
18.75
 49
12
 49
-1.5
 49
0.25
 49
-1.5
 49
0.25
 49
-1.5
 49
0.25
 49
-1.5
  0
LTYPE
  2
dotted
 70
   64
  3
   -       -       -       -    
 72
   65
 73
    2
 40
1.75
 49
0.25
 49
-1.5
  0
LTYPE
  2
chain
 70
   64
  3
-------------- -- --------------
 72
   65
 73
    4
 40
18.5
 49
12
 49
-1.5
 49
3.5
 49
-1.5
  0
LTYPE
  2
chain_double_dash
 70
   64
  3
------------ -- -- -------------
 72
   65
 73
    6
 40
23.5
 49
12
 49
-1.5
 49
3.5
 49
-1.5
 49
3.5
 49
-1.5
  0
LTYPE
  2
dashed_dotted
 70
   64
  3
-----------     -     ----------
 72
   65
 73
    4
 40
9.25
 49
6
 49
-1.5
 49
0.25
 49
-1.5
  0
LTYPE
  2
double-dashed_dotted
 70
   64
  3
------   -----------   -   -----
 72
   65
 73
    6
 40
16.75
 49
6
 49
-1.5
 49
6
 49
-1.5
 49
0.25
 49
-1.5
  0
LTYPE
  2
dashed_double-dotted
 70
   64
  3
---------    -    -    ---------
 72
   65
 73
    6
 40
11
 49
6
 49
-1.5
 49
0.25
 49
-1.5
 49
0.25
 49
-1.5
  0
LTYPE
  2
double-dashed_double-dotted
 70
   64
  3
-----   ---------   -   -   ----
 72
   65
 73
    8
 40
18.5
 49
6
 49
-1.5
 49
6
 49
-1.5
 49
0.25
 49
-1.5
 49
0.25
 49
-1.5
  0
LTYPE
  2
dashed_triplicate-dotted
 70
   64
  3
-------    -    -    -    ------
 72
   65
 73
    8
 40
12.75
 49
6
 49
-1.5
 49
0.25
 49
-1.5
 49
0.25
 49
-1.5
 49
0.25
 49
-1.5
  0
LTYPE
  2
double-dashed_triplicate-dotted
 70
   64
  3
-----  ---------  -  -  -  -----
 72
   65
 73
   10
 40
20.25
 49
6
 49
-1.5
 49
6
 49
-1.5
 49
0.25
 49
-1.5
 49
0.25
 49
-1.5
 49
0.25
 49
-1.5
  0
LTYPE
  2
undefined
 70
   64
  3
--------------------------------
 72
   65
 73
    0
 40
0
  0
ENDTAB
  0
TABLE
  2
STYLE
  5
3
100
AcDbSymbolTable
 70
     1
  0
STYLE
  5
10
100
AcDbSymbolTableRecord
100
AcDbTextStyleTableRecord
  2
STANDARD
 70
     0
 40
0.0
 41
1.0
 50
0.0
 71
     0
 42
0.2
  3
txt
  4
bigfont.shx
  0
STYLE
  5
26
100
AcDbSymbolTableRecord
100
AcDbTextStyleTableRecord
  2
TATEGAKI
 70
    68
 40
0.0
 41
1.0
 50
0.0
 71
     0
 42
1.0
  3
txt
  4
bigfont.shx
  0
ENDTAB
  0
TABLE
  2
LAYER
 70
    7
  0
LAYER
  2
_0-0_
 70
   64
 62
    7
  6
CONTINUOUS
  0
LAYER
  2
_1-0_
 70
   64
 62
    7
  6
CONTINUOUS
  0
LAYER
  2
_1-1_
 70
   64
 62
    7
  6
CONTINUOUS
  0
LAYER
  2
_1-2_
 70
   64
 62
    7
  6
CONTINUOUS
  0
LAYER
  2
_1-3_
 70
   64
 62
    7
  6
CONTINUOUS
  0
LAYER
  2
_1-4_
 70
   64
 62
    7
  6
CONTINUOUS
  0
LAYER
  2
ADD_LINE
 70
   64
 62
    7
  6
CONTINUOUS
  0
ENDTAB
  0
ENDSEC
  0
SECTION
  2
BLOCKS
  0
ENDSEC
  0
SECTION
  2
ENTITIES
  0
LINE
  8
_1-1_
  6
CONTINUOUS
 62
    7
 10
252.66617233688768
 20
165.98612192514781
 11
252.12566478832349
 21
168.93702738993878
  0
LINE
  8
_1-1_
  6
CONTINUOUS
 62
    7
 10
252.12566478832349
 20
168.93702738993878
 11
269.83109757706927
 21
172.18009742530617
  0
LINE
  8
_1-1_
  6
CONTINUOUS
 62
    7
 10
269.83109757706927
 20
172.18009742530617
 11
270.37160512563344
 21
169.22919196051521
  0
LINE
  8
_1-1_
  6
CONTINUOUS
 62
    7
 10
270.37160512563344
 20
169.22919196051521
 11
252.66617233688768
 21
165.98612192514781
  0
ARC
  8
_1-0_
  6
CONTINUOUS
 62
    3
 10
263.31123145850933
 20
99.713225493559975
 40
60.168024011560391
 50
90
 51
109.9202880859375
  0
ARC
  8
_1-4_
  6
CONTINUOUS
 62
    7
 10
250.45182599162251
 20
160.40965695000844
 40
3.1534191446054756
 50
334.28355408474368
 51
18.749568685288036
  0
TEXT
  8
_1-3_
 62
    7
 10
61.324002033955367
 20
174.8380588840794
 40
2.5
 41
1
 50
0
  1
野地板　ｔ＝12
  0
TEXT
  8
_1-3_
 62
    7
 10
61.324003064954638
 20
186.83804898648648
 40
2.5
 41
1
 50
0
  1
縦桟
  0
TEXT
  8
_1-3_
 62
    7
 10
61.368127771326016
 20
180.88480768976987
 40
2.5
 41
1
 50
0
  1
ルーフィング
  0
TEXT
  8
_1-3_
 62
    7
 10
61.480543806746198
 20
168.83806383287586
 40
2.5
 41
1
 50
0
  1
たる木
  0
LINE
  8
_0-0_
  6
CONTINUOUS
 62
    5
 10
6.7567526327597136
 20
280.13513513513516
 11
406.75677325274495
 21
280.13513513513516
  0
LINE
  8
_0-0_
  6
CONTINUOUS
 62
    5
 10
406.75677325274495
 20
10.13513513513513
 11
6.7567526327597136
 21
10.13513513513513
  0
LINE
  8
_0-0_
  6
CONTINUOUS
 62
    5
 10
406.75677325274495
 20
30.135133073136615
 11
6.7567402607685949
 21
30.135133073136615
  0
LINE
  8
_0-0_
  6
CONTINUOUS
 62
    5
 10
371.75678150073907
 20
10.13513513513513
 11
371.75678150073907
 21
30.135133073136615
  0
LINE
  8
_0-0_
  6
CONTINUOUS
 62
    5
 10
137.02703939901818
 20
30.135133073136615
 11
137.02703939901818
 21
10.13513513513513
  0
LINE
  8
_0-0_
  6
CONTINUOUS
 62
    5
 10
214.86486486486487
 20
30.135133073136615
 11
214.86486486486487
 21
10.13513513513513
  0
LINE
  8
_0-0_
  6
CONTINUOUS
 62
    5
 10
137.02703939901818
 20
20.135134104135886
 11
214.86486486486487
 21
20.135134104135886
  0
LINE
  8
_0-0_
  6
CONTINUOUS
 62
    5
 10
396.48648648648651
 20
25.945945945945951
 11
383.91891891891896
 21
13.378379924877265
  0
LINE
  8
_1-1_
  6
CONTINUOUS
 62
    7
 10
272.27033460462417
 20
199.29039620064401
 11
272.27033460462417
 21
115.94594594594595
  0
LINE
  8
_1-1_
  6
CONTINUOUS
 62
    7
 10
126.31341470254435
 20
136.32645065720018
 11
66.486474114495365
 21
136.32645065720018
  0
LINE
  8
_1-1_
  6
CONTINUOUS
 62
    7
 10
126.31341470254435
 20
136.32645065720018
 11
242.83313648120779
 21
136.32645065720018
  0
LINE
  8
_1-1_
  6
CONTINUOUS
 62
    7
 10
66.486474114495365
 20
133.32645313159841
 11
242.83313648120779
 21
133.32645313159841
  0
LINE
  8
_1-1_
  6
CONTINUOUS
 62
    7
 10
242.83313648120779
 20
136.32645065720018
 11
242.83313648120779
 21
133.32645313159841
  0
LINE
  8
_1-1_
  6
CONTINUOUS
 62
    7
 10
235.47618144267315
 20
132.72644867768159
 11
235.47618144267315
 21
133.32644075960727
  0
LINE
  8
_1-1_
  6
CONTINUOUS
 62
    7
 10
235.47618144267315
 20
133.32644075960727
 11
240.2761675860431
 21
133.32644075960727
  0
LINE
  8
_1-1_
  6
CONTINUOUS
 62
    7
 10
240.2761675860431
 20
133.32644075960727
 11
240.2761675860431
 21
132.72644867768159
  0
LINE
  8
_1-1_
  6
CONTINUOUS
 62
    7
 10
240.2761675860431
 20
132.72644867768159
 11
235.47618144267315
 21
132.72644867768159
  0
LINE
  8
_1-1_
  6
CONTINUOUS
 62
    7
 10
235.47618144267315
 20
132.72644867768159
 11
240.2761675860431
 21
133.32644075960727
  0
LINE
  8
_1-1_
  6
CONTINUOUS
 62
    7
 10
66.486474114495365
 20
132.72644867768159
 11
240.2761675860431
 21
132.72644867768159
  0
LINE
  8
_1-1_
  6
CONTINUOUS
 62
    3
 10
243.88814565297722
 20
132.47366415487755
 11
243.88814565297722
 21
136.32645065720018
  0
LINE
  8
_1-1_
  6
CONTINUOUS
 62
    3
 10
243.88814565297722
 20
136.32645065720018
 11
247.99698288376268
 21
136.32645065720018
  0
LINE
  8
_1-0_
  6
CONTINUOUS
 62
    3
 10
242.81123805690459
 20
156.28124752560177
 11
242.81123805690459
 21
150.88124455632391
  0
LINE
  8
_1-2_
  6
CONTINUOUS
 62
    3
 10
263.31123145850933
 20
159.88124950512037
 11
263.31123145850933
 21
156.28124752560177
  0
LINE
  8
_1-0_
  6
CONTINUOUS
 62
    3
 10
245.0314660974451
 20
163.21938592034419
 11
245.0314660974451
 21
157.8193829510663
  0
LINE
  8
_1-2_
  6
CONTINUOUS
 62
    3
 10
265.53145949904984
 20
166.81938789986276
 11
265.53145949904984
 21
163.21938592034419
  0
LINE
  8
_1-1_
  6
CONTINUOUS
 62
    7
 10
272.27033460462417
 20
129.09926543364654
 11
66.486474114495365
 21
129.09926543364654
  0
LINE
  8
_1-1_
  6
CONTINUOUS
 62
    7
 10
272.27033460462417
 20
131.49927087732263
 11
66.486474114495365
 21
131.49927087732263
  0
LINE
  8
_1-1_
  6
DASHED1
 62
    3
 10
271.80579108160896
 20
131.99859206740922
 11
66.486474114495365
 21
131.99859206740922
  0
LINE
  8
_1-1_
  6
CONTINUOUS
 62
    7
 10
272.27033460462417
 20
115.94594594594595
 11
272.27033460462417
 21
85.128089286185599
  0
LINE
  8
_1-1_
  6
CONTINUOUS
 62
    7
 10
260.27034450221709
 20
117.09926295924832
 11
260.27034450221709
 21
129.09926543364654
  0
LINE
  8
_1-1_
  6
CONTINUOUS
 62
    7
 10
260.27034450221709
 20
129.09926543364654
 11
272.27033460462417
 21
129.09926543364654
  0
LINE
  8
_1-1_
  6
CONTINUOUS
 62
    7
 10
272.27033460462417
 20
129.09926543364654
 11
272.27033460462417
 21
117.09926295924832
  0
LINE
  8
_1-1_
  6
CONTINUOUS
 62
    7
 10
272.27033460462417
 20
117.09926295924832
 11
260.27034450221709
 21
117.09926295924832
  0
LINE
  8
_1-1_
  6
CONTINUOUS
 62
    7
 10
272.27033460462417
 20
129.09926543364654
 11
260.27034450221709
 21
117.09926295924832
  0
LINE
  8
_1-1_
  6
CONTINUOUS
 62
    7
 10
252.12566478832349
 20
168.93702738993878
 11
270.37160512563344
 21
169.22919196051521
  0
LINE
  8
_1-1_
  6
CONTINUOUS
 62
    3
 10
251.24178499788852
 20
169.1636204075169
 11
251.13221864442568
 21
165.54784413930534
  0
LINE
  8
_1-1_
  6
CONTINUOUS
 62
    7
 10
265.27033625422297
 20
172.77940904771961
 11
267.67032932590797
 21
172.77940904771961
  0
LINE
  8
_1-1_
  6
CONTINUOUS
 62
    7
 10
267.67032932590797
 20
174.34112548828125
 11
267.67032932590797
 21
182.34112713788008
  0
LINE
  8
_1-1_
  6
CONTINUOUS
 62
    7
 10
267.67032932590797
 20
182.34112713788008
 11
271.27033130542651
 21
182.34112713788008
  0
LINE
  8
_1-1_
  6
CONTINUOUS
 62
    7
 10
271.27033130542651
 20
182.34112713788008
 11
271.27033130542651
 21
174.34112548828125
  0
LINE
  8
_1-1_
  6
CONTINUOUS
 62
    7
 10
271.27033130542651
 20
174.34112548828125
 11
267.67032932590797
 21
174.34112548828125
  0
LINE
  8
_1-1_
  6
CONTINUOUS
 62
    7
 10
271.27033130542651
 20
182.34112713788008
 11
267.67032932590797
 21
174.34112548828125
  0
LINE
  8
_1-1_
  6
CONTINUOUS
 62
    3
 10
251.24178499788852
 20
169.1636204075169
 11
271.55330348659209
 21
172.88403897672086
  0
LINE
  8
_1-1_
  6
CONTINUOUS
 62
    3
 10
271.55330348659209
 20
172.88403897672086
 11
271.55330348659209
 21
184.88897787558068
  0
LINE
  8
ADD_LINE
  6
DOT
 62
    4
 10
272.27033460462417
 20
214.86486486486487
 11
272.27033460462417
 21
112.59930997281462
  0
LINE
  8
_1-1_
  6
CONTINUOUS
 62
    7
 10
272.27033460462417
 20
199.29039620064401
 11
272.27033460462417
 21
214.86486486486487
  0
LINE
  8
_1-1_
  6
CONTINUOUS
 62
    7
 10
267.67032932590797
 20
172.77940904771961
 11
267.67032932590797
 21
214.86486486486487
  0
LINE
  8
_1-1_
  6
CONTINUOUS
 62
    7
 10
265.27033625422297
 20
172.77940904771961
 11
265.27033625422297
 21
214.86486486486487
  0
LINE
  8
_1-1_
  6
CONTINUOUS
 62
    7
 10
199.67035242029141
 20
117.09926295924832
 11
199.67035242029141
 21
129.09926543364654
  0
LINE
  8
_1-1_
  6
CONTINUOUS
 62
    7
 10
199.67035242029141
 20
129.09926543364654
 11
211.67034252269849
 21
129.09926543364654
  0
LINE
  8
_1-1_
  6
CONTINUOUS
 62
    7
 10
211.67034252269849
 20
129.09926543364654
 11
211.67034252269849
 21
117.09926295924832
  0
LINE
  8
_1-1_
  6
CONTINUOUS
 62
    7
 10
211.67034252269849
 20
117.09926295924832
 11
199.67035242029141
 21
117.09926295924832
  0
LINE
  8
_1-1_
  6
CONTINUOUS
 62
    7
 10
211.67034252269849
 20
129.09926543364654
 11
199.67035242029141
 21
117.09926295924832
  0
LINE
  8
_1-1_
  6
CONTINUOUS
 62
    7
 10
139.07036033836573
 20
117.09926295924832
 11
139.07036033836573
 21
129.09926543364654
  0
LINE
  8
_1-1_
  6
CONTINUOUS
 62
    7
 10
139.07036033836573
 20
129.09926543364654
 11
151.07035044077281
 21
129.09926543364654
  0
LINE
  8
_1-1_
  6
CONTINUOUS
 62
    7
 10
151.07035044077281
 20
129.09926543364654
 11
151.07035044077281
 21
117.09926295924832
  0
LINE
  8
_1-1_
  6
CONTINUOUS
 62
    7
 10
151.07035044077281
 20
117.09926295924832
 11
139.07036033836573
 21
117.09926295924832
  0
LINE
  8
_1-1_
  6
CONTINUOUS
 62
    7
 10
151.07035044077281
 20
129.09926543364654
 11
139.07036033836573
 21
117.09926295924832
  0
LINE
  8
_1-1_
  6
CONTINUOUS
 62
    7
 10
78.470368256440054
 20
117.09926295924832
 11
78.470368256440054
 21
129.09926543364654
  0
LINE
  8
_1-1_
  6
CONTINUOUS
 62
    7
 10
78.470368256440054
 20
129.09926543364654
 11
90.470358358847136
 21
129.09926543364654
  0
LINE
  8
_1-1_
  6
CONTINUOUS
 62
    7
 10
90.470358358847136
 20
129.09926543364654
 11
90.470358358847136
 21
117.09926295924832
  0
LINE
  8
_1-1_
  6
CONTINUOUS
 62
    7
 10
90.470358358847136
 20
117.09926295924832
 11
78.470368256440054
 21
117.09926295924832
  0
LINE
  8
_1-1_
  6
CONTINUOUS
 62
    7
 10
90.470358358847136
 20
129.09926543364654
 11
78.470368256440054
 21
117.09926295924832
  0
LINE
  8
_1-1_
  6
CONTINUOUS
 62
    7
 10
203.09510514542865
 20
132.72644867768159
 11
203.09510514542865
 21
133.32644075960727
  0
LINE
  8
_1-1_
  6
CONTINUOUS
 62
    7
 10
203.09510514542865
 20
133.32644075960727
 11
207.89507891680745
 21
133.32644075960727
  0
LINE
  8
_1-1_
  6
CONTINUOUS
 62
    7
 10
207.89507891680745
 20
133.32644075960727
 11
207.89507891680745
 21
132.72644867768159
  0
LINE
  8
_1-1_
  6
CONTINUOUS
 62
    7
 10
207.89507891680745
 20
132.72644867768159
 11
203.09510514542865
 21
132.72644867768159
  0
LINE
  8
_1-1_
  6
CONTINUOUS
 62
    7
 10
203.09510514542865
 20
132.72644867768159
 11
207.89507891680745
 21
133.32644075960727
  0
LINE
  8
_1-1_
  6
CONTINUOUS
 62
    7
 10
141.45506162901182
 20
132.72644867768159
 11
141.45506162901182
 21
133.32644075960727
  0
LINE
  8
_1-1_
  6
CONTINUOUS
 62
    7
 10
141.45506162901182
 20
133.32644075960727
 11
146.25504777238177
 21
133.32644075960727
  0
LINE
  8
_1-1_
  6
CONTINUOUS
 62
    7
 10
146.25504777238177
 20
133.32644075960727
 11
146.25504777238177
 21
132.72644867768159
  0
LINE
  8
_1-1_
  6
CONTINUOUS
 62
    7
 10
146.25504777238177
 20
132.72644867768159
 11
141.45506162901182
 21
132.72644867768159
  0
LINE
  8
_1-1_
  6
CONTINUOUS
 62
    7
 10
141.45506162901182
 20
132.72644867768159
 11
146.25504777238177
 21
133.32644075960727
  0
LINE
  8
_1-1_
  6
CONTINUOUS
 62
    7
 10
80.341879354940886
 20
132.72644867768159
 11
80.341879354940886
 21
133.32644075960727
  0
LINE
  8
_1-1_
  6
CONTINUOUS
 62
    7
 10
80.341879354940886
 20
133.32644075960727
 11
85.141865498310821
 21
133.32644075960727
  0
LINE
  8
_1-1_
  6
CONTINUOUS
 62
    7
 10
85.141865498310821
 20
133.32644075960727
 11
85.141865498310821
 21
132.72644867768159
  0
LINE
  8
_1-1_
  6
CONTINUOUS
 62
    7
 10
85.141865498310821
 20
132.72644867768159
 11
80.341879354940886
 21
132.72644867768159
  0
LINE
  8
_1-1_
  6
CONTINUOUS
 62
    7
 10
80.341879354940886
 20
132.72644867768159
 11
85.141865498310821
 21
133.32644075960727
  0
LINE
  8
_1-3_
  6
CONTINUOUS
 62
    7
 10
145.06313014674831
 20
125.82907599371833
 11
117.64015403953759
 21
201.17309157912797
  0
LINE
  8
_1-3_
  6
CONTINUOUS
 62
    7
 10
265.93233675570104
 20
200.51151172534841
 11
256.27097464896536
 21
227.0558785103463
  0
LINE
  8
_1-3_
  6
CONTINUOUS
 62
    7
 10
261.91455737964526
 20
169.64991389094172
 11
249.71980739284209
 21
203.15468865471919
  0
LINE
  8
_1-3_
  6
CONTINUOUS
 62
    7
 10
251.16003088048987
 20
167.13458911792654
 11
242.86255707611909
 21
189.93169011296453
  0
LINE
  8
_1-3_
  6
CONTINUOUS
 62
    7
 10
247.58531725084461
 20
161.62059062236065
 11
241.25847893792232
 21
179.00342374234586
  0
LINE
  8
_1-3_
  6
CONTINUOUS
 62
    7
 10
233.6168196394637
 20
165.87186658704604
 11
240.99065007390203
 21
145.61244655299831
  0
LINE
  8
_1-3_
  6
CONTINUOUS
 62
    7
 10
245.76331886085305
 20
154.33268366633234
 11
241.25847893792232
 21
179.00342374234586
  0
LINE
  8
_1-3_
  6
CONTINUOUS
 62
    7
 10
240.91253332189612
 20
145.82708822714318
 11
251.83658084353885
 21
147.65210538297086
  0
LINE
  8
_1-3_
  6
CONTINUOUS
 62
    7
 10
255.03286000844597
 20
133.70864868164062
 11
232.83733471019849
 21
72.726918813344597
  0
LINE
  8
_1-3_
  6
CONTINUOUS
 62
    7
 10
255.03286000844597
 20
133.70864868164062
 11
255.9741953256968
 21
132.41811391469597
  0
LINE
  8
_1-3_
  6
CONTINUOUS
 62
    7
 10
256.27097464896536
 20
227.0558785103463
 11
252.75077201224664
 21
227.0558785103463
  0
LINE
  8
_1-3_
  6
CONTINUOUS
 62
    7
 10
249.71980739284209
 20
203.15468865471919
 11
246.92272289379224
 21
203.15468865471919
  0
LINE
  8
_1-3_
  6
CONTINUOUS
 62
    7
 10
242.86255707611909
 20
189.93169011296453
 11
240.87883201805323
 21
189.93169011296453
  0
LINE
  8
_1-3_
  6
CONTINUOUS
 62
    7
 10
241.25847893792232
 20
179.00342374234586
 11
238.9361572265625
 21
179.00342374234586
  0
LINE
  8
_1-3_
  6
CONTINUOUS
 62
    7
 10
233.6168196394637
 20
165.87186658704604
 11
230.08617504222974
 21
165.87186658704604
  0
LINE
  8
_1-3_
  6
CONTINUOUS
 62
    7
 10
232.83733471019849
 20
72.726918813344597
 11
223.7837837837838
 21
72.726918813344597
  0
LINE
  8
_1-3_
  6
CONTINUOUS
 62
    7
 10
113.60742929819469
 20
193.89179126636404
 11
120.29033351588895
 21
193.89179126636404
  0
LINE
  8
_1-3_
  6
CONTINUOUS
 62
    3
 10
271.55330348659209
 20
184.88897787558068
 11
271.55330348659209
 21
202.88897540118245
  0
LINE
  8
_1-3_
  6
CONTINUOUS
 62
    7
 10
305.17141806112755
 20
172.88897540118245
 11
305.17141806112755
 21
202.88897540118245
  0
LINE
  8
_1-3_
  6
CONTINUOUS
 62
    7
 10
277.73625554265203
 20
172.88897540118245
 11
305.17141806112755
 21
172.88897540118245
  0
LINE
  8
_1-3_
  6
CONTINUOUS
 62
    7
 10
277.73625554265203
 20
202.88897540118245
 11
305.17141806112755
 21
202.88897540118245
  0
LINE
  8
_1-1_
  6
DASHED1
 62
    3
 10
271.80579108160896
 20
131.99859206740922
 11
271.80579108160896
 21
212.88898364917654
  0
LINE
  8
_1-3_
  6
CONTINUOUS
 62
    7
 10
305.17141806112755
 20
202.88897540118245
 11
277.73625554265203
 21
202.88897540118245
  0
LINE
  8
_1-3_
  6
CONTINUOUS
 62
    7
 10
305.17141806112755
 20
212.88898364917654
 11
277.73625554265203
 21
212.88898364917654
  0
LINE
  8
_1-3_
  6
CONTINUOUS
 62
    7
 10
305.17141806112755
 20
202.88897540118245
 11
305.17141806112755
 21
212.88898364917654
  0
LINE
  8
_1-3_
  6
CONTINUOUS
 62
    7
 10
294.90848025760135
 20
212.88898364917654
 11
277.73625554265203
 21
212.88898364917654
  0
LINE
  8
_1-3_
  6
CONTINUOUS
 62
    7
 10
294.90848025760135
 20
131.99859206740922
 11
277.73625554265203
 21
131.99859206740922
  0
LINE
  8
_1-3_
  6
CONTINUOUS
 62
    7
 10
294.90848025760135
 20
212.88898364917654
 11
294.90848025760135
 21
131.99859206740922
  0
LINE
  8
_1-0_
  6
CONTINUOUS
 62
    3
 10
107.05454233530406
 20
146.16986661343961
 11
108.4440159153294
 21
146.16986661343961
  0
LINE
  8
_1-0_
  6
CONTINUOUS
 62
    3
 10
108.4440159153294
 20
146.16986661343961
 11
108.4440159153294
 21
142.98863178974875
  0
LINE
  8
_1-0_
  6
CONTINUOUS
 62
    3
 10
108.4440159153294
 20
146.16986661343961
 11
108.4440159153294
 21
142.98863178974875
  0
LINE
  8
_1-0_
  6
CONTINUOUS
 62
    3
 10
106.11560718433277
 20
149.05204566749367
 11
100.44394003378379
 21
145.82708822714318
  0
LINE
  8
_1-0_
  6
CONTINUOUS
 62
    3
 10
160.05451924092063
 20
146.16986661343961
 11
161.44399282094597
 21
146.16986661343961
  0
LINE
  8
_1-0_
  6
CONTINUOUS
 62
    3
 10
100.44394003378379
 20
145.82708822714318
 11
100.44394003378379
 21
143.02713342615075
  0
LINE
  8
_1-0_
  6
CONTINUOUS
 62
    3
 10
105.01640526024072
 20
145.39577587230787
 11
100.44394003378379
 21
143.02713342615075
  0
LINE
  8
_1-0_
  6
CONTINUOUS
 62
    3
 10
161.44399282094597
 20
146.16986661343961
 11
161.44399282094597
 21
142.98863178974875
  0
LINE
  8
_1-0_
  6
CONTINUOUS
 62
    3
 10
161.44399282094597
 20
146.16986661343961
 11
161.44399282094597
 21
142.98863178974875
  0
LINE
  8
_1-0_
  6
CONTINUOUS
 62
    3
 10
159.11558408994932
 20
149.05205803948482
 11
153.4439416833826
 21
145.82708822714318
  0
LINE
  8
_1-0_
  6
CONTINUOUS
 62
    3
 10
213.05452089051943
 20
146.16985424144849
 11
214.44401921452703
 21
146.16985424144849
  0
LINE
  8
_1-0_
  6
CONTINUOUS
 62
    3
 10
153.4439416833826
 20
145.82708822714318
 11
153.4439416833826
 21
143.02713342615075
  0
LINE
  8
_1-0_
  6
CONTINUOUS
 62
    3
 10
158.01640690983953
 20
145.39576350031672
 11
153.4439416833826
 21
143.02713342615075
  0
LINE
  8
_1-0_
  6
CONTINUOUS
 62
    3
 10
214.44401921452703
 20
146.16985424144849
 11
214.44401921452703
 21
142.98863178974875
  0
LINE
  8
_1-0_
  6
CONTINUOUS
 62
    3
 10
214.44401921452703
 20
146.16985424144849
 11
214.44401921452703
 21
142.98863178974875
  0
LINE
  8
_1-0_
  6
CONTINUOUS
 62
    3
 10
213.05459512246622
 20
146.16986661343961
 11
214.44406870249156
 21
146.16986661343961
  0
LINE
  8
_1-0_
  6
CONTINUOUS
 62
    3
 10
214.44406870249156
 20
146.16986661343961
 11
214.44406870249156
 21
142.98863178974875
  0
LINE
  8
_1-0_
  6
CONTINUOUS
 62
    3
 10
214.44406870249156
 20
146.16986661343961
 11
214.44406870249156
 21
142.98863178974875
  0
LINE
  8
_1-0_
  6
CONTINUOUS
 62
    3
 10
214.44406870249156
 20
142.38532401419977
 11
214.44406870249156
 21
142.34664916992187
  0
LINE
  8
_1-0_
  6
CONTINUOUS
 62
    3
 10
212.11565997149495
 20
149.05204566749367
 11
206.44399282094597
 21
145.82708822714318
  0
LINE
  8
_1-0_
  6
CONTINUOUS
 62
    3
 10
266.05457202808276
 20
146.16986661343961
 11
267.44404560810813
 21
146.16986661343961
  0
LINE
  8
_1-0_
  6
CONTINUOUS
 62
    3
 10
206.44399282094597
 20
145.82708822714318
 11
206.44399282094597
 21
143.02713342615075
  0
LINE
  8
_1-0_
  6
CONTINUOUS
 62
    3
 10
211.01645804740289
 20
145.39577587230787
 11
206.44399282094597
 21
143.02713342615075
  0
LINE
  8
ADD_LINE
  6
DOT
 62
    4
 10
235.75848553631758
 20
139.82699420001057
 11
245.94169822899073
 21
139.82699420001057
  0
LINE
  8
_1-0_
  6
CONTINUOUS
 62
    3
 10
267.44404560810813
 20
146.16986661343961
 11
267.44404560810813
 21
142.98863178974875
  0
LINE
  8
_1-0_
  6
CONTINUOUS
 62
    3
 10
267.44404560810813
 20
146.16986661343961
 11
267.44404560810813
 21
142.98863178974875
  0
ARC
  8
_1-0_
  6
CONTINUOUS
 62
    3
 10
263.31123145850933
 20
114.66923069309544
 40
41.612016832506335
 50
90
 51
119.5146484375
  0
ARC
  8
_1-0_
  6
CONTINUOUS
 62
    3
 10
265.53145949904984
 20
121.60736908783784
 40
41.612016832506335
 50
90
 51
119.5146484375
  0
ARC
  8
_1-0_
  6
CONTINUOUS
 62
    3
 10
265.53145949904984
 20
106.65136388830237
 40
60.168024011560391
 50
90
 51
109.9202880859375
  0
ARC
  8
_1-0_
  6
CONTINUOUS
 62
    3
 10
106.01465173669764
 20
146.14047076251057
 40
1.0402513194728542
 50
309.08184814453125
 51
1.6144714355468908
  0
ARC
  8
_1-0_
  6
CONTINUOUS
 62
    3
 10
107.95547072951858
 20
146.60362862251901
 40
3.0627306731971538
 50
42.6905517578125
 51
126.92074584960937
  0
ARC
  8
_1-0_
  6
CONTINUOUS
 62
    3
 10
159.01465338629646
 20
146.14047076251057
 40
1.0402513194728542
 50
309.08184814453125
 51
1.6144714355468908
  0
ARC
  8
_1-0_
  6
CONTINUOUS
 62
    3
 10
137.57668984902872
 20
185.99196562895904
 40
46.274049088761615
 50
233.73811340332031
 51
298.51937866210937
  0
ARC
  8
_1-0_
  6
CONTINUOUS
 62
    3
 10
107.76875263935811
 20
141.67720072978253
 40
4.6263270764737516
 50
47.123046875000007
 51
126.50717163085939
  0
ARC
  8
_1-0_
  6
CONTINUOUS
 62
    3
 10
137.88358946104307
 20
185.43134122281461
 40
48.543530025997683
 50
236.25315856933597
 51
299.03501892089844
  0
ARC
  8
_1-0_
  6
CONTINUOUS
 62
    3
 10
160.9554723791174
 20
146.60362862251901
 40
3.0627306731971538
 50
42.6905517578125
 51
126.92074584960937
  0
ARC
  8
_1-0_
  6
CONTINUOUS
 62
    3
 10
212.01465503589529
 20
146.14045839051943
 40
1.0402513194728542
 50
309.08184814453125
 51
1.6144714355468908
  0
ARC
  8
_1-0_
  6
CONTINUOUS
 62
    3
 10
190.57666675464529
 20
185.99196562895904
 40
46.274049088761615
 50
233.73811340332031
 51
298.51937866210937
  0
ARC
  8
_1-0_
  6
CONTINUOUS
 62
    3
 10
160.76875428895693
 20
141.67718835779138
 40
4.6263270764737516
 50
47.123046875000007
 51
126.50717163085939
  0
ARC
  8
_1-0_
  6
CONTINUOUS
 62
    3
 10
190.8835911106419
 20
185.43134122281461
 40
48.543530025997683
 50
236.25315856933597
 51
299.03501892089844
  0
ARC
  8
_1-0_
  6
CONTINUOUS
 62
    3
 10
84.576663455447644
 20
185.99196562895904
 40
46.274049088761615
 50
251.19485473632813
 51
298.51937866210937
  0
ARC
  8
_1-0_
  6
CONTINUOUS
 62
    3
 10
84.883587811444258
 20
185.43134122281461
 40
48.543530025997683
 50
251.72351074218753
 51
299.03501892089844
  0
ARC
  8
_1-0_
  6
CONTINUOUS
 62
    3
 10
212.01470452385982
 20
146.14047076251057
 40
1.0402513194728542
 50
309.08184814453125
 51
1.6144714355468908
  0
ARC
  8
_1-0_
  6
CONTINUOUS
 62
    3
 10
213.95552351668076
 20
146.60362862251901
 40
3.0627306731971538
 50
42.6905517578125
 51
126.92074584960937
  0
ARC
  8
_1-0_
  6
CONTINUOUS
 62
    3
 10
265.01470617345865
 20
146.14047076251057
 40
1.0402513194728542
 50
309.08184814453125
 51
1.6144714355468908
  0
ARC
  8
_1-0_
  6
CONTINUOUS
 62
    3
 10
243.57674263619089
 20
185.99196562895904
 40
46.274049088761615
 50
233.73811340332031
 51
298.51937866210937
  0
ARC
  8
_1-0_
  6
CONTINUOUS
 62
    3
 10
213.76880542652029
 20
141.67720072978253
 40
4.6263270764737516
 50
47.123046875000007
 51
126.50717163085939
  0
ARC
  8
_1-0_
  6
CONTINUOUS
 62
    3
 10
243.88364224820526
 20
185.43134122281461
 40
48.543530025997683
 50
236.25315856933597
 51
299.03501892089844
  0
TEXT
  8
_0-0_
 62
    7
 10
141.89189395389042
 20
14.594594594594582
 40
2.5
 41
1
 50
0
  1
縮尺
  0
TEXT
  8
_0-0_
 62
    7
 10
377.10214563318203
 20
22.865493362014362
 40
2.5
 41
1
 50
0
  1
ＮＯ
  0
TEXT
  8
_0-0_
 62
    7
 10
14.594594336844779
 20
24.324324324324323
 40
2.5
 41
1
 50
0
  1
和形
  0
TEXT
  8
_0-0_
 62
    7
 10
25.556194717819636
 20
20.211577544341225
 40
2.5
 41
1
 50
0
  1
木造
  0
TEXT
  8
_0-0_
 62
    7
 10
383.23801896378802
 20
18.523427086907475
 40
3
 41
1
 50
0
  1
Ｊ
  0
TEXT
  8
_1-0_
 62
    7
 10
169.90681828679266
 20
13.3181144095756
 40
2.5
 41
1
 50
0
  1
1/5
  0
TEXT
  8
_1-3_
 62
    7
 10
39.721904445338907
 20
15.395235628695104
 40
2.5
 41
1
 50
0
  1
壁際　　1
  0
TEXT
  8
_1-3_
 62
    7
 10
242.97219353753167
 20
226.320140941723
 40
2.5
 41
1
 50
0
  1
外壁
  0
TEXT
  8
_1-3_
 62
    7
 10
226.11293895824537
 20
201.92221564215583
 40
2.5
 41
1
 50
0
  1
雨押え板
  0
TEXT
  8
_1-3_
 62
    7
 10
238.58605462151607
 20
201.64808943464951
 40
2.5
 41
1
 50
0
  1
15ｘ90
  0
TEXT
  8
_1-3_
 62
    7
 10
226.85171178869302
 20
189.01361413904141
 40
2.5
 41
1
 50
0
  1
水切り鉄板
  0
TEXT
  8
_1-3_
 62
    7
 10
227.45747334248313
 20
178.51377744932432
 40
2.5
 41
1
 50
0
  1
割のし
  0
TEXT
  8
_1-3_
 62
    7
 10
211.75310701937292
 20
71.844412313925261
 40
2.5
 41
1
 50
0
  1
捨谷
  0
TEXT
  8
_1-3_
 62
    7
 10
304.67141641152875
 20
186.01397540118245
 40
2.5
 41
1
 50
90
  1
150
  0
TEXT
  8
_1-3_
 62
    7
 10
304.67141641152875
 20
206.63897952517948
 40
2.5
 41
1
 50
90
  1
50
  0
TEXT
  8
_1-3_
 62
    7
 10
294.10516687341641
 20
157.52667401288008
 40
2.5
 41
1
 50
90
  1
300　以上
  0
TEXT
  8
_1-3_
 62
    7
 10
307.83693963128167
 20
208.59983701963682
 40
3
 41
1
 50
0
  1
下葺き材立上げ長さは、300ｍｍ以上かつ
  0
TEXT
  8
_1-3_
 62
    7
 10
308.22356270455032
 20
202.95275301546664
 40
3
 41
1
 50
0
  1
雨押え板上端より50mm以上とする
  0
TEXT
  8
_1-3_
 62
    7
 10
394.36085056614235
 20
15.635499696473829
 40
2.5
 41
1
 50
0
  1
7
  0
TEXT
  8
_1-3_
 62
    7
 10
61.32400306495461
 20
198.83803908889359
 40
2.5
 41
1
 50
0
  1
桟瓦
  0
TEXT
  8
_1-3_
 62
    7
 10
61.32400306495461
 20
192.83804403769005
 40
2.5
 41
1
 50
0
  1
瓦桟
  0
TEXT
  8
_1-0_
 62
    7
 10
66.676557386243672
 20
189.57023002005914
 40
2.5
 41
1
 50
0
  1
※　地域により瓦桟木の大きさは、異なります
  0
TEXT
  8
_1-3_
 62
    7
 10
71.540501568768491
 20
192.56790161132812
 40
2.5
 41
1
 50
0
  1
15×21　以上　（防腐処理）
  0
POINT
  8
_1-3_
 62
    7
 10
305.17141806112755
 20
172.88897540118245
  0
POINT
  8
_1-3_
 62
    7
 10
305.17141806112755
 20
202.88897540118245
  0
POINT
  8
_1-3_
 62
    7
 10
305.17141806112755
 20
202.88897540118245
  0
POINT
  8
_1-3_
 62
    7
 10
305.17141806112755
 20
212.88898364917654
  0
POINT
  8
_1-3_
 62
    7
 10
294.90848025760135
 20
212.88898364917654
  0
POINT
  8
_1-3_
 62
    7
 10
294.90848025760135
 20
131.99859206740922
  0
LINE
  8
_1-1_
  6
CONTINUOUS
 62
    3
 10
243.88814565297722
 20
132.47366415487755
 11
271.29003743760398
 21
132.47366415487755
  0
LINE
  8
_1-1_
  6
CONTINUOUS
 62
    3
 10
271.29003743760398
 20
132.47366415487755
 11
271.29003743760398
 21
168.57763753119801
  0
TEXT
  8
_1-3_
 62
    7
 10
222.37195819467556
 20
164.84229409317803
 40
2.5
 41
1
 50
0
  1
葺き土
  0
LINE
  8
_1-1_
  6
CONTINUOUS
 62
    7
 10
259.12425391158894
 20
146.91797127439202
 11
271.12425391158894
 21
146.91797127439202
  0
LINE
  8
_1-1_
  6
CONTINUOUS
 62
    7
 10
271.12425391158894
 20
155.91797127439202
 11
259.12425391158894
 21
155.91797127439202
  0
LINE
  8
_1-1_
  6
CONTINUOUS
 62
    7
 10
259.12425391158894
 20
155.91797127439202
 11
259.12425391158894
 21
146.91797127439202
  0
LINE
  8
_1-1_
  6
CONTINUOUS
 62
    7
 10
264.40983737141272
 20
163.03914699459236
 11
271.12425391158894
 21
163.03914699459236
  0
LINE
  8
_1-1_
  6
CONTINUOUS
 62
    7
 10
271.12425391158894
 20
146.91797127439202
 11
271.12425391158894
 21
163.03914699459236
  0
LINE
  8
_1-1_
  6
CONTINUOUS
 62
    7
 10
264.40983737141272
 20
163.03914699459236
 11
264.40983737141272
 21
155.91797127439202
  0
LINE
  8
_1-1_
  6
DASHED1
 62
    7
 10
267.62398714428707
 20
163.03914699459236
 11
267.62398714428707
 21
159.54046044736174
  0
LINE
  8
_1-1_
  6
DASHED1
 62
    7
 10
268.02398714428705
 20
163.03914699459236
 11
268.02398714428705
 21
159.54046044736174
  0
LINE
  8
_1-1_
  6
DASHED1
 62
    7
 10
268.02398714428705
 20
159.54046044736174
 11
267.82398714428706
 21
159.16477670809027
  0
LINE
  8
_1-1_
  6
DASHED1
 62
    7
 10
267.62398714428707
 20
159.54046044736174
 11
267.82398714428706
 21
159.16477670809027
  0
LINE
  8
ADD_LINE
  6
DOT
 62
    4
 10
267.82398714428706
 20
163.60129601705492
 11
267.82398714428706
 21
159.16477670809027
  0
LINE
  8
_1-1_
  6
CONTINUOUS
 62
    7
 10
267.22398714428704
 20
163.25890982220108
 11
268.42398714428708
 21
163.25890982220108
  0
LINE
  8
_1-1_
  6
CONTINUOUS
 62
    7
 10
268.42398714428708
 20
163.25890982220108
 11
268.42398714428708
 21
163.55890982220109
  0
LINE
  8
_1-1_
  6
CONTINUOUS
 62
    7
 10
268.42398714428708
 20
163.55890982220109
 11
267.22398714428704
 21
163.55890982220109
  0
LINE
  8
_1-1_
  6
CONTINUOUS
 62
    7
 10
267.22398714428704
 20
163.55890982220109
 11
267.22398714428704
 21
163.25890982220108
  0
LINE
  8
_1-1_
  6
CONTINUOUS
 62
    7
 10
267.62398714428707
 20
163.25890982220108
 11
267.62398714428707
 21
163.03914699459236
  0
LINE
  8
_1-1_
  6
CONTINUOUS
 62
    7
 10
268.02398714428705
 20
163.25890982220108
 11
268.02398714428705
 21
163.03914699459236
  0
LINE
  8
_1-1_
  6
DASHED1
 62
    7
 10
263.60538095338683
 20
155.78563876765867
 11
263.60538095338683
 21
152.28695222042805
  0
LINE
  8
_1-1_
  6
DASHED1
 62
    7
 10
264.00538095338686
 20
155.78563876765867
 11
264.00538095338686
 21
152.28695222042805
  0
LINE
  8
_1-1_
  6
DASHED1
 62
    7
 10
264.00538095338686
 20
152.28695222042805
 11
263.80538095338682
 21
151.91126848115661
  0
LINE
  8
_1-1_
  6
DASHED1
 62
    7
 10
263.60538095338683
 20
152.28695222042805
 11
263.80538095338682
 21
151.91126848115661
  0
LINE
  8
ADD_LINE
  6
DOT
 62
    4
 10
263.80538095338682
 20
156.34778779012123
 11
263.80538095338682
 21
151.91126848115661
  0
LINE
  8
_1-1_
  6
CONTINUOUS
 62
    7
 10
263.20538095338685
 20
156.00540159526741
 11
264.40538095338684
 21
156.00540159526741
  0
LINE
  8
_1-1_
  6
CONTINUOUS
 62
    7
 10
263.60538095338683
 20
156.00540159526741
 11
263.60538095338683
 21
155.78563876765867
  0
LINE
  8
_1-1_
  6
CONTINUOUS
 62
    7
 10
264.00538095338686
 20
156.00540159526741
 11
264.00538095338686
 21
155.78563876765867
  0
LINE
  8
_1-1_
  6
DASHED1
 62
    7
 10
264.07499777157119
 20
166.9038307971216
 11
264.07499777157119
 21
163.19388930900061
  0
LINE
  8
_1-1_
  6
CONTINUOUS
 62
    7
 10
264.07499777157119
 20
163.19388930900061
 11
264.07499777157119
 21
163.09284463204622
  0
LINE
  8
_1-1_
  6
CONTINUOUS
 62
    7
 10
264.07499777157119
 20
163.09284463204622
 11
268.16127603315914
 21
163.09284463204622
  0
LINE
  8
_1-1_
  6
CONTINUOUS
 62
    7
 10
264.07499777157119
 20
166.9038307971216
 11
264.07499777157119
 21
166.80175734247769
  0
LINE
  8
_1-1_
  6
CONTINUOUS
 62
    7
 10
265.77368726972901
 20
166.9038307971216
 11
264.07499777157119
 21
166.9038307971216
  0
LINE
  8
_1-1_
  6
CONTINUOUS
 62
    7
 10
265.77368726972901
 20
166.9038307971216
 11
265.77368726972901
 21
163.09398723481698
  0
LINE
  8
_1-1_
  6
CONTINUOUS
 62
    7
 10
262.08716963542906
 20
156.26324008774347
 11
262.08716963542906
 21
155.95651013831417
  0
LINE
  8
_1-1_
  6
CONTINUOUS
 62
    7
 10
264.04645776824009
 20
155.95651013831417
 11
262.08716963542906
 21
155.95651013831417
  0
LINE
  8
_1-1_
  6
CONTINUOUS
 62
    7
 10
263.20538095338685
 20
156.22573571043071
 11
263.20538095338685
 21
156.00540159526741
  0
LINE
  8
_1-1_
  6
CONTINUOUS
 62
    7
 10
263.20538095338685
 20
156.22573571043071
 11
264.40538095338684
 21
156.22573571043071
  0
LINE
  8
_1-1_
  6
CONTINUOUS
 62
    7
 10
264.40538095338684
 20
156.00540159526741
 11
264.40538095338684
 21
156.22573571043071
  0
LINE
  8
_1-1_
  6
CONTINUOUS
 62
    7
 10
263.60316346166064
 20
156.3054015952674
 11
263.49672049560257
 21
156.3054015952674
  0
LINE
  8
_1-1_
  6
CONTINUOUS
 62
    7
 10
264.04645776824009
 20
156.3054015952674
 11
263.60316346166064
 21
156.3054015952674
  0
LINE
  8
_1-1_
  6
CONTINUOUS
 62
    7
 10
264.04645776824009
 20
155.95651013831417
 11
264.04645776824009
 21
156.3054015952674
  0
LINE
  8
_1-1_
  6
CONTINUOUS
 62
    7
 10
263.49672049560257
 20
160.07496795413081
 11
263.49672049560257
 21
156.3054015952674
  0
LINE
  8
_1-1_
  6
DASHED1
 62
    7
 10
262.08716963542906
 20
159.8687970236268
 11
262.08716963542906
 21
156.26324008774347
  0
LINE
  8
_1-1_
  6
CONTINUOUS
 62
    7
 10
262.08716963542906
 20
159.8687970236268
 11
262.08716963542906
 21
160.07496795413081
  0
LINE
  8
_1-1_
  6
CONTINUOUS
 62
    7
 10
263.49672049560257
 20
160.07496795413081
 11
262.08716963542906
 21
160.07496795413081
  0
LINE
  8
_1-1_
  6
CONTINUOUS
 62
    7
 10
259.12425391158894
 20
146.91797127439202
 11
271.12425391158894
 21
155.91797127439202
  0
LINE
  8
_1-1_
  6
CONTINUOUS
 62
    7
 10
264.40983737141272
 20
163.03914699459236
 11
271.12425391158894
 21
155.91797127439202
  0
LINE
  8
_1-3_
  6
CONTINUOUS
 62
    7
 10
91.573874380192734
 20
170.13331232844172
 11
128.93771197344807
 21
170.13331232844172
  0
LINE
  8
_1-3_
  6
CONTINUOUS
 62
    7
 10
91.573874380192734
 20
176.82719050226987
 11
126.5013328758446
 21
176.82719050226987
  0
LINE
  8
_1-3_
  6
CONTINUOUS
 62
    7
 10
91.573874380192734
 20
182.51539900496201
 11
124.43100387985642
 21
182.51539900496201
  0
LINE
  8
_1-3_
  6
CONTINUOUS
 62
    7
 10
91.573874380192734
 20
187.95627903293919
 11
122.45068111935178
 21
187.95627903293919
  0
LINE
  8
_1-3_
  6
CONTINUOUS
 62
    7
 10
117.64015403953759
 20
201.17309157912797
 11
91.573874380192734
 21
201.17309157912797
  0
ARC
  8
_1-4_
  6
CONTINUOUS
 62
    7
 10
228.68998761794421
 20
149.57846577137713
 40
21.281059250602382
 50
332.93862499113902
 51
11.798766780621586
  0
ARC
  8
_1-4_
  6
CONTINUOUS
 62
    1
 10
250.45182599162251
 20
160.40965695000844
 40
3.1534191446054756
 50
334.28355408474368
 51
18.749568685288036
  0
ARC
  8
_1-4_
  6
CONTINUOUS
 62
    1
 10
228.68998761794421
 20
149.57846577137713
 40
21.281059250602382
 50
332.93862499113902
 51
11.798766780621586
  0
SOLID
  8
_1-4_
  6
CONTINUOUS
 62
   11
 10
253.85222949531342
 20
160.20266591059971
 11
253.29290688096449
 21
159.04133254337802
 12
254.43729909321519
 22
159.23600070845467
 13
254.43729909321519
 23
159.23600070845467
  0
SOLID
  8
_1-4_
  6
CONTINUOUS
 62
   11
 10
253.85222949531342
 20
160.20266591059971
 11
254.43729909321519
 21
159.23600070845467
 12
255.5485103417667
 22
159.3976314355167
 13
255.5485103417667
 23
159.3976314355167
  0
SOLID
  8
_1-4_
  6
CONTINUOUS
 62
   11
 10
253.85222949531342
 20
160.20266591059971
 11
255.5485103417667
 21
159.3976314355167
 12
256.35666397707689
 22
159.47844679904773
 13
256.35666397707689
 23
159.47844679904773
  0
SOLID
  8
_1-4_
  6
CONTINUOUS
 62
   11
 10
253.85222949531342
 20
160.20266591059971
 11
256.35666397707689
 21
159.47844679904773
 12
257.06379840797331
 22
159.51885448081322
 13
257.06379840797331
 23
159.51885448081322
  0
SOLID
  8
_1-4_
  6
CONTINUOUS
 62
   11
 10
253.85222949531342
 20
160.20266591059971
 11
257.06379840797331
 21
159.51885448081322
 12
257.97297124769727
 22
159.64007752610976
 13
257.97297124769727
 23
159.64007752610976
  0
SOLID
  8
_1-4_
  6
CONTINUOUS
 62
   11
 10
253.85222949531342
 20
160.20266591059971
 11
257.97297124769727
 21
159.64007752610976
 12
259.10438633713159
 22
159.74109673052354
 13
259.10438633713159
 23
159.74109673052354
  0
SOLID
  8
_1-4_
  6
CONTINUOUS
 62
   11
 10
253.85222949531342
 20
160.20266591059971
 11
259.10438633713159
 21
159.74109673052354
 12
260.13478222215207
 22
159.76130057140628
 13
260.13478222215207
 23
159.76130057140628
  0
SOLID
  8
_1-4_
  6
CONTINUOUS
 62
   11
 10
253.85222949531342
 20
160.20266591059971
 11
260.13478222215207
 21
159.76130057140628
 12
260.82171281216574
 22
159.8017082531718
 13
260.82171281216574
 23
159.8017082531718
  0
SOLID
  8
_1-4_
  6
CONTINUOUS
 62
   11
 10
253.85222949531342
 20
160.20266591059971
 11
260.82171281216574
 21
159.8017082531718
 12
261.71068181100696
 22
159.82191209405454
 13
261.71068181100696
 23
159.82191209405454
  0
SOLID
  8
_1-4_
  6
CONTINUOUS
 62
   11
 10
253.85222949531342
 20
160.20266591059971
 11
261.71068181100696
 21
159.82191209405454
 12
262.31679703748961
 22
159.88252361670283
 13
262.31679703748961
 23
159.88252361670283
  0
SOLID
  8
_1-4_
  6
CONTINUOUS
 62
   11
 10
253.85222949531342
 20
160.20266591059971
 11
262.31679703748961
 21
159.88252361670283
 12
263.31123145850933
 22
159.88124950512037
 13
263.31123145850933
 23
159.88124950512037
  0
SOLID
  8
_1-4_
  6
CONTINUOUS
 62
   11
 10
263.31123145850933
 20
156.28124752560177
 11
264.40538095338684
 21
156.22573571043071
 12
264.40983737141272
 22
163.03914699459236
 13
264.40983737141272
 23
163.03914699459236
  0
SOLID
  8
_1-4_
  6
CONTINUOUS
 62
   11
 10
263.31123145850933
 20
156.28124752560177
 11
264.40983737141272
 21
163.03914699459236
 12
264.42237098163008
 22
163.19496136857413
 13
264.42237098163008
 23
163.19496136857413
  0
SOLID
  8
_1-4_
  6
CONTINUOUS
 62
   11
 10
263.31123145850933
 20
156.28124752560177
 11
264.42237098163008
 21
163.19496136857413
 12
263.81224204568639
 22
163.17624575704212
 13
263.81224204568639
 23
163.17624575704212
  0
SOLID
  8
_1-4_
  6
CONTINUOUS
 62
   11
 10
263.81224204568639
 20
163.17624575704212
 11
263.2582599443387
 21
163.15004390089729
 12
262.7753971668127
 22
163.12384204475248
 13
262.7753971668127
 23
163.12384204475248
  0
SOLID
  8
_1-4_
  6
CONTINUOUS
 62
   11
 10
263.81224204568639
 20
163.17624575704212
 11
262.7753971668127
 21
163.12384204475248
 12
261.26305886473182
 22
162.99296269165228
 13
261.26305886473182
 23
162.99296269165228
  0
SOLID
  8
_1-4_
  6
CONTINUOUS
 62
   11
 10
263.81224204568639
 20
163.17624575704212
 11
261.26305886473182
 21
162.99296269165228
 12
260.1827342367892
 22
162.87123597301087
 13
260.1827342367892
 23
162.87123597301087
  0
SOLID
  8
_1-4_
  6
CONTINUOUS
 62
   11
 10
263.81224204568639
 20
163.17624575704212
 11
260.1827342367892
 21
162.87123597301087
 12
259.48280560460103
 22
162.76979704080969
 13
259.48280560460103
 23
162.76979704080969
  0
SOLID
  8
_1-4_
  6
CONTINUOUS
 62
   11
 10
263.81224204568639
 20
163.17624575704212
 11
259.48280560460103
 21
162.76979704080969
 12
258.70172582665191
 22
162.66328616199846
 13
258.70172582665191
 23
162.66328616199846
  0
SOLID
  8
_1-4_
  6
CONTINUOUS
 62
   11
 10
263.81224204568639
 20
163.17624575704212
 11
258.70172582665191
 21
162.66328616199846
 12
258.21481895208626
 22
162.58213501623749
 13
258.21481895208626
 23
162.58213501623749
  0
SOLID
  8
_1-4_
  6
CONTINUOUS
 62
   11
 10
263.81224204568639
 20
163.17624575704212
 11
258.21481895208626
 21
162.58213501623749
 12
257.67212066480988
 22
162.46548024420613
 13
257.67212066480988
 23
162.46548024420613
  0
SOLID
  8
_1-4_
  6
CONTINUOUS
 62
   11
 10
263.81224204568639
 20
163.17624575704212
 11
257.67212066480988
 21
162.46548024420613
 12
256.65265939618803
 22
162.2473865399736
 13
256.65265939618803
 23
162.2473865399736
  0
SOLID
  8
_1-4_
  6
CONTINUOUS
 62
   11
 10
263.81224204568639
 20
163.17624575704212
 11
256.65265939618803
 21
162.2473865399736
 12
256.06431358942115
 22
162.1205878747221
 13
256.06431358942115
 23
162.1205878747221
  0
SOLID
  8
_1-4_
  6
CONTINUOUS
 62
   11
 10
263.81224204568639
 20
163.17624575704212
 11
256.06431358942115
 21
162.1205878747221
 12
255.68391759366671
 22
162.03943672896116
 13
255.68391759366671
 23
162.03943672896116
  0
SOLID
  8
_1-4_
  6
CONTINUOUS
 62
   11
 10
263.81224204568639
 20
163.17624575704212
 11
255.68391759366671
 21
162.03943672896116
 12
255.43032026316374
 22
161.96842947642034
 13
255.43032026316374
 23
161.96842947642034
  0
SOLID
  8
_1-4_
  6
CONTINUOUS
 62
   11
 10
263.81224204568639
 20
163.17624575704212
 11
255.43032026316374
 21
161.96842947642034
 12
254.42100288776194
 22
161.69961630608719
 13
254.42100288776194
 23
161.69961630608719
  0
SOLID
  8
_1-4_
  6
CONTINUOUS
 62
   11
 10
263.81224204568639
 20
163.17624575704212
 11
254.42100288776194
 21
161.69961630608719
 12
253.43790122098341
 22
161.42326783499414
 13
253.43790122098341
 23
161.42326783499414
  0
SOLID
  8
_1-4_
  6
CONTINUOUS
 62
   11
 10
263.81224204568639
 20
163.17624575704212
 11
253.43790122098341
 21
161.42326783499414
 12
253.85222949531342
 22
160.20266591059971
 13
253.85222949531342
 23
160.20266591059971
  0
SOLID
  8
_1-4_
  6
CONTINUOUS
 62
   11
 10
263.81224204568639
 20
163.17624575704212
 11
253.85222949531342
 21
160.20266591059971
 12
263.31123145850933
 22
159.88124950512037
 13
263.31123145850933
 23
159.88124950512037
  0
SOLID
  8
_1-4_
  6
CONTINUOUS
 62
   11
 10
263.81224204568639
 20
163.17624575704212
 11
263.31123145850933
 21
159.88124950512037
 12
263.31123145850933
 22
156.28124752560177
 13
263.31123145850933
 23
156.28124752560177
  0
LINE
  8
_1-4_
  6
CONTINUOUS
 62
    7
 10
257.54458879342161
 20
166.8796920749995
 11
257.60456399313273
 21
166.29493387781574
  0
SOLID
  8
_1-4_
  6
CONTINUOUS
 62
   11
 10
257.54458879342161
 20
166.8796920749995
 11
257.60456399313273
 21
166.29493387781574
 12
258.38655730094206
 22
166.38077012681504
 13
258.38655730094206
 23
166.38077012681504
  0
SOLID
  8
_1-4_
  6
CONTINUOUS
 62
   11
 10
257.54458879342161
 20
166.8796920749995
 11
258.38655730094206
 21
166.38077012681504
 12
259.03776269325573
 22
166.47059156023761
 13
259.03776269325573
 23
166.47059156023761
  0
SOLID
  8
_1-4_
  6
CONTINUOUS
 62
   11
 10
257.54458879342161
 20
166.8796920749995
 11
259.03776269325573
 21
166.47059156023761
 12
259.65902760776186
 22
166.53047251585267
 13
259.65902760776186
 23
166.53047251585267
  0
SOLID
  8
_1-4_
  6
CONTINUOUS
 62
   11
 10
257.54458879342161
 20
166.8796920749995
 11
259.65902760776186
 21
166.53047251585267
 12
260.153045491586
 22
166.57538323256395
 13
260.153045491586
 23
166.57538323256395
  0
SOLID
  8
_1-4_
  6
CONTINUOUS
 62
   11
 10
257.54458879342161
 20
166.8796920749995
 11
260.153045491586
 21
166.57538323256395
 12
260.53478658363196
 22
166.61280882982334
 13
260.53478658363196
 23
166.61280882982334
  0
SOLID
  8
_1-4_
  6
CONTINUOUS
 62
   11
 10
257.54458879342161
 20
166.8796920749995
 11
260.53478658363196
 21
166.61280882982334
 12
260.83419136170721
 22
166.63526418817901
 13
260.83419136170721
 23
166.63526418817901
  0
SOLID
  8
_1-4_
  6
CONTINUOUS
 62
   11
 10
257.54458879342161
 20
166.8796920749995
 11
260.83419136170721
 21
166.63526418817901
 12
261.14108125923428
 22
166.65771954653465
 13
261.14108125923428
 23
166.65771954653465
  0
SOLID
  8
_1-4_
  6
CONTINUOUS
 62
   11
 10
257.54458879342161
 20
166.8796920749995
 11
261.14108125923428
 21
166.65771954653465
 12
261.51533723182837
 22
166.68766002434216
 13
261.51533723182837
 23
166.68766002434216
  0
SOLID
  8
_1-4_
  6
CONTINUOUS
 62
   11
 10
257.54458879342161
 20
166.8796920749995
 11
261.51533723182837
 21
166.68766002434216
 12
261.80725689045175
 22
166.71011538269781
 13
261.80725689045175
 23
166.71011538269781
  0
SOLID
  8
_1-4_
  6
CONTINUOUS
 62
   11
 10
257.54458879342161
 20
166.8796920749995
 11
261.80725689045175
 21
166.71011538269781
 12
262.2039682214014
 22
166.74005586050532
 13
262.2039682214014
 23
166.74005586050532
  0
SOLID
  8
_1-4_
  6
CONTINUOUS
 62
   11
 10
257.54458879342161
 20
166.8796920749995
 11
262.2039682214014
 21
166.74005586050532
 12
262.6830158663218
 22
166.74754097995722
 13
262.6830158663218
 23
166.74754097995722
  0
SOLID
  8
_1-4_
  6
CONTINUOUS
 62
   11
 10
257.54458879342161
 20
166.8796920749995
 11
262.6830158663218
 21
166.74754097995722
 12
263.15457839179032
 22
166.77748145776474
 13
263.15457839179032
 23
166.77748145776474
  0
SOLID
  8
_1-4_
  6
CONTINUOUS
 62
   11
 10
257.54458879342161
 20
166.8796920749995
 11
263.15457839179032
 21
166.77748145776474
 12
263.52134924493248
 22
166.78496657721661
 13
263.52134924493248
 23
166.78496657721661
  0
SOLID
  8
_1-4_
  6
CONTINUOUS
 62
   11
 10
257.54458879342161
 20
166.8796920749995
 11
263.52134924493248
 21
166.78496657721661
 12
264.09021832327545
 22
166.79245169666851
 13
264.09021832327545
 23
166.79245169666851
  0
SOLID
  8
_1-4_
  6
CONTINUOUS
 62
   11
 10
257.54458879342161
 20
166.8796920749995
 11
264.09021832327545
 21
166.79245169666851
 12
264.91358146298239
 22
166.82239217447602
 13
264.91358146298239
 23
166.82239217447602
  0
SOLID
  8
_1-4_
  6
CONTINUOUS
 62
   11
 10
257.54458879342161
 20
166.8796920749995
 11
264.91358146298239
 21
166.82239217447602
 12
265.53145949904984
 22
166.81938789986276
 13
265.53145949904984
 23
166.81938789986276
  0
SOLID
  8
_1-4_
  6
CONTINUOUS
 62
   11
 10
265.5237359005452
 20
163.02826251262778
 11
267.62398714428707
 21
163.03914699459236
 12
267.62398714428707
 22
163.25890982220108
 13
267.62398714428707
 23
163.25890982220108
  0
SOLID
  8
_1-4_
  6
CONTINUOUS
 62
   11
 10
265.5237359005452
 20
163.02826251262778
 11
267.62398714428707
 21
163.25890982220108
 12
267.22398714428704
 22
163.25890982220108
 13
267.22398714428704
 23
163.25890982220108
  0
SOLID
  8
_1-4_
  6
CONTINUOUS
 62
   11
 10
265.5237359005452
 20
163.02826251262778
 11
267.22398714428704
 21
163.25890982220108
 12
267.22398714428704
 22
163.55890982220109
 13
267.22398714428704
 23
163.55890982220109
  0
SOLID
  8
_1-4_
  6
CONTINUOUS
 62
   11
 10
268.02398714428705
 20
163.25890982220108
 11
268.02398714428705
 21
163.03914699459236
 12
271.28005129100308
 22
163.03669050002227
 13
271.28005129100308
 23
163.03669050002227
  0
SOLID
  8
_1-4_
  6
CONTINUOUS
 62
   11
 10
271.28005129100308
 20
163.03669050002227
 11
271.29003743760398
 21
168.57763753119801
 12
270.37160512563344
 22
169.22919196051521
 13
270.37160512563344
 23
169.22919196051521
  0
SOLID
  8
_1-4_
  6
CONTINUOUS
 62
   11
 10
270.37160512563344
 20
169.22919196051521
 11
257.54458879342161
 21
166.8796920749995
 12
265.53145949904984
 22
166.81938789986276
 13
265.53145949904984
 23
166.81938789986276
  0
SOLID
  8
_1-4_
  6
CONTINUOUS
 62
   11
 10
270.37160512563344
 20
169.22919196051521
 11
265.53145949904984
 21
166.81938789986276
 12
265.5237359005452
 22
163.02826251262778
 13
265.5237359005452
 23
163.02826251262778
  0
SOLID
  8
_1-4_
  6
CONTINUOUS
 62
   11
 10
270.37160512563344
 20
169.22919196051521
 11
265.5237359005452
 21
163.02826251262778
 12
267.22398714428704
 22
163.55890982220109
 13
267.22398714428704
 23
163.55890982220109
  0
SOLID
  8
_1-4_
  6
CONTINUOUS
 62
   11
 10
270.37160512563344
 20
169.22919196051521
 11
267.22398714428704
 21
163.55890982220109
 12
268.42398714428708
 22
163.55890982220109
 13
268.42398714428708
 23
163.55890982220109
  0
SOLID
  8
_1-4_
  6
CONTINUOUS
 62
   11
 10
270.37160512563344
 20
169.22919196051521
 11
268.42398714428708
 21
163.55890982220109
 12
268.42398714428708
 22
163.25890982220108
 13
268.42398714428708
 23
163.25890982220108
  0
SOLID
  8
_1-4_
  6
CONTINUOUS
 62
   11
 10
268.42398714428708
 20
163.25890982220108
 11
268.02398714428705
 21
163.25890982220108
 12
271.28005129100308
 22
163.03669050002227
 13
271.28005129100308
 23
163.03669050002227
  0
SOLID
  8
_1-4_
  6
CONTINUOUS
 62
   11
 10
268.42398714428708
 20
163.25890982220108
 11
271.28005129100308
 21
163.03669050002227
 12
270.37160512563344
 22
169.22919196051521
 13
270.37160512563344
 23
169.22919196051521
  0
SOLID
  8
_1-4_
  6
CONTINUOUS
 62
   11
 10
249.1565926499454
 20
140.12523288241695
 11
250.55027770633393
 21
140.29058534673425
 12
251.80223207902196
 22
140.52680315290178
 13
251.80223207902196
 23
140.52680315290178
  0
SOLID
  8
_1-4_
  6
CONTINUOUS
 62
   11
 10
251.80223207902196
 20
140.52680315290178
 11
253.26678247726073
 21
140.73939917845257
 12
255.01479424290059
 22
141.16459122955416
 13
255.01479424290059
 23
141.16459122955416
  0
SOLID
  8
_1-4_
  6
CONTINUOUS
 62
   11
 10
251.80223207902196
 20
140.52680315290178
 11
255.01479424290059
 21
141.16459122955416
 12
256.64469710545666
 22
141.63702684188925
 13
256.64469710545666
 23
141.63702684188925
  0
SOLID
  8
_1-4_
  6
CONTINUOUS
 62
   11
 10
251.80223207902196
 20
140.52680315290178
 11
256.64469710545666
 21
141.63702684188925
 12
258.46357421294681
 22
142.22757135730814
 13
258.46357421294681
 23
142.22757135730814
  0
SOLID
  8
_1-4_
  6
CONTINUOUS
 62
   11
 10
251.80223207902196
 20
140.52680315290178
 11
258.46357421294681
 21
142.22757135730814
 12
260.04623351426937
 22
142.79449409211026
 13
260.04623351426937
 23
142.79449409211026
  0
SOLID
  8
_1-4_
  6
CONTINUOUS
 62
   11
 10
251.80223207902196
 20
140.52680315290178
 11
260.04623351426937
 21
142.79449409211026
 12
262.24305911162759
 22
143.64487819431343
 13
262.24305911162759
 23
143.64487819431343
  0
SOLID
  8
_1-4_
  6
CONTINUOUS
 62
   11
 10
251.80223207902196
 20
140.52680315290178
 11
262.24305911162759
 21
143.64487819431343
 12
264.18004512220148
 22
144.56612763836685
 13
264.18004512220148
 23
144.56612763836685
  0
SOLID
  8
_1-4_
  6
CONTINUOUS
 62
   11
 10
251.80223207902196
 20
140.52680315290178
 11
264.18004512220148
 21
144.56612763836685
 12
265.52648661735651
 22
145.25115927625274
 13
265.52648661735651
 23
145.25115927625274
  0
SOLID
  8
_1-4_
  6
CONTINUOUS
 62
   11
 10
251.80223207902196
 20
140.52680315290178
 11
265.52648661735651
 21
145.25115927625274
 12
265.66821730105704
 22
145.34564639871977
 13
265.66821730105704
 23
145.34564639871977
  0
SOLID
  8
_1-4_
  6
CONTINUOUS
 62
   11
 10
251.80223207902196
 20
140.52680315290178
 11
265.66821730105704
 21
145.34564639871977
 12
265.80670526264163
 22
145.45732258476059
 13
265.80670526264163
 23
145.45732258476059
  0
SOLID
  8
_1-4_
  6
CONTINUOUS
 62
   11
 10
251.80223207902196
 20
140.52680315290178
 11
265.80670526264163
 21
145.45732258476059
 12
265.93127324636282
 22
145.64595410296693
 13
265.93127324636282
 23
145.64595410296693
  0
SOLID
  8
_1-4_
  6
CONTINUOUS
 62
   11
 10
251.80223207902196
 20
140.52680315290178
 11
265.93127324636282
 21
145.64595410296693
 12
266.02380946284137
 22
145.87017647366503
 13
266.02380946284137
 23
145.87017647366503
  0
SOLID
  8
_1-4_
  6
CONTINUOUS
 62
   11
 10
251.80223207902196
 20
140.52680315290178
 11
266.02380946284137
 21
145.87017647366503
 12
266.0487230595856
 22
146.03033530987796
 13
266.0487230595856
 23
146.03033530987796
  0
SOLID
  8
_1-4_
  6
CONTINUOUS
 62
   11
 10
251.80223207902196
 20
140.52680315290178
 11
266.0487230595856
 21
146.03033530987796
 12
266.05454454527074
 22
146.16977892130924
 13
266.05454454527074
 23
146.16977892130924
  0
SOLID
  8
_1-4_
  6
CONTINUOUS
 62
   11
 10
266.05454454527074
 20
146.16977892130924
 11
267.44404560810813
 21
146.16986661343961
 12
267.60399334442593
 22
146.92762063227954
 13
267.60399334442593
 23
146.92762063227954
  0
SOLID
  8
_1-4_
  6
CONTINUOUS
 62
   11
 10
266.05454454527074
 20
146.16977892130924
 11
267.60399334442593
 21
146.92762063227954
 12
259.12425391158894
 22
146.91797127439202
 13
259.12425391158894
 23
146.91797127439202
  0
SOLID
  8
_1-4_
  6
CONTINUOUS
 62
   11
 10
259.13206411932492
 20
156.06740997147611
 11
258.10837963513194
 21
155.95459576301403
 12
256.78757990403813
 22
155.77397644678652
 13
256.78757990403813
 23
155.77397644678652
  0
SOLID
  8
_1-4_
  6
CONTINUOUS
 62
   11
 10
259.13206411932492
 20
156.06740997147611
 11
256.78757990403813
 21
155.77397644678652
 12
255.73544829306073
 22
155.57164344467549
 13
255.73544829306073
 23
155.57164344467549
  0
SOLID
  8
_1-4_
  6
CONTINUOUS
 62
   11
 10
259.13206411932492
 20
156.06740997147611
 11
255.73544829306073
 21
155.57164344467549
 12
254.68331668208336
 22
155.36931044256445
 13
254.68331668208336
 23
155.36931044256445
  0
SOLID
  8
_1-4_
  6
CONTINUOUS
 62
   11
 10
259.13206411932492
 20
156.06740997147611
 11
254.68331668208336
 21
155.36931044256445
 12
253.82542475313258
 22
155.19125740070675
 13
253.82542475313258
 23
155.19125740070675
  0
SOLID
  8
_1-4_
  6
CONTINUOUS
 62
   11
 10
259.13206411932492
 20
156.06740997147611
 11
253.82542475313258
 21
155.19125740070675
 12
253.13749254595507
 22
155.02129767893348
 13
253.13749254595507
 23
155.02129767893348
  0
SOLID
  8
_1-4_
  6
CONTINUOUS
 62
   11
 10
259.13206411932492
 20
156.06740997147611
 11
253.13749254595507
 21
155.02129767893348
 12
251.95586781362664
 22
154.72184483580915
 13
251.95586781362664
 23
154.72184483580915
  0
SOLID
  8
_1-4_
  6
CONTINUOUS
 62
   11
 10
259.13206411932492
 20
156.06740997147611
 11
251.95586781362664
 21
154.72184483580915
 12
251.20318904577357
 22
154.47095191319147
 13
251.20318904577357
 23
154.47095191319147
  0
SOLID
  8
_1-4_
  6
CONTINUOUS
 62
   11
 10
259.13206411932492
 20
156.06740997147611
 11
251.20318904577357
 21
154.47095191319147
 12
250.54763011893382
 22
154.29289887133376
 13
250.54763011893382
 23
154.29289887133376
  0
SOLID
  8
_1-4_
  6
CONTINUOUS
 62
   11
 10
259.13206411932492
 20
156.06740997147611
 11
250.54763011893382
 21
154.29289887133376
 12
249.89207119209408
 22
154.07437922905385
 13
249.89207119209408
 23
154.07437922905385
  0
SOLID
  8
_1-4_
  6
CONTINUOUS
 62
   11
 10
259.13206411932492
 20
156.06740997147611
 11
249.89207119209408
 21
154.07437922905385
 12
249.52141618083721
 22
153.92990999792244
 13
249.52141618083721
 23
153.92990999792244
  0
SOLID
  8
_1-4_
  6
CONTINUOUS
 62
   11
 10
259.13206411932492
 20
156.06740997147611
 11
249.52141618083721
 21
153.92990999792244
 12
251.05636908249258
 22
146.58171476582487
 13
251.05636908249258
 23
146.58171476582487
  0
SOLID
  8
_1-4_
  6
CONTINUOUS
 62
   11
 10
259.13206411932492
 20
156.06740997147611
 11
251.05636908249258
 21
146.58171476582487
 12
247.64119012352106
 22
139.89676104440539
 13
247.64119012352106
 23
139.89676104440539
  0
SOLID
  8
_1-4_
  6
CONTINUOUS
 62
   11
 10
259.13206411932492
 20
156.06740997147611
 11
247.64119012352106
 21
139.89676104440539
 12
249.1565926499454
 22
140.12523288241695
 13
249.1565926499454
 23
140.12523288241695
  0
SOLID
  8
_1-4_
  6
CONTINUOUS
 62
   11
 10
259.13206411932492
 20
156.06740997147611
 11
249.1565926499454
 21
140.12523288241695
 12
251.80223207902196
 22
140.52680315290178
 13
251.80223207902196
 23
140.52680315290178
  0
SOLID
  8
_1-4_
  6
CONTINUOUS
 62
   11
 10
251.80223207902196
 20
140.52680315290178
 11
266.05454454527074
 21
146.16977892130924
 12
259.12425391158894
 22
146.91797127439202
 13
259.12425391158894
 23
146.91797127439202
  0
SOLID
  8
_1-4_
  6
CONTINUOUS
 62
   11
 10
251.80223207902196
 20
140.52680315290178
 11
259.12425391158894
 21
146.91797127439202
 12
259.13206411932492
 22
156.06740997147611
 13
259.13206411932492
 23
156.06740997147611
  0
ENDSEC
  0
EOF
