  0
SECTION
  2
HEADER
  9
$ACADVER
  1
AC1009
  9
$INSBASE
 10
0
 20
0
 30
0
  9
$EXTMIN
 10
0
 20
0
  9
$EXTMAX
 10
2100
 20
1485
  9
$LIMMIN
 10
0
 20
0
  9
$LIMMAX
 10
2100
 20
1485
  9
$LTSCALE
 40
5
  0
ENDSEC
  0
SECTION
  2
TABLES
  0
TABLE
  2
LTYPE
 70
     9
  0
LTYPE
  2
CONTINUOUS
 70
    64
  3
実線
 72
    65
 73
     0
 40
0.0
  0
LTYPE
  2
DASHED1
 70
    64
  3
--  --  --  --  --  --  --  --  
 72
    65
 73
     2
 40
2.5
 49
1.25
 49
-1.25
  0
LTYPE
  2
DASHED2
 70
    64
  3
----    ----    ----    ----    
 72
    65
 73
     2
 40
5.0
 49
2.5
 49
-2.5
  0
LTYPE
  2
DASHED3
 70
    64
  3
------  ------  ------  ------  
 72
    65
 73
     2
 40
5.0
 49
3.75
 49
-1.25
  0
LTYPE
  2
CENTER1
 70
    64
  3
----- - ----- - ----- - ----- - 
 72
    65
 73
     4
 40
10.0
 49
6.25
 49
-1.25
 49
1.25
 49
-1.25
  0
LTYPE
  2
CENTER2
 70
    64
  3
----------  --  ----------  --  
 72
    65
 73
     4
 40
20.0
 49
12.5
 49
-2.5
 49
2.5
 49
-2.5
  0
LTYPE
  2
PHANTOM1
 70
    64
  3
--- - - --- - - --- - - --- - - 
 72
    65
 73
     6
 40
10.0
 49
3.25
 49
-1.25
 49
1.25
 49
-1.25
 49
1.25
 49
-1.25
  0
LTYPE
  2
PHANTOM2
 70
    64
  3
--------  -  -  --------  -  -  
 72
    65
 73
     6
 40
20.0
 49
10.0
 49
-2.5
 49
1.25
 49
-2.5
 49
1.25
 49
-2.5
  0
LTYPE
  2
DOT
 70
    64
  3
-   -   -   -   -   -   -   -   
 72
    65
 73
     2
 40
2.5
 49
0.625
 49
-1.875
  0
LTYPE
  2
DUMMY
 70
    64
  3
ダミー
 72
    65
 73
     0
 40
0.0
  0
LTYPE
  2
RAND1
 70
    64
  3
ランダム線1
 72
    65
 73
     4
 40
10.0
 49
1.0
 49
-2.0
 49
3.0
 49
-4.0
  0
LTYPE
  2
RAND2
 70
    64
  3
ランダム線2
 72
    65
 73
     4
 40
14.0
 49
2.0
 49
-3.0
 49
4.0
 49
-5.0
  0
LTYPE
  2
RAND3
 70
    64
  3
ランダム線3
 72
    65
 73
     4
 40
18.0
 49
3.0
 49
-4.0
 49
5.0
 49
-6.0
  0
LTYPE
  2
RAND4
 70
    64
  3
ランダム線4
 72
    65
 73
     4
 40
22.0
 49
4.0
 49
-5.0
 49
6.0
 49
-7.0
  0
LTYPE
  2
RAND5
 70
    64
  3
ランダム線5
 72
    65
 73
     4
 40
26.0
 49
5.0
 49
-6.0
 49
7.0
 49
-8.0
  0
LTYPE
  2
LONG1
 70
    64
  3
----------  --  ----------  --  
 72
    65
 73
     4
 40
40.0
 49
32.5
 49
-2.5
 49
2.5
 49
-2.5
  0
LTYPE
  2
LONG2
 70
    64
  3
--------  -  -  --------  -  -  
 72
    65
 73
     6
 40
40.0
 49
30.0
 49
-2.5
 49
1.25
 49
-2.5
 49
1.25
 49
-2.5
  0
LTYPE
  2
LONG3
 70
    64
  3
+++++++++++++++..+++++++++++++++
 72
    65
 73
     2
 40
40.0
 49
37.5
 49
-2.5
  0
LTYPE
  2
LONG4
 70
    64
  3
+++++++++++++++..+++++++++++++++
 72
    65
 73
     2
 40
80.0
 49
75.0
 49
-5.0
  0
LTYPE
  2
LONG5
 70
    64
  3
----------  --  ----------  --  
 72
    65
 73
     4
 40
60.0
 49
37.5
 49
-7.5
 49
7.5
 49
-7.5
  0
LTYPE
  2
dashed
 70
   64
  3
-------   -------------   ------
 72
   65
 73
    2
 40
7.5
 49
6
 49
-1.5
  0
LTYPE
  2
dashed_spaced
 70
   64
  3
----        --------        ----
 72
   65
 73
    2
 40
12
 49
6
 49
-6
  0
LTYPE
  2
long_dashed_dotted
 70
   64
  3
------------- --- --------------
 72
   65
 73
    4
 40
15.25
 49
12
 49
-1.5
 49
0.25
 49
-1.5
  0
LTYPE
  2
long_dashed_double-dotted
 70
   64
  3
----------- --- --- ------------
 72
   65
 73
    6
 40
17
 49
12
 49
-1.5
 49
0.25
 49
-1.5
 49
0.25
 49
-1.5
  0
LTYPE
  2
long_dashed_triplicate-dotted
 70
   64
  3
--------- --- --- --- ----------
 72
   65
 73
    8
 40
18.75
 49
12
 49
-1.5
 49
0.25
 49
-1.5
 49
0.25
 49
-1.5
 49
0.25
 49
-1.5
  0
LTYPE
  2
dotted
 70
   64
  3
   -       -       -       -    
 72
   65
 73
    2
 40
1.75
 49
0.25
 49
-1.5
  0
LTYPE
  2
chain
 70
   64
  3
-------------- -- --------------
 72
   65
 73
    4
 40
18.5
 49
12
 49
-1.5
 49
3.5
 49
-1.5
  0
LTYPE
  2
chain_double_dash
 70
   64
  3
------------ -- -- -------------
 72
   65
 73
    6
 40
23.5
 49
12
 49
-1.5
 49
3.5
 49
-1.5
 49
3.5
 49
-1.5
  0
LTYPE
  2
dashed_dotted
 70
   64
  3
-----------     -     ----------
 72
   65
 73
    4
 40
9.25
 49
6
 49
-1.5
 49
0.25
 49
-1.5
  0
LTYPE
  2
double-dashed_dotted
 70
   64
  3
------   -----------   -   -----
 72
   65
 73
    6
 40
16.75
 49
6
 49
-1.5
 49
6
 49
-1.5
 49
0.25
 49
-1.5
  0
LTYPE
  2
dashed_double-dotted
 70
   64
  3
---------    -    -    ---------
 72
   65
 73
    6
 40
11
 49
6
 49
-1.5
 49
0.25
 49
-1.5
 49
0.25
 49
-1.5
  0
LTYPE
  2
double-dashed_double-dotted
 70
   64
  3
-----   ---------   -   -   ----
 72
   65
 73
    8
 40
18.5
 49
6
 49
-1.5
 49
6
 49
-1.5
 49
0.25
 49
-1.5
 49
0.25
 49
-1.5
  0
LTYPE
  2
dashed_triplicate-dotted
 70
   64
  3
-------    -    -    -    ------
 72
   65
 73
    8
 40
12.75
 49
6
 49
-1.5
 49
0.25
 49
-1.5
 49
0.25
 49
-1.5
 49
0.25
 49
-1.5
  0
LTYPE
  2
double-dashed_triplicate-dotted
 70
   64
  3
-----  ---------  -  -  -  -----
 72
   65
 73
   10
 40
20.25
 49
6
 49
-1.5
 49
6
 49
-1.5
 49
0.25
 49
-1.5
 49
0.25
 49
-1.5
 49
0.25
 49
-1.5
  0
LTYPE
  2
undefined
 70
   64
  3
--------------------------------
 72
   65
 73
    0
 40
0
  0
ENDTAB
  0
TABLE
  2
STYLE
  5
3
100
AcDbSymbolTable
 70
     1
  0
STYLE
  5
10
100
AcDbSymbolTableRecord
100
AcDbTextStyleTableRecord
  2
STANDARD
 70
     0
 40
0.0
 41
1.0
 50
0.0
 71
     0
 42
0.2
  3
txt
  4
bigfont.shx
  0
STYLE
  5
26
100
AcDbSymbolTableRecord
100
AcDbTextStyleTableRecord
  2
TATEGAKI
 70
    68
 40
0.0
 41
1.0
 50
0.0
 71
     0
 42
1.0
  3
txt
  4
bigfont.shx
  0
ENDTAB
  0
TABLE
  2
LAYER
 70
    5
  0
LAYER
  2
_0-0_
 70
   64
 62
    7
  6
CONTINUOUS
  0
LAYER
  2
_0-1_
 70
   64
 62
    7
  6
CONTINUOUS
  0
LAYER
  2
_0-a_
 70
   64
 62
    7
  6
CONTINUOUS
  0
LAYER
  2
_1-0_
 70
   64
 62
    7
  6
CONTINUOUS
  0
LAYER
  2
ADD_LINE
 70
   64
 62
    7
  6
CONTINUOUS
  0
ENDTAB
  0
ENDSEC
  0
SECTION
  2
BLOCKS
  0
ENDSEC
  0
SECTION
  2
ENTITIES
  0
LINE
  8
ADD_LINE
  6
DOT
 62
    7
 10
99.459234608984985
 20
74.488352745424322
 11
2049.4592346089848
 21
74.488352745424322
  0
LINE
  8
ADD_LINE
  6
DOT
 62
    7
 10
2049.4592346089848
 20
74.488352745424322
 11
2049.4592346089848
 21
1424.4883527454244
  0
LINE
  8
ADD_LINE
  6
DOT
 62
    7
 10
2049.4592346089848
 20
1424.4883527454244
 11
99.459234608984985
 21
1424.4883527454244
  0
LINE
  8
ADD_LINE
  6
DOT
 62
    7
 10
99.459234608984985
 20
1424.4883527454244
 11
99.459234608984985
 21
74.488352745424322
  0
LINE
  8
ADD_LINE
  6
DOT
 62
    7
 10
1074.4592346089851
 20
1464.0474209650583
 11
1074.4592346089851
 21
47.158901830282787
  0
LINE
  8
_0-1_
  6
CONTINUOUS
 62
    7
 10
1039.4592346089851
 20
1046.4418472359532
 11
1109.4592346089851
 21
1046.4418472359532
  0
LINE
  8
_0-0_
  6
CONTINUOUS
 62
    7
 10
1794.2595673876872
 20
989.44184723595311
 11
1794.2595673876872
 21
639.44184723595311
  0
LINE
  8
_0-0_
  6
CONTINUOUS
 62
    7
 10
1737.2595673876872
 20
943.84822173794532
 11
1484.2595673876872
 21
639.44184723595311
  0
LINE
  8
_0-0_
  6
CONTINUOUS
 62
    7
 10
1737.2595673876872
 20
989.44184723595311
 11
1737.2595673876872
 21
943.84822173794532
  0
LINE
  8
_0-0_
  6
CONTINUOUS
 62
    7
 10
1736.1447218850049
 20
989.44184723595311
 11
1794.2595673876872
 21
989.44184723595311
  0
LINE
  8
_0-0_
  6
CONTINUOUS
 62
    7
 10
1501.5174796921838
 20
660.20634729953053
 11
1478.4458129543671
 21
679.38180541502618
  0
LINE
  8
_0-0_
  6
CONTINUOUS
 62
    7
 10
1736.1447218850049
 20
989.44184723595311
 11
1478.4458129543671
 21
679.38180541502618
  0
LINE
  8
_0-0_
  6
CONTINUOUS
 62
    7
 10
1484.2595673876872
 20
639.44184723595311
 11
1794.2595673876872
 21
639.44184723595311
  0
LINE
  8
_0-0_
  6
CONTINUOUS
 62
    7
 10
1484.2595673876872
 20
639.44184723595311
 11
1794.2595673876872
 21
639.44184723595311
  0
LINE
  8
_0-0_
  6
CONTINUOUS
 62
    7
 10
1737.2595673876872
 20
982.44184723595311
 11
1794.2595673876872
 21
982.44184723595311
  0
LINE
  8
_0-0_
  6
CONTINUOUS
 62
    7
 10
1735.954165561177
 20
979.82557361779391
 11
1483.0601463018286
 21
675.54671379180479
  0
LINE
  8
_0-0_
  6
CONTINUOUS
 62
    7
 10
1735.954165561177
 20
979.82557361779391
 11
1737.2595673876872
 21
979.82557361779391
  0
LINE
  8
_0-0_
  6
CONTINUOUS
 62
    7
 10
1736.4233359079551
 20
978.82557361779379
 11
1483.829201859739
 21
674.90753185460107
  0
LINE
  8
_0-0_
  6
CONTINUOUS
 62
    7
 10
1736.4233359079551
 20
978.82557361779379
 11
1737.2595673876872
 21
978.82557361779379
  0
LINE
  8
_0-0_
  6
CONTINUOUS
 62
    7
 10
1505.3525713152828
 20
664.82068064709381
 11
1482.2809045774661
 21
683.99613876258957
  0
LINE
  8
_0-0_
  6
CONTINUOUS
 62
    7
 10
1492.5708256658327
 20
649.44184723595311
 11
1794.2595673876872
 21
649.44184723595311
  0
ARC
  8
_0-0_
  6
CONTINUOUS
 62
    7
 10
1744.7595673876872
 20
956.9842739018992
 40
7.5001200005055457
 50
180.32411239579119
 51
359.67588760420881
  0
LINE
  8
_0-0_
  6
CONTINUOUS
 62
    7
 10
1752.2595673876872
 20
989.44184723595311
 11
1752.2595673876872
 21
956.94184723595311
  0
LINE
  8
_0-0_
  6
CONTINUOUS
 62
    7
 10
354.45923460898496
 20
989.44184723595311
 11
354.45923460898496
 21
659.44184723595311
  0
LINE
  8
_0-0_
  6
CONTINUOUS
 62
    7
 10
354.45923460898496
 20
659.44184723595311
 11
391.45923460898501
 21
659.44184723595311
  0
LINE
  8
_0-0_
  6
CONTINUOUS
 62
    7
 10
391.45923460898501
 20
989.44184723595311
 11
391.45923460898501
 21
639.44184723595311
  0
LINE
  8
_0-0_
  6
CONTINUOUS
 62
    7
 10
391.45923460898501
 20
639.44184723595311
 11
701.45923460898507
 21
639.44184723595311
  0
LINE
  8
_0-0_
  6
CONTINUOUS
 62
    7
 10
467.45424292845257
 20
639.44184723595311
 11
701.45923460898507
 21
639.44184723595311
  0
LINE
  8
_0-0_
  6
CONTINUOUS
 62
    7
 10
448.45923460898507
 20
943.84822173794532
 11
701.45923460898507
 21
639.44184723595311
  0
LINE
  8
_0-0_
  6
CONTINUOUS
 62
    7
 10
354.45923460898496
 20
989.44184723595311
 11
456.45923460898501
 21
989.44184723595311
  0
LINE
  8
_0-0_
  6
CONTINUOUS
 62
    7
 10
448.45923460898507
 20
989.44184723595311
 11
448.45923460898507
 21
943.84822173794532
  0
LINE
  8
_0-0_
  6
CONTINUOUS
 62
    7
 10
368.4592346089849
 20
728.54653359210249
 11
368.4592346089849
 21
659.44184723595311
  0
LINE
  8
_0-0_
  6
CONTINUOUS
 62
    7
 10
360.45923460898496
 20
738.54653359210249
 11
368.4592346089849
 21
728.54653359210249
  0
LINE
  8
_0-0_
  6
CONTINUOUS
 62
    7
 10
354.45923460898496
 20
736.44184723595322
 11
362.45923460898496
 21
726.44184723595322
  0
LINE
  8
_0-0_
  6
CONTINUOUS
 62
    7
 10
362.45923460898496
 20
726.44184723595322
 11
362.45923460898496
 21
659.44184723595311
  0
LINE
  8
_0-0_
  6
CONTINUOUS
 62
    7
 10
381.45923460898501
 20
667.44184723595311
 11
383.95923460898501
 21
667.44184723595311
  0
LINE
  8
_0-0_
  6
CONTINUOUS
 62
    7
 10
381.45923460898501
 20
983.44184723595299
 11
381.45923460898501
 21
667.44184723595311
  0
LINE
  8
_0-0_
  6
CONTINUOUS
 62
    7
 10
383.95923460898501
 20
983.44184723595299
 11
383.95923460898501
 21
667.44184723595311
  0
LINE
  8
_0-0_
  6
CONTINUOUS
 62
    7
 10
360.45923460898496
 20
983.44184723595299
 11
360.45923460898496
 21
738.54653359210249
  0
LINE
  8
_0-0_
  6
CONTINUOUS
 62
    7
 10
360.45923460898496
 20
983.44184723595299
 11
391.45923460898501
 21
983.44184723595299
  0
LINE
  8
_0-0_
  6
CONTINUOUS
 62
    7
 10
391.45923460898501
 20
981.44184723595322
 11
448.45923460898507
 21
981.44184723595322
  0
ARC
  8
_0-0_
  6
CONTINUOUS
 62
    7
 10
440.95923460898507
 20
956.94184723595311
 40
7.5
 50
180
 51
0
  0
CIRCLE
  8
_0-0_
  6
CONTINUOUS
 62
    7
 10
440.95923460898507
 20
963.44184723595299
 40
3.2347876719522888
  0
LINE
  8
_0-0_
  6
CONTINUOUS
 62
    7
 10
433.45923460898507
 20
989.44184723595311
 11
433.45923460898507
 21
956.94184723595311
  0
CIRCLE
  8
_0-0_
  6
CONTINUOUS
 62
    7
 10
1744.9216847445159
 20
963.44184723595299
 40
3.2347876719522888
  0
LINE
  8
_0-0_
  6
CONTINUOUS
 62
    7
 10
369.45923460898484
 20
728.89731465146065
 11
369.45923460898484
 21
659.44184723595311
  0
LINE
  8
_0-0_
  6
CONTINUOUS
 62
    7
 10
361.45923460898484
 20
738.89731465146065
 11
369.45923460898484
 21
728.89731465146065
  0
LINE
  8
_0-0_
  6
CONTINUOUS
 62
    7
 10
361.45923460898484
 20
982.44184723595311
 11
361.45923460898484
 21
738.89731465146065
  0
LINE
  8
_0-0_
  6
CONTINUOUS
 62
    7
 10
361.45923460898484
 20
982.44184723595311
 11
381.45923460898501
 21
982.44184723595311
  0
LINE
  8
_0-0_
  6
CONTINUOUS
 62
    7
 10
383.95923460898501
 20
982.44184723595311
 11
391.45923460898501
 21
982.44184723595311
  0
LINE
  8
_0-0_
  6
CONTINUOUS
 62
    7
 10
448.45923460898507
 20
983.44184723595299
 11
453.5953356378547
 21
983.44184723595299
  0
LINE
  8
_0-0_
  6
CONTINUOUS
 62
    7
 10
448.45923460898507
 20
982.44184723595311
 11
453.1180191426663
 21
982.44184723595311
  0
LINE
  8
_0-0_
  6
CONTINUOUS
 62
    7
 10
391.45923460898501
 20
649.44184723595311
 11
693.14797633083924
 21
649.44184723595311
  0
LINE
  8
_0-0_
  6
CONTINUOUS
 62
    7
 10
1753.259567387687
 20
981.44184723595322
 11
1753.259567387687
 21
956.94184723595311
  0
LINE
  8
_0-0_
  6
CONTINUOUS
 62
    7
 10
1753.259567387687
 20
981.44184723595322
 11
1794.2595673876872
 21
981.44184723595322
  0
ARC
  8
_0-0_
  6
CONTINUOUS
 62
    7
 10
1744.7595673876872
 20
956.9842739018992
 40
8.5001200005055448
 50
208.07400353618337
 51
359.67588760420881
  0
ARC
  8
_0-0_
  6
CONTINUOUS
 62
    7
 10
440.95923460898507
 20
956.94184723595311
 40
8.5
 50
180
 51
331.92751306414715
  0
LINE
  8
_0-0_
  6
CONTINUOUS
 62
    7
 10
391.45923460898501
 20
980.44184723595322
 11
432.45923460898501
 21
980.44184723595322
  0
LINE
  8
_0-0_
  6
CONTINUOUS
 62
    7
 10
432.45923460898501
 20
980.44184723595322
 11
432.45923460898501
 21
956.94184723595311
  0
LINE
  8
_0-1_
  6
CONTINUOUS
 62
    7
 10
975.45923460898496
 20
631.44184723595322
 11
1074.4592346089851
 21
539.44184723595311
  0
LINE
  8
_0-1_
  6
CONTINUOUS
 62
    7
 10
1074.4592346089851
 20
539.44184723595311
 11
1173.4592346089851
 21
631.44184723595322
  0
LINE
  8
_0-1_
  6
CONTINUOUS
 62
    7
 10
1003.9592346089851
 20
1008.4418472359532
 11
975.45923460898496
 21
631.44184723595322
  0
LINE
  8
_0-1_
  6
CONTINUOUS
 62
    7
 10
1144.9592346089848
 20
1008.4418472359532
 11
1173.4592346089851
 21
631.44184723595322
  0
LINE
  8
_0-1_
  6
CONTINUOUS
 62
    7
 10
1039.4592346089851
 20
1046.4418472359532
 11
1003.9592346089851
 21
1008.4418472359532
  0
LINE
  8
_0-1_
  6
CONTINUOUS
 62
    7
 10
1109.4592346089851
 20
1046.4418472359532
 11
1144.9592346089848
 21
1008.4418472359532
  0
LINE
  8
_0-1_
  6
CONTINUOUS
 62
    7
 10
976.32706485488234
 20
642.92156662905143
 11
1074.4592346089851
 21
551.72803514039038
  0
LINE
  8
_0-1_
  6
CONTINUOUS
 62
    7
 10
1074.4592346089851
 20
551.72803514039038
 11
1172.5914043630878
 21
642.92156662905143
  0
LINE
  8
_0-1_
  6
CONTINUOUS
 62
    7
 10
1042.064877312763
 20
1040.4418472359532
 11
1106.8535919052069
 21
1040.4418472359532
  0
LINE
  8
_0-1_
  6
CONTINUOUS
 62
    7
 10
1042.064877312763
 20
1040.4418472359532
 11
1024.7275053289686
 21
1021.8835335631591
  0
LINE
  8
_0-1_
  6
CONTINUOUS
 62
    7
 10
1106.8535919052069
 20
1040.4418472359532
 11
1124.1909638890015
 21
1021.8835335631591
  0
ARC
  8
_0-1_
  6
CONTINUOUS
 62
    7
 10
1033.8421936162481
 20
1019.0717569508613
 40
3.0016442796993004
 50
56.42070156852003
 51
232.62758937147967
  0
ARC
  8
_0-1_
  6
CONTINUOUS
 62
    7
 10
1115.076275601722
 20
1019.0717569508613
 40
3.0016442796993004
 50
307.37241062852036
 51
123.57929843147997
  0
LINE
  8
_0-1_
  6
CONTINUOUS
 62
    7
 10
1035.5023747615824
 20
1021.5724902326264
 11
1074.4592346089851
 21
993.80959465281444
  0
LINE
  8
_0-1_
  6
CONTINUOUS
 62
    7
 10
1113.4160944563876
 20
1021.5724902326264
 11
1074.4592346089851
 21
993.80959465281444
  0
LINE
  8
_0-1_
  6
CONTINUOUS
 62
    7
 10
1116.8982533839662
 20
1016.6863292443776
 11
1074.4592346089851
 21
986.44184723595322
  0
LINE
  8
_0-1_
  6
CONTINUOUS
 62
    7
 10
1032.0202158340039
 20
1016.6863292443776
 11
1074.4592346089851
 21
986.44184723595322
  0
CIRCLE
  8
_0-1_
  6
CONTINUOUS
 62
    7
 10
1074.4592346089851
 20
791.44184723595322
 40
4.8856582473480961
  0
LINE
  8
_0-1_
  6
CONTINUOUS
 62
    7
 10
1074.4592346089851
 20
539.44184723595311
 11
1074.4592346089851
 21
786.55618898860507
  0
LINE
  8
_0-1_
  6
CONTINUOUS
 62
    7
 10
1074.4592346089851
 20
796.32750548330125
 11
1074.4592346089851
 21
1046.4418472359532
  0
LINE
  8
_0-1_
  6
CONTINUOUS
 62
    7
 10
1020.34309262122
 20
1025.979498065951
 11
1025.45824078026
 21
1021.2008728126938
  0
LINE
  8
_0-1_
  6
CONTINUOUS
 62
    7
 10
1042.4991510967261
 20
1039.4418472359532
 11
1025.45824078026
 21
1021.2008728126938
  0
LINE
  8
_0-1_
  6
CONTINUOUS
 62
    7
 10
1042.4991510967261
 20
1039.4418472359532
 11
1106.419318121244
 21
1039.4418472359532
  0
LINE
  8
_0-1_
  6
CONTINUOUS
 62
    7
 10
1106.419318121244
 20
1039.4418472359532
 11
1123.4602284377102
 21
1021.2008728126938
  0
LINE
  8
_0-1_
  6
CONTINUOUS
 62
    7
 10
1128.5753765967499
 20
1025.979498065951
 11
1123.4602284377102
 21
1021.2008728126938
  0
LINE
  8
_0-1_
  6
CONTINUOUS
 62
    7
 10
1117.4911250195119
 20
1015.8808857170677
 11
1074.4592346089851
 21
985.21388933314279
  0
LINE
  8
_0-1_
  6
CONTINUOUS
 62
    7
 10
1031.4398560127554
 20
1015.871969079659
 11
1074.4592346089851
 21
985.21388933314279
  0
ARC
  8
_0-1_
  6
CONTINUOUS
 62
    7
 10
1115.5171407951902
 20
1018.6937328513638
 40
3.4363822137225037
 50
305.06019686284901
 51
116.68402368277805
  0
ARC
  8
_0-1_
  6
CONTINUOUS
 62
    7
 10
1033.8421936162481
 20
1019.0717569508613
 40
3.0016442796993004
 50
56.42070156852003
 51
232.62758937147967
  0
ARC
  8
_0-1_
  6
CONTINUOUS
 62
    7
 10
1033.4013284227799
 20
1018.6937328513638
 40
3.4363822137225037
 50
63.315976317221981
 51
234.93980313715102
  0
POINT
  8
_0-a_
 62
    7
 10
354.45923460898496
 20
506.64309484193012
  0
POINT
  8
_0-a_
 62
    7
 10
391.45923460898501
 20
506.64309484193012
  0
LINE
  8
_0-a_
  6
CONTINUOUS
 62
    7
 10
354.45923460898496
 20
506.64309484193012
 11
354.45923460898496
 21
600.98585690515802
  0
LINE
  8
_0-a_
  6
CONTINUOUS
 62
    7
 10
391.45923460898501
 20
506.64309484193012
 11
391.45923460898501
 21
600.98585690515802
  0
LINE
  8
_0-a_
  6
CONTINUOUS
 62
    7
 10
354.45923460898496
 20
506.64309484193012
 11
391.45923460898501
 21
506.64309484193012
  0
TEXT
  8
_0-a_
 62
    7
 10
366.70923460898507
 20
509.14309484193012
 40
12.5
 41
1
 50
0
  1
37
  0
POINT
  8
_0-a_
 62
    7
 10
701.45923460898507
 20
506.64309484193012
  0
LINE
  8
_0-a_
  6
CONTINUOUS
 62
    7
 10
701.45923460898507
 20
506.64309484193012
 11
701.45923460898507
 21
600.98585690515802
  0
LINE
  8
_0-a_
  6
CONTINUOUS
 62
    7
 10
391.45923460898501
 20
506.64309484193012
 11
701.45923460898507
 21
506.64309484193012
  0
TEXT
  8
_0-a_
 62
    7
 10
537.08423460898507
 20
509.14309484193012
 40
12.5
 41
1
 50
0
  1
310
  0
POINT
  8
_0-a_
 62
    7
 10
975.45923460898507
 20
506.64309484193012
  0
POINT
  8
_0-a_
 62
    7
 10
1173.4592346089848
 20
506.64309484193012
  0
LINE
  8
_0-a_
  6
CONTINUOUS
 62
    7
 10
975.45923460898507
 20
506.64309484193012
 11
975.45923460898507
 21
600.98585690515802
  0
LINE
  8
_0-a_
  6
CONTINUOUS
 62
    7
 10
1173.4592346089848
 20
506.64309484193012
 11
1173.4592346089848
 21
600.98585690515802
  0
LINE
  8
_0-a_
  6
CONTINUOUS
 62
    7
 10
975.45923460898507
 20
506.64309484193012
 11
1173.4592346089848
 21
506.64309484193012
  0
TEXT
  8
_0-a_
 62
    7
 10
1065.0842346089851
 20
509.14309484193012
 40
12.5
 41
1
 50
0
  1
198
  0
POINT
  8
_0-a_
 62
    7
 10
1484.2595673876872
 20
506.64309484193012
  0
POINT
  8
_0-a_
 62
    7
 10
1794.2595673876872
 20
506.64309484193012
  0
LINE
  8
_0-a_
  6
CONTINUOUS
 62
    7
 10
1484.2595673876872
 20
506.64309484193012
 11
1484.2595673876872
 21
600.98585690515802
  0
LINE
  8
_0-a_
  6
CONTINUOUS
 62
    7
 10
1794.2595673876872
 20
506.64309484193012
 11
1794.2595673876872
 21
600.98585690515802
  0
LINE
  8
_0-a_
  6
CONTINUOUS
 62
    7
 10
1484.2595673876872
 20
506.64309484193012
 11
1794.2595673876872
 21
506.64309484193012
  0
TEXT
  8
_0-a_
 62
    7
 10
1629.8845673876872
 20
509.14309484193012
 40
12.5
 41
1
 50
0
  1
310
  0
POINT
  8
_0-a_
 62
    7
 10
354.45923460898496
 20
1153.0657237936773
  0
POINT
  8
_0-a_
 62
    7
 10
391.45923460898501
 20
1153.0657237936773
  0
LINE
  8
_0-a_
  6
CONTINUOUS
 62
    7
 10
354.45923460898496
 20
1153.0657237936773
 11
354.45923460898496
 21
1039.5049916805324
  0
LINE
  8
_0-a_
  6
CONTINUOUS
 62
    7
 10
391.45923460898501
 20
1153.0657237936773
 11
391.45923460898501
 21
1039.5049916805324
  0
LINE
  8
_0-a_
  6
CONTINUOUS
 62
    7
 10
354.45923460898496
 20
1153.0657237936773
 11
391.45923460898501
 21
1153.0657237936773
  0
TEXT
  8
_0-a_
 62
    7
 10
366.70923460898507
 20
1155.5657237936773
 40
12.5
 41
1
 50
0
  1
37
  0
POINT
  8
_0-a_
 62
    7
 10
448.45923460898507
 20
1153.0657237936773
  0
LINE
  8
_0-a_
  6
CONTINUOUS
 62
    7
 10
448.45923460898507
 20
1153.0657237936773
 11
448.45923460898507
 21
1039.5049916805324
  0
LINE
  8
_0-a_
  6
CONTINUOUS
 62
    7
 10
391.45923460898501
 20
1153.0657237936773
 11
448.45923460898507
 21
1153.0657237936773
  0
TEXT
  8
_0-a_
 62
    7
 10
413.70923460898501
 20
1155.5657237936773
 40
12.5
 41
1
 50
0
  1
57
  0
POINT
  8
_0-a_
 62
    7
 10
456.45923460898501
 20
1153.0657237936773
  0
LINE
  8
_0-a_
  6
CONTINUOUS
 62
    7
 10
456.45923460898501
 20
1153.0657237936773
 11
456.45923460898501
 21
1039.5049916805324
  0
LINE
  8
_0-a_
  6
CONTINUOUS
 62
    7
 10
448.45923460898507
 20
1153.0657237936773
 11
456.45923460898501
 21
1153.0657237936773
  0
TEXT
  8
_0-a_
 62
    7
 10
449.33423460898501
 20
1155.5657237936773
 40
12.5
 41
1
 50
0
  1
8
  0
POINT
  8
_0-a_
 62
    7
 10
1736.1447218850049
 20
1153.0657237936773
  0
POINT
  8
_0-a_
 62
    7
 10
1737.2595673876872
 20
1153.0657237936773
  0
LINE
  8
_0-a_
  6
CONTINUOUS
 62
    7
 10
1736.1447218850049
 20
1153.0657237936773
 11
1736.1447218850049
 21
1039.5049916805324
  0
LINE
  8
_0-a_
  6
CONTINUOUS
 62
    7
 10
1737.2595673876872
 20
1153.0657237936773
 11
1737.2595673876872
 21
1039.5049916805324
  0
LINE
  8
_0-a_
  6
CONTINUOUS
 62
    7
 10
1736.1447218850049
 20
1153.0657237936773
 11
1737.2595673876872
 21
1153.0657237936773
  0
TEXT
  8
_0-a_
 62
    7
 10
1733.577144636346
 20
1155.5657237936773
 40
12.5
 41
1
 50
0
  1
1
  0
POINT
  8
_0-a_
 62
    7
 10
1794.2595673876872
 20
1153.0657237936773
  0
LINE
  8
_0-a_
  6
CONTINUOUS
 62
    7
 10
1794.2595673876872
 20
1153.0657237936773
 11
1794.2595673876872
 21
1039.5049916805324
  0
LINE
  8
_0-a_
  6
CONTINUOUS
 62
    7
 10
1737.2595673876872
 20
1153.0657237936773
 11
1794.2595673876872
 21
1153.0657237936773
  0
TEXT
  8
_0-a_
 62
    7
 10
1759.5095673876872
 20
1155.5657237936773
 40
12.5
 41
1
 50
0
  1
57
  0
POINT
  8
_0-a_
 62
    7
 10
1003.9592346089851
 20
1153.0657237936773
  0
POINT
  8
_0-a_
 62
    7
 10
1144.9592346089848
 20
1153.0657237936773
  0
LINE
  8
_0-a_
  6
CONTINUOUS
 62
    7
 10
1003.9592346089851
 20
1153.0657237936773
 11
1003.9592346089851
 21
1039.5049916805324
  0
LINE
  8
_0-a_
  6
CONTINUOUS
 62
    7
 10
1144.9592346089848
 20
1153.0657237936773
 11
1144.9592346089848
 21
1039.5049916805324
  0
LINE
  8
_0-a_
  6
CONTINUOUS
 62
    7
 10
1003.9592346089851
 20
1153.0657237936773
 11
1144.9592346089848
 21
1153.0657237936773
  0
TEXT
  8
_0-a_
 62
    7
 10
1065.0842346089851
 20
1155.5657237936773
 40
12.5
 41
1
 50
0
  1
141
  0
POINT
  8
_0-a_
 62
    7
 10
1003.9592346089851
 20
1117.4233806107957
  0
POINT
  8
_0-a_
 62
    7
 10
1039.4592346089851
 20
1117.4233806107957
  0
LINE
  8
_0-a_
  6
CONTINUOUS
 62
    7
 10
1003.9592346089851
 20
1117.4233806107957
 11
1003.9592346089851
 21
1053.2346048322124
  0
LINE
  8
_0-a_
  6
CONTINUOUS
 62
    7
 10
1039.4592346089851
 20
1117.4233806107957
 11
1039.4592346089851
 21
1053.2346048322124
  0
LINE
  8
_0-a_
  6
CONTINUOUS
 62
    7
 10
1003.9592346089851
 20
1117.4233806107957
 11
1039.4592346089851
 21
1117.4233806107957
  0
TEXT
  8
_0-a_
 62
    7
 10
1015.4592346089851
 20
1119.9233806107957
 40
12.5
 41
1
 50
0
  1
36
  0
POINT
  8
_0-a_
 62
    7
 10
1109.4592346089851
 20
1117.4233806107957
  0
LINE
  8
_0-a_
  6
CONTINUOUS
 62
    7
 10
1109.4592346089851
 20
1117.4233806107957
 11
1109.4592346089851
 21
1053.2346048322124
  0
LINE
  8
_0-a_
  6
CONTINUOUS
 62
    7
 10
1039.4592346089851
 20
1117.4233806107957
 11
1109.4592346089851
 21
1117.4233806107957
  0
TEXT
  8
_0-a_
 62
    7
 10
1068.2092346089851
 20
1119.9233806107957
 40
12.5
 41
1
 50
0
  1
70
  0
POINT
  8
_0-a_
 62
    7
 10
1144.9592346089848
 20
1117.4233806107957
  0
LINE
  8
_0-a_
  6
CONTINUOUS
 62
    7
 10
1144.9592346089848
 20
1117.4233806107957
 11
1144.9592346089848
 21
1053.2346048322124
  0
LINE
  8
_0-a_
  6
CONTINUOUS
 62
    7
 10
1109.4592346089851
 20
1117.4233806107957
 11
1144.9592346089848
 21
1117.4233806107957
  0
TEXT
  8
_0-a_
 62
    7
 10
1120.9592346089848
 20
1119.9233806107957
 40
12.5
 41
1
 50
0
  1
36
  0
POINT
  8
_0-a_
 62
    7
 10
199.16805324459233
 20
639.44184723595311
  0
POINT
  8
_0-a_
 62
    7
 10
199.16805324459233
 20
989.44184723595311
  0
LINE
  8
_0-a_
  6
CONTINUOUS
 62
    7
 10
199.16805324459233
 20
639.44184723595311
 11
321.4642262895174
 21
639.44184723595311
  0
LINE
  8
_0-a_
  6
CONTINUOUS
 62
    7
 10
199.16805324459233
 20
989.44184723595311
 11
321.4642262895174
 21
989.44184723595311
  0
LINE
  8
_0-a_
  6
CONTINUOUS
 62
    7
 10
199.16805324459233
 20
639.44184723595311
 11
199.16805324459233
 21
989.44184723595311
  0
TEXT
  8
_0-a_
 62
    7
 10
196.66805324459233
 20
805.06684723595311
 40
12.5
 41
1
 50
90
  1
350
  0
POINT
  8
_0-a_
 62
    7
 10
244.59234608985014
 20
639.44184723595311
  0
POINT
  8
_0-a_
 62
    7
 10
244.59234608985014
 20
659.44184723595311
  0
LINE
  8
_0-a_
  6
CONTINUOUS
 62
    7
 10
244.59234608985014
 20
639.44184723595311
 11
321.4642262895174
 21
639.44184723595311
  0
LINE
  8
_0-a_
  6
CONTINUOUS
 62
    7
 10
244.59234608985014
 20
659.44184723595311
 11
321.4642262895174
 21
659.44184723595311
  0
LINE
  8
_0-a_
  6
CONTINUOUS
 62
    7
 10
244.59234608985014
 20
639.44184723595311
 11
244.59234608985014
 21
659.44184723595311
  0
TEXT
  8
_0-a_
 62
    7
 10
242.09234608985014
 20
643.19184723595311
 40
12.5
 41
1
 50
90
  1
20
  0
POINT
  8
_0-a_
 62
    7
 10
244.59234608985014
 20
989.44184723595311
  0
LINE
  8
_0-a_
  6
CONTINUOUS
 62
    7
 10
244.59234608985014
 20
989.44184723595311
 11
321.4642262895174
 21
989.44184723595311
  0
LINE
  8
_0-a_
  6
CONTINUOUS
 62
    7
 10
244.59234608985014
 20
659.44184723595311
 11
244.59234608985014
 21
989.44184723595311
  0
TEXT
  8
_0-a_
 62
    7
 10
242.09234608985014
 20
815.06684723595311
 40
12.5
 41
1
 50
90
  1
330
  0
POINT
  8
_0-a_
 62
    7
 10
833.36106489184681
 20
539.44184723595311
  0
POINT
  8
_0-a_
 62
    7
 10
833.36106489184681
 20
1046.4418472359532
  0
LINE
  8
_0-a_
  6
CONTINUOUS
 62
    7
 10
833.36106489184681
 20
539.44184723595311
 11
939.9334442595673
 21
539.44184723595311
  0
LINE
  8
_0-a_
  6
CONTINUOUS
 62
    7
 10
833.36106489184681
 20
1046.4418472359532
 11
939.9334442595673
 21
1046.4418472359532
  0
LINE
  8
_0-a_
  6
CONTINUOUS
 62
    7
 10
833.36106489184681
 20
539.44184723595311
 11
833.36106489184681
 21
1046.4418472359532
  0
TEXT
  8
_0-a_
 62
    7
 10
830.86106489184681
 20
783.56684723595322
 40
12.5
 41
1
 50
90
  1
507
  0
POINT
  8
_0-a_
 62
    7
 10
1305.0748752079867
 20
539.44184723595311
  0
POINT
  8
_0-a_
 62
    7
 10
1305.0748752079867
 20
631.44184723595322
  0
LINE
  8
_0-a_
  6
CONTINUOUS
 62
    7
 10
1305.0748752079867
 20
539.44184723595311
 11
1212.4792013311148
 21
539.44184723595311
  0
LINE
  8
_0-a_
  6
CONTINUOUS
 62
    7
 10
1305.0748752079867
 20
631.44184723595322
 11
1212.4792013311148
 21
631.44184723595322
  0
LINE
  8
_0-a_
  6
CONTINUOUS
 62
    7
 10
1305.0748752079867
 20
539.44184723595311
 11
1305.0748752079867
 21
631.44184723595322
  0
TEXT
  8
_0-a_
 62
    7
 10
1302.5748752079867
 20
579.19184723595311
 40
12.5
 41
1
 50
90
  1
92
  0
POINT
  8
_0-a_
 62
    7
 10
1305.0748752079867
 20
1008.4418472359532
  0
LINE
  8
_0-a_
  6
CONTINUOUS
 62
    7
 10
1305.0748752079867
 20
1008.4418472359532
 11
1212.4792013311148
 21
1008.4418472359532
  0
LINE
  8
_0-a_
  6
CONTINUOUS
 62
    7
 10
1305.0748752079867
 20
631.44184723595322
 11
1305.0748752079867
 21
1008.4418472359532
  0
TEXT
  8
_0-a_
 62
    7
 10
1302.5748752079867
 20
810.56684723595311
 40
12.5
 41
1
 50
90
  1
377
  0
POINT
  8
_0-a_
 62
    7
 10
1305.0748752079867
 20
1046.4418472359532
  0
LINE
  8
_0-a_
  6
CONTINUOUS
 62
    7
 10
1305.0748752079867
 20
1046.4418472359532
 11
1212.4792013311148
 21
1046.4418472359532
  0
LINE
  8
_0-a_
  6
CONTINUOUS
 62
    7
 10
1305.0748752079867
 20
1008.4418472359532
 11
1305.0748752079867
 21
1046.4418472359532
  0
TEXT
  8
_0-a_
 62
    7
 10
1302.5748752079867
 20
1021.1918472359531
 40
12.5
 41
1
 50
90
  1
38
  0
POINT
  8
_0-a_
 62
    7
 10
1914.8086522462563
 20
639.44184723595311
  0
POINT
  8
_0-a_
 62
    7
 10
1914.8086522462563
 20
989.44184723595311
  0
LINE
  8
_0-a_
  6
CONTINUOUS
 62
    7
 10
1914.8086522462563
 20
639.44184723595311
 11
1839.6838602329449
 21
639.44184723595311
  0
LINE
  8
_0-a_
  6
CONTINUOUS
 62
    7
 10
1914.8086522462563
 20
989.44184723595311
 11
1839.6838602329449
 21
989.44184723595311
  0
LINE
  8
_0-a_
  6
CONTINUOUS
 62
    7
 10
1914.8086522462563
 20
639.44184723595311
 11
1914.8086522462563
 21
989.44184723595311
  0
TEXT
  8
_0-a_
 62
    7
 10
1912.3086522462563
 20
805.06684723595311
 40
12.5
 41
1
 50
90
  1
350
  0
POINT
  8
_0-a_
 62
    7
 10
724.73208703697514
 20
611.44024789877369
  0
POINT
  8
_0-a_
 62
    7
 10
747.80375377422092
 20
630.61570601379492
  0
LINE
  8
_0-a_
  6
CONTINUOUS
 62
    7
 10
724.73208703697514
 20
611.44024789877369
 11
705.77486931479359
 21
634.24933057768828
  0
LINE
  8
_0-a_
  6
CONTINUOUS
 62
    7
 10
747.80375377422092
 20
630.61570601379492
 11
728.84653605203937
 21
653.42478869270951
  0
LINE
  8
_0-a_
  6
CONTINUOUS
 62
    7
 10
724.73208703697514
 20
611.44024789877369
 11
747.80375377422092
 21
630.61570601379492
  0
TEXT
  8
_0-a_
 62
    7
 10
729.86336832559482
 20
618.95572874370737
 40
12.5
 41
1
 50
39.730845629999969
  1
30
  0
POINT
  8
_0-a_
 62
    7
 10
1424.7638283203405
 20
614.79232589171841
  0
POINT
  8
_0-a_
 62
    7
 10
1447.835495058157
 20
595.61686777622288
  0
LINE
  8
_0-a_
  6
CONTINUOUS
 62
    7
 10
1424.7638283203405
 20
614.79232589171841
 11
1452.3566506320853
 21
647.9916579179984
  0
LINE
  8
_0-a_
  6
CONTINUOUS
 62
    7
 10
1447.835495058157
 20
595.61686777622288
 11
1475.4283173699018
 21
628.81619980250275
  0
LINE
  8
_0-a_
  6
CONTINUOUS
 62
    7
 10
1424.7638283203405
 20
614.79232589171841
 11
1447.835495058157
 21
595.61686777622288
  0
TEXT
  8
_0-a_
 62
    7
 10
1433.0910192951617
 20
611.12212283618362
 40
12.5
 41
1
 50
-39.730845630000026
  1
30
  0
POINT
  8
_0-a_
 62
    7
 10
1421.2488752579047
 20
691.81166089066323
  0
POINT
  8
_0-a_
 62
    7
 10
1438.5067875618508
 20
712.57616095469814
  0
LINE
  8
_0-a_
  6
CONTINUOUS
 62
    7
 10
1421.2488752579047
 20
691.81166089066323
 11
1450.3286570669436
 21
667.64270316326235
  0
LINE
  8
_0-a_
  6
CONTINUOUS
 62
    7
 10
1438.5067875618508
 20
712.57616095469814
 11
1467.5865693708897
 21
688.40720322729726
  0
LINE
  8
_0-a_
  6
CONTINUOUS
 62
    7
 10
1421.2488752579047
 20
691.81166089066323
 11
1438.5067875618508
 21
712.57616095469814
  0
TEXT
  8
_0-a_
 62
    7
 10
1423.9603054076651
 20
698.98526852859345
 40
12.5
 41
1
 50
50.269154370000187
  1
27
  0
LINE
  8
_0-a_
  6
CONTINUOUS
 62
    7
 10
678.44868486981954
 20
667.12784732085856
 11
701.52035160763614
 21
686.30330543635421
  0
LINE
  8
_0-a_
  6
CONTINUOUS
 62
    7
 10
684.20132230446825
 20
660.20634729951348
 11
707.26275144211615
 21
679.37329668109464
  0
LINE
  8
_0-0_
  6
CONTINUOUS
 62
    7
 10
456.45923460898501
 20
989.44184723595311
 11
707.26275144211615
 21
679.37329668109464
  0
LINE
  8
_0-0_
  6
CONTINUOUS
 62
    7
 10
453.1180191426663
 20
982.44184723595311
 11
701.87888557062922
 21
674.89862670205389
  0
LINE
  8
_0-0_
  6
CONTINUOUS
 62
    7
 10
453.5953356378547
 20
983.44184723595299
 11
702.64800926655585
 21
675.53786527048817
  0
POINT
  8
_0-a_
 62
    7
 10
736.66329161823614
 20
703.80884497185002
  0
POINT
  8
_0-a_
 62
    7
 10
753.92120392218203
 20
683.04434490781534
  0
LINE
  8
_0-a_
  6
CONTINUOUS
 62
    7
 10
736.66329161823614
 20
703.80884497185002
 11
712.73103059479899
 21
683.9181247183443
  0
LINE
  8
_0-a_
  6
CONTINUOUS
 62
    7
 10
753.92120392218203
 20
683.04434490781534
 11
729.98894289874499
 21
663.1536246543094
  0
LINE
  8
_0-a_
  6
CONTINUOUS
 62
    7
 10
736.66329161823614
 20
703.80884497185002
 11
753.92120392218203
 21
683.04434490781534
  0
TEXT
  8
_0-a_
 62
    7
 10
743.21999955763215
 20
699.83114701983584
 40
12.5
 41
1
 50
-50.26915437000001
  1
27
  0
ENDSEC
  0
EOF
