0
SECTION
2
HEADER
  9
$EXTMIN
10
0
20
0
30
0
  9
$EXTMAX
10
1127.027
20
1194.392
30
0
  9
$LTSCALE
40
5.000
  9
$DIMSCALE
40
5.000
  9
$PDMODE
70
0
  9
$PDSIZE
40
40
0
ENDSEC
0
SECTION
2
TABLES
0
TABLE
2
LTYPE
70
9
0
LTYPE
5
1f4
2
CONTINUOUS
70
0
3
実線
72
65
73
0
40
0.0
0
LTYPE
5
1f5
2
DOT
70
0
3
--  --  --  --  --  --  --  --     
72
65
73
2
40
5.000
49
1.000
49
-4.000
0
LTYPE
5
1f6
2
DASHED
70
0
3
----    ----    ----    ----    
72
65
73
2
40
5.000
49
2.000
49
-3.000
0
LTYPE
5
1f7
2
DASHED2
70
0
3
------  ------  ------  ------ 
72
65
73
2
40
10.000
49
4.000
49
-6.000
0
LTYPE
5
1f8
2
CENTER
70
0
3
----- - ----- - ----- - ----- - 
72
65
73
4
40
9.000
49
6.000
49
-1.000
49
1.000
49
-1.000
0
LTYPE
5
1f9
2
CENTER2
70
0
3
----------  --  ----------  -- 
72
65
73
4
40
18.000
49
12.000
49
-2.000
49
2.000
49
-2.000
0
LTYPE
5
1fa
2
PHANTOM
70
0
3
--- - - --- - - --- - - --- - -
72
65
73
6
40
10.000
49
5.000
49
-1.000
49
1.000
49
-1.000
49
1.000
49
-1.000
0
LTYPE
5
1fb
2
PHANTOM2
70
0
3
--------  -  -  --------  -  -
72
65
73
6
40
16.000
49
6.000
49
-2.000
49
2.000
49
-2.000
49
2.000
49
-2.000
0
LTYPE
5
1fc
2
HIDDEN
70
0
3
-   -   -   -   -   -   -   -   
72
65
73
2
40
2.500
49
0.500
49
-2.000
0
ENDTAB
0
TABLE
2
STYLE
70
1
0
STYLE
5
1fd
100
AcDbSymbolTableRecord
100
AcDbTextStyleTableRecord
2
STANDARD
70
0
40
0.0
41
1.0
50
0.0
71
0
42
0.0
3
txt.shx
4
extfont.shx
0
STYLE
5
1fe
100
AcDbSymbolTableRecord
100
AcDbTextStyleTableRecord
2
TATEGAKI
70
4
40
0.0
41
1.0
50
0.0
71
0
42
0.0
3
txt.shx
4
extfont.shx
0
STYLE
5
1ff
100
AcDbSymbolTableRecord
100
AcDbTextStyleTableRecord
2
MT
70
0
40
0.0
41
1.0
50
0.0
71
0
42
0.0
3
MS Mincho
4

0
STYLE
5
200
100
AcDbSymbolTableRecord
100
AcDbTextStyleTableRecord
2
TMT
70
4
40
0.0
41
1.0
50
0.0
71
0
42
0.0
3
@MS Mincho
4

0
ENDTAB
0
TABLE
2
LAYER
5
de6
100
AcDbSymbolTable
70
10
0
LAYER
5
de7
100
AcDbSymbolTableRecord
100
AcDbLayerTableRecord
2
0
70
64
62
  7
  6
CONTINUOUS
0
LAYER
5
de8
100
AcDbSymbolTableRecord
100
AcDbLayerTableRecord
2
0-0
70
64
62
  7
  6
CONTINUOUS
0
LAYER
5
de9
100
AcDbSymbolTableRecord
100
AcDbLayerTableRecord
2
0-1
70
64
62
  7
  6
CONTINUOUS
0
LAYER
5
dea
100
AcDbSymbolTableRecord
100
AcDbLayerTableRecord
2
0-2
70
64
62
  7
  6
CONTINUOUS
0
LAYER
5
deb
100
AcDbSymbolTableRecord
100
AcDbLayerTableRecord
2
ADD_LINE
70
64
62
  -7
  6
CONTINUOUS
0
ENDTAB
0
ENDSEC
0
SECTION
2
ENTITIES
0
LINE
5
dec
8
0-0
6
CONTINUOUS
62
  7
10
478.378
20
1013.243
30
0.0
11
478.378
21
973.243
31
0.0
0
LINE
5
ded
8
0-0
6
CONTINUOUS
62
  7
10
506.378
20
1013.243
30
0.0
11
506.378
21
973.243
31
0.0
0
LINE
5
dee
8
0-0
6
CONTINUOUS
62
  7
10
478.378
20
1013.243
30
0.0
11
733.378
21
1013.243
31
0.0
0
LINE
5
def
8
0-0
6
CONTINUOUS
62
  7
10
478.378
20
973.243
30
0.0
11
733.378
21
973.243
31
0.0
0
LINE
5
df0
8
0-0
6
CONTINUOUS
62
  7
10
733.378
20
1078.743
30
0.0
11
733.378
21
907.743
31
0.0
0
LINE
5
df1
8
0-0
6
CONTINUOUS
62
  7
10
740.378
20
1078.743
30
0.0
11
740.378
21
907.743
31
0.0
0
LINE
5
df2
8
0-0
6
CONTINUOUS
62
  7
10
751.378
20
1078.743
30
0.0
11
733.378
21
1078.743
31
0.0
0
LINE
5
df3
8
0-0
6
CONTINUOUS
62
  7
10
756.378
20
1061.743
30
0.0
11
756.378
21
1073.743
31
0.0
0
LINE
5
df4
8
0-0
6
CONTINUOUS
62
  7
10
751.378
20
907.743
30
0.0
11
733.378
21
907.743
31
0.0
0
LINE
5
df5
8
0-0
6
CONTINUOUS
62
  7
10
756.378
20
924.743
30
0.0
11
756.378
21
912.743
31
0.0
0
LINE
5
df6
8
0-0
6
CONTINUOUS
62
  7
10
751.378
20
929.743
30
0.0
11
740.378
21
929.743
31
0.0
0
LINE
5
df7
8
0-0
6
CONTINUOUS
62
  7
10
751.378
20
1056.743
30
0.0
11
740.378
21
1056.743
31
0.0
0
LINE
5
df8
8
0-0
6
CONTINUOUS
62
  7
10
733.378
20
998.243
30
0.0
11
693.378
21
998.243
31
0.0
0
LINE
5
df9
8
0-0
6
CONTINUOUS
62
  7
10
733.378
20
988.243
30
0.0
11
693.378
21
988.243
31
0.0
0
LINE
5
dfa
8
0-0
6
CONTINUOUS
62
  7
10
745.378
20
960.243
30
0.0
11
740.378
21
957.243
31
0.0
0
LINE
5
dfb
8
0-0
6
CONTINUOUS
62
  7
10
740.378
20
1029.243
30
0.0
11
745.378
21
1026.243
31
0.0
0
LINE
5
dfc
8
0-0
6
CONTINUOUS
62
  7
10
745.378
20
1026.243
30
0.0
11
745.378
21
960.243
31
0.0
0
LINE
5
dfd
8
0-0
6
CONTINUOUS
62
  7
10
693.378
20
692.595
30
0.0
11
731.145
21
692.595
31
0.0
0
LINE
5
dfe
8
0-0
6
CONTINUOUS
62
  7
10
506.378
20
684.595
30
0.0
11
728.378
21
684.595
31
0.0
0
LINE
5
dff
8
0-0
6
CONTINUOUS
62
  7
10
506.378
20
689.595
30
0.0
11
728.378
21
689.595
31
0.0
0
LINE
5
e00
8
0-0
6
CONTINUOUS
62
  7
10
733.378
20
729.595
30
0.0
11
733.378
21
679.468
31
0.0
0
LINE
5
e01
8
0-0
6
CONTINUOUS
62
  7
10
740.378
20
684.595
30
0.0
11
745.378
21
684.595
31
0.0
0
LINE
5
e02
8
0-0
6
CONTINUOUS
62
  7
10
745.378
20
684.595
30
0.0
11
745.378
21
676.361
31
0.0
0
LINE
5
e03
8
0-0
6
CONTINUOUS
62
  7
10
740.378
20
675.595
30
0.0
11
745.378
21
676.361
31
0.0
0
LINE
5
e04
8
0-0
6
CONTINUOUS
62
  7
10
739.653
20
727.802
30
0.0
11
733.378
21
729.595
31
0.0
0
LINE
5
e05
8
0-0
6
CONTINUOUS
62
  7
10
739.637
20
677.793
30
0.0
11
733.378
21
679.468
31
0.0
0
LINE
5
e06
8
0-0
6
CONTINUOUS
62
  7
10
740.378
20
676.827
30
0.0
11
740.378
21
726.840
31
0.0
0
LINE
5
e07
8
0-0
6
CONTINUOUS
62
  7
10
740.378
20
676.827
30
0.0
11
740.378
21
660.095
31
0.0
0
LINE
5
e08
8
0-0
6
CONTINUOUS
62
  7
10
740.378
20
660.095
30
0.0
11
756.378
21
660.095
31
0.0
0
LINE
5
e09
8
0-0
6
CONTINUOUS
62
  7
10
739.878
20
659.595
30
0.0
11
756.378
21
659.595
31
0.0
0
LINE
5
e0a
8
0-0
6
CONTINUOUS
62
  7
10
739.878
20
676.827
30
0.0
11
739.878
21
659.595
31
0.0
0
LINE
5
e0b
8
0-0
6
CONTINUOUS
62
  7
10
756.378
20
660.095
30
0.0
11
756.378
21
659.595
31
0.0
0
LINE
5
e0c
8
0-0
6
CONTINUOUS
62
  7
10
478.378
20
645.095
30
0.0
11
478.378
21
644.595
31
0.0
0
LINE
5
e0d
8
0-0
6
CONTINUOUS
62
  7
10
478.378
20
644.595
30
0.0
11
506.878
21
644.595
31
0.0
0
LINE
5
e0e
8
0-0
6
CONTINUOUS
62
  7
10
478.378
20
645.095
30
0.0
11
506.378
21
645.095
31
0.0
0
LINE
5
e0f
8
0-0
6
CONTINUOUS
62
  7
10
506.378
20
689.595
30
0.0
11
506.378
21
645.095
31
0.0
0
LINE
5
e10
8
0-0
6
CONTINUOUS
62
  7
10
506.878
20
684.595
30
0.0
11
506.878
21
644.595
31
0.0
0
LINE
5
e11
8
0-0
6
CONTINUOUS
62
  7
10
739.878
20
676.827
30
0.0
11
739.878
21
677.693
31
0.0
0
LINE
5
e12
8
0-0
6
CONTINUOUS
62
  7
10
1004.054
20
1038.243
30
0.0
11
1034.054
21
1078.743
31
0.0
0
LINE
5
e13
8
0-0
6
CONTINUOUS
62
  7
10
1004.054
20
948.243
30
0.0
11
1034.054
21
907.743
31
0.0
0
LINE
5
e14
8
0-0
6
CONTINUOUS
62
  7
10
1039.054
20
1030.148
30
0.0
11
1037.054
21
1026.254
31
0.0
0
LINE
5
e15
8
0-0
6
CONTINUOUS
62
  7
10
1037.054
20
960.266
30
0.0
11
1039.054
21
956.372
31
0.0
0
LINE
5
e16
8
0-0
6
CONTINUOUS
62
  7
10
1034.054
20
1078.743
30
0.0
11
1054.054
21
1078.743
31
0.0
0
LINE
5
e17
8
0-0
6
CONTINUOUS
62
  7
10
1052.054
20
1056.743
30
0.0
11
1054.054
21
1056.743
31
0.0
0
LINE
5
e18
8
0-0
6
CONTINUOUS
62
  7
10
1052.054
20
929.743
30
0.0
11
1054.054
21
929.743
31
0.0
0
LINE
5
e19
8
0-0
6
CONTINUOUS
62
  7
10
1053.554
20
1078.743
30
0.0
11
1053.554
21
1056.743
31
0.0
0
LINE
5
e1a
8
0-0
6
CONTINUOUS
62
  7
10
1054.054
20
1078.743
30
0.0
11
1054.054
21
1056.743
31
0.0
0
LINE
5
e1b
8
0-0
6
CONTINUOUS
62
  7
10
1034.054
20
907.743
30
0.0
11
1054.054
21
907.743
31
0.0
0
LINE
5
e1c
8
0-0
6
CONTINUOUS
62
  7
10
1054.054
20
929.743
30
0.0
11
1054.054
21
907.743
31
0.0
0
LINE
5
e1d
8
0-0
6
CONTINUOUS
62
  7
10
1053.554
20
929.743
30
0.0
11
1053.554
21
907.743
31
0.0
0
LINE
5
e1e
8
0-0
6
CONTINUOUS
62
  7
10
1052.054
20
1056.743
30
0.0
11
1052.054
21
1041.743
31
0.0
0
LINE
5
e1f
8
0-0
6
CONTINUOUS
62
  7
10
1052.054
20
944.743
30
0.0
11
1052.054
21
929.743
31
0.0
0
LINE
5
e20
8
ADD_LINE
6
HIDDEN
62
  3
10
405.405
20
993.243
30
0.0
11
1127.027
21
993.243
31
0.0
0
LINE
5
e21
8
ADD_LINE
6
HIDDEN
62
  3
10
506.378
20
689.595
30
0.0
11
506.378
21
695.031
31
0.0
0
LINE
5
e22
8
ADD_LINE
6
HIDDEN
62
  3
10
506.378
20
689.595
30
0.0
11
501.369
21
689.595
31
0.0
0
LINE
5
e23
8
0-2
6
CONTINUOUS
62
  7
10
478.378
20
1191.892
30
0.0
11
733.378
21
1191.892
31
0.0
0
LINE
5
e24
8
0-2
6
CONTINUOUS
62
  7
10
478.378
20
1122.973
30
0.0
11
478.378
21
1191.892
31
0.0
0
LINE
5
e25
8
0-2
6
CONTINUOUS
62
  7
10
733.378
20
1122.973
30
0.0
11
733.378
21
1191.892
31
0.0
0
LINE
5
e26
8
0-2
6
CONTINUOUS
62
  7
10
733.378
20
1191.892
30
0.0
11
756.378
21
1191.892
31
0.0
0
LINE
5
e27
8
0-2
6
CONTINUOUS
62
  7
10
756.378
20
1122.973
30
0.0
11
756.378
21
1191.892
31
0.0
0
LINE
5
e28
8
0-2
6
CONTINUOUS
62
  7
10
984.054
20
1191.892
30
0.0
11
1054.054
21
1191.892
31
0.0
0
LINE
5
e29
8
0-2
6
CONTINUOUS
62
  7
10
984.054
20
1122.973
30
0.0
11
984.054
21
1191.892
31
0.0
0
LINE
5
e2a
8
0-2
6
CONTINUOUS
62
  7
10
1054.054
20
1122.973
30
0.0
11
1054.054
21
1191.892
31
0.0
0
LINE
5
e2b
8
0-2
6
CONTINUOUS
62
  7
10
1034.054
20
1164.707
30
0.0
11
1054.054
21
1164.707
31
0.0
0
LINE
5
e2c
8
0-2
6
CONTINUOUS
62
  7
10
1034.054
20
1122.973
30
0.0
11
1034.054
21
1164.707
31
0.0
0
LINE
5
e2d
8
0-2
6
CONTINUOUS
62
  7
10
1054.054
20
1122.973
30
0.0
11
1054.054
21
1164.707
31
0.0
0
LINE
5
e2e
8
0-2
6
CONTINUOUS
62
  7
10
478.378
20
806.757
30
0.0
11
506.378
21
806.757
31
0.0
0
LINE
5
e2f
8
0-2
6
CONTINUOUS
62
  7
10
478.378
20
741.892
30
0.0
11
478.378
21
806.757
31
0.0
0
LINE
5
e30
8
0-2
6
CONTINUOUS
62
  7
10
506.378
20
741.892
30
0.0
11
506.378
21
806.757
31
0.0
0
LINE
5
e31
8
0-2
6
CONTINUOUS
62
  7
10
506.378
20
806.757
30
0.0
11
733.378
21
806.757
31
0.0
0
LINE
5
e32
8
0-2
6
CONTINUOUS
62
  7
10
733.378
20
741.892
30
0.0
11
733.378
21
806.757
31
0.0
0
LINE
5
e33
8
0-2
6
CONTINUOUS
62
  7
10
336.487
20
1013.243
30
0.0
11
336.487
21
973.243
31
0.0
0
LINE
5
e34
8
0-2
6
CONTINUOUS
62
  7
10
425.676
20
1013.243
30
0.0
11
336.487
21
1013.243
31
0.0
0
LINE
5
e35
8
0-2
6
CONTINUOUS
62
  7
10
425.676
20
973.243
30
0.0
11
336.487
21
973.243
31
0.0
0
LINE
5
e36
8
0-2
6
CONTINUOUS
62
  7
10
336.487
20
689.595
30
0.0
11
336.487
21
644.595
31
0.0
0
LINE
5
e37
8
0-2
6
CONTINUOUS
62
  7
10
425.676
20
689.595
30
0.0
11
336.487
21
689.595
31
0.0
0
LINE
5
e38
8
0-2
6
CONTINUOUS
62
  7
10
425.676
20
644.595
30
0.0
11
336.487
21
644.595
31
0.0
0
LINE
5
e39
8
0-2
6
CONTINUOUS
62
  7
10
872.412
20
1078.743
30
0.0
11
872.412
21
907.743
31
0.0
0
LINE
5
e3a
8
0-2
6
CONTINUOUS
62
  7
10
784.405
20
1078.743
30
0.0
11
872.412
21
1078.743
31
0.0
0
LINE
5
e3b
8
0-2
6
CONTINUOUS
62
  7
10
784.405
20
907.743
30
0.0
11
872.412
21
907.743
31
0.0
0
LINE
5
e3c
8
0-2
6
CONTINUOUS
62
  7
10
872.412
20
729.595
30
0.0
11
872.412
21
659.595
31
0.0
0
LINE
5
e3d
8
0-2
6
CONTINUOUS
62
  7
10
784.405
20
729.595
30
0.0
11
872.412
21
729.595
31
0.0
0
LINE
5
e3e
8
0-2
6
CONTINUOUS
62
  7
10
784.405
20
659.595
30
0.0
11
872.412
21
659.595
31
0.0
0
ARC
5
e3f
8
0-0
6
CONTINUOUS
62
  7
10
751.378
20
1073.743
30
0.0
40
5.000
50
0.000000
51
90.000000
0
ARC
5
e40
8
0-0
6
CONTINUOUS
62
  7
10
751.378
20
1061.743
30
0.0
40
5.000
50
270.000000
51
0.000000
0
ARC
5
e41
8
0-0
6
CONTINUOUS
62
  7
10
751.378
20
912.743
30
0.0
40
5.000
50
270.000000
51
0.000000
0
ARC
5
e42
8
0-0
6
CONTINUOUS
62
  7
10
751.378
20
924.743
30
0.0
40
5.000
50
0.000000
51
90.000000
0
CIRCLE
5
e43
8
0-0
6
CONTINUOUS
62
  7
10
493.378
20
1005.243
30
0.0
40
3.000
0
CIRCLE
5
e44
8
0-0
6
CONTINUOUS
62
  7
10
493.378
20
981.243
30
0.0
40
3.000
0
ARC
5
e45
8
0-0
6
CONTINUOUS
62
  7
10
693.378
20
993.243
30
0.0
40
5.000
50
90.000000
51
270.000000
0
CIRCLE
5
e46
8
0-0
6
CONTINUOUS
62
  7
10
528.378
20
993.243
30
0.0
40
3.000
0
ARC
5
e47
8
0-0
6
CONTINUOUS
62
  7
10
694.918
20
684.362
30
0.0
40
8.376
50
100.593369
51
141.334641
0
ARC
5
e48
8
0-0
6
CONTINUOUS
62
  7
10
729.154
20
703.873
30
0.0
40
11.453
50
280.010223
51
291.642212
0
ARC
5
e49
8
0-0
6
CONTINUOUS
62
  7
10
729.201
20
700.772
30
0.0
40
11.207
50
265.789825
51
291.883331
0
ARC
5
e4a
8
0-0
6
CONTINUOUS
62
  7
10
727.344
20
697.629
30
0.0
40
13.075
50
274.537537
51
297.484589
0
ARC
5
e4b
8
0-0
6
CONTINUOUS
62
  7
10
739.378
20
726.840
30
0.0
40
1.000
50
0.000000
51
74.055084
0
ARC
5
e4c
8
0-0
6
CONTINUOUS
62
  7
10
739.378
20
676.827
30
0.0
40
1.000
50
0.000000
51
75.014709
0
ARC
5
e4d
8
0-0
6
CONTINUOUS
62
  7
10
1044.679
20
993.243
30
0.0
40
60.625
50
132.075073
51
227.924927
0
ARC
5
e4e
8
0-0
6
CONTINUOUS
62
  7
10
1063.073
20
993.260
30
0.0
40
44.018
50
123.068832
51
236.931137
0
ARC
5
e4f
8
0-0
6
CONTINUOUS
62
  7
10
1033.023
20
936.549
30
0.0
40
20.720
50
23.295486
51
73.078827
0
ARC
5
e50
8
0-0
6
CONTINUOUS
62
  7
10
1063.073
20
993.260
30
0.0
40
42.018
50
128.258942
51
231.741058
0
ARC
5
e51
8
0-0
6
CONTINUOUS
62
  7
10
1032.844
20
1050.196
30
0.0
40
20.987
50
287.211182
51
336.250183
0
CIRCLE
5
e52
8
0-0
6
CONTINUOUS
62
  7
10
1002.054
20
1005.743
30
0.0
40
4.500
0
CIRCLE
5
e53
8
0-0
6
CONTINUOUS
62
  7
10
1002.054
20
980.743
30
0.0
40
4.500
0
CIRCLE
5
e54
8
ADD_LINE
6
HIDDEN
62
  3
10
506.378
20
689.595
30
0.0
40
3.000
0
CIRCLE
5
e55
8
ADD_LINE
6
HIDDEN
62
  3
10
506.378
20
993.243
30
0.0
40
3.000
0
TEXT
5
e56
100
AcDbEntity
8
0-2
62
7
100
AcDbText
10
596.503
20
1194.392
30
0.0
40
9.750
41
0.800
50
0.000
1
255
100
AcDbText
0
TEXT
5
e57
100
AcDbEntity
8
0-2
62
7
100
AcDbText
10
738.628
20
1194.392
30
0.0
40
9.750
41
0.800
50
0.000
1
23
100
AcDbText
0
TEXT
5
e58
100
AcDbEntity
8
0-2
62
7
100
AcDbText
10
1012.804
20
1194.392
30
0.0
40
9.750
41
0.800
50
0.000
1
70
100
AcDbText
0
TEXT
5
e59
100
AcDbEntity
8
0-2
62
7
100
AcDbText
10
1037.804
20
1167.207
30
0.0
40
9.750
41
0.800
50
0.000
1
20
100
AcDbText
0
TEXT
5
e5a
100
AcDbEntity
8
0-2
62
7
100
AcDbText
10
486.128
20
809.257
30
0.0
40
9.750
41
0.800
50
0.000
1
28
100
AcDbText
0
TEXT
5
e5b
100
AcDbEntity
8
0-2
62
7
100
AcDbText
10
610.503
20
809.257
30
0.0
40
9.750
41
0.800
50
0.000
1
227
100
AcDbText
0
TEXT
5
e5c
100
AcDbEntity
8
0-2
62
7
100
AcDbText
10
333.986
20
986.993
30
0.0
40
9.750
41
0.800
50
90.000
1
40
100
AcDbText
0
TEXT
5
e5d
100
AcDbEntity
8
0-2
62
7
100
AcDbText
10
333.986
20
660.845
30
0.0
40
9.750
41
0.800
50
90.000
1
45
100
AcDbText
0
TEXT
5
e5e
100
AcDbEntity
8
0-2
62
7
100
AcDbText
10
869.912
20
983.868
30
0.0
40
9.750
41
0.800
50
90.000
1
171
100
AcDbText
0
TEXT
5
e5f
100
AcDbEntity
8
0-2
62
7
100
AcDbText
10
869.912
20
688.345
30
0.0
40
9.750
41
0.800
50
90.000
1
70
100
AcDbText
0
POINT
5
e60
8
0-2
62
  7
10
478.378
20
1191.892
30
0.0
0
POINT
5
e61
8
0-2
62
  7
10
733.378
20
1191.892
30
0.0
0
POINT
5
e62
8
0-2
62
  7
10
756.378
20
1191.892
30
0.0
0
POINT
5
e63
8
0-2
62
  7
10
984.054
20
1191.892
30
0.0
0
POINT
5
e64
8
0-2
62
  7
10
1054.054
20
1191.892
30
0.0
0
POINT
5
e65
8
0-2
62
  7
10
1034.054
20
1164.707
30
0.0
0
POINT
5
e66
8
0-2
62
  7
10
1054.054
20
1164.707
30
0.0
0
POINT
5
e67
8
0-2
62
  7
10
478.378
20
806.757
30
0.0
0
POINT
5
e68
8
0-2
62
  7
10
506.378
20
806.757
30
0.0
0
POINT
5
e69
8
0-2
62
  7
10
733.378
20
806.757
30
0.0
0
POINT
5
e6a
8
0-2
62
  7
10
336.487
20
1013.243
30
0.0
0
POINT
5
e6b
8
0-2
62
  7
10
336.487
20
973.243
30
0.0
0
POINT
5
e6c
8
0-2
62
  7
10
336.487
20
689.595
30
0.0
0
POINT
5
e6d
8
0-2
62
  7
10
336.487
20
644.595
30
0.0
0
POINT
5
e6e
8
0-2
62
  7
10
872.412
20
1078.743
30
0.0
0
POINT
5
e6f
8
0-2
62
  7
10
872.412
20
907.743
30
0.0
0
POINT
5
e70
8
0-2
62
  7
10
872.412
20
729.595
30
0.0
0
POINT
5
e71
8
0-2
62
  7
10
872.412
20
659.595
30
0.0
0
ENDSEC
0
EOF
