0
SECTION
2
HEADER
  9
$EXTMIN
10
0
20
0
30
0
  9
$EXTMAX
10
2659.772
20
1332.230
30
0
  9
$LTSCALE
40
5.000
  9
$DIMSCALE
40
5.000
  9
$PDMODE
70
0
  9
$PDSIZE
40
40
0
ENDSEC
0
SECTION
2
TABLES
0
TABLE
2
LTYPE
70
9
0
LTYPE
5
1f4
2
CONTINUOUS
70
0
3
実線
72
65
73
0
40
0.0
0
LTYPE
5
1f5
2
DOT
70
0
3
--  --  --  --  --  --  --  --     
72
65
73
2
40
5.000
49
1.000
49
-4.000
0
LTYPE
5
1f6
2
DASHED
70
0
3
----    ----    ----    ----    
72
65
73
2
40
5.000
49
2.000
49
-3.000
0
LTYPE
5
1f7
2
DASHED2
70
0
3
------  ------  ------  ------ 
72
65
73
2
40
10.000
49
4.000
49
-6.000
0
LTYPE
5
1f8
2
CENTER
70
0
3
----- - ----- - ----- - ----- - 
72
65
73
4
40
9.000
49
6.000
49
-1.000
49
1.000
49
-1.000
0
LTYPE
5
1f9
2
CENTER2
70
0
3
----------  --  ----------  -- 
72
65
73
4
40
18.000
49
12.000
49
-2.000
49
2.000
49
-2.000
0
LTYPE
5
1fa
2
PHANTOM
70
0
3
--- - - --- - - --- - - --- - -
72
65
73
6
40
10.000
49
5.000
49
-1.000
49
1.000
49
-1.000
49
1.000
49
-1.000
0
LTYPE
5
1fb
2
PHANTOM2
70
0
3
--------  -  -  --------  -  -
72
65
73
6
40
16.000
49
6.000
49
-2.000
49
2.000
49
-2.000
49
2.000
49
-2.000
0
LTYPE
5
1fc
2
HIDDEN
70
0
3
-   -   -   -   -   -   -   -   
72
65
73
2
40
2.500
49
0.500
49
-2.000
0
ENDTAB
0
TABLE
2
STYLE
70
1
0
STYLE
5
1fd
100
AcDbSymbolTableRecord
100
AcDbTextStyleTableRecord
2
STANDARD
70
0
40
0.0
41
1.0
50
0.0
71
0
42
0.0
3
txt.shx
4
extfont.shx
0
STYLE
5
1fe
100
AcDbSymbolTableRecord
100
AcDbTextStyleTableRecord
2
TATEGAKI
70
4
40
0.0
41
1.0
50
0.0
71
0
42
0.0
3
txt.shx
4
extfont.shx
0
STYLE
5
1ff
100
AcDbSymbolTableRecord
100
AcDbTextStyleTableRecord
2
MT
70
0
40
0.0
41
1.0
50
0.0
71
0
42
0.0
3
MS Mincho
4

0
STYLE
5
200
100
AcDbSymbolTableRecord
100
AcDbTextStyleTableRecord
2
TMT
70
4
40
0.0
41
1.0
50
0.0
71
0
42
0.0
3
@MS Mincho
4

0
ENDTAB
0
TABLE
2
LAYER
5
27261
100
AcDbSymbolTable
70
10
0
LAYER
5
27262
100
AcDbSymbolTableRecord
100
AcDbLayerTableRecord
2
0
70
64
62
  7
  6
CONTINUOUS
0
LAYER
5
27263
100
AcDbSymbolTableRecord
100
AcDbLayerTableRecord
2
0-0
70
64
62
  7
  6
CONTINUOUS
0
LAYER
5
27264
100
AcDbSymbolTableRecord
100
AcDbLayerTableRecord
2
0-1
70
64
62
  7
  6
CONTINUOUS
0
LAYER
5
27265
100
AcDbSymbolTableRecord
100
AcDbLayerTableRecord
2
0-2
70
64
62
  7
  6
CONTINUOUS
0
LAYER
5
27266
100
AcDbSymbolTableRecord
100
AcDbLayerTableRecord
2
ADD_LINE
70
64
62
  -7
  6
CONTINUOUS
0
ENDTAB
0
ENDSEC
0
SECTION
2
ENTITIES
0
LINE
5
27267
8
0-0
6
CONTINUOUS
62
  7
10
1341.000
20
866.608
30
0.0
11
1347.833
21
848.869
31
0.0
0
LINE
5
27268
8
0-0
6
CONTINUOUS
62
  7
10
1347.833
20
1067.617
30
0.0
11
1341.000
21
1049.879
31
0.0
0
LINE
5
27269
8
ADD_LINE
6
HIDDEN
62
  3
10
1220.270
20
958.243
30
0.0
11
239.189
21
958.243
31
0.0
0
LINE
5
2726a
8
0-0
6
CONTINUOUS
62
  7
10
710.135
20
1068.243
30
0.0
11
950.135
21
1070.743
31
0.0
0
LINE
5
2726b
8
0-0
6
CONTINUOUS
62
  7
10
710.135
20
848.243
30
0.0
11
950.135
21
845.743
31
0.0
0
LINE
5
2726c
8
0-0
6
CONTINUOUS
62
  7
10
1000.135
20
1078.243
30
0.0
11
1000.135
21
838.243
31
0.0
0
LINE
5
2726d
8
0-0
6
CONTINUOUS
62
  7
10
950.135
20
1070.743
30
0.0
11
950.135
21
845.743
31
0.0
0
LINE
5
2726e
8
0-0
6
CONTINUOUS
62
  7
10
710.135
20
1068.243
30
0.0
11
710.135
21
848.243
31
0.0
0
LINE
5
2726f
8
ADD_LINE
6
HIDDEN
62
  3
10
320.270
20
1281.081
30
0.0
11
320.270
21
652.703
31
0.0
0
LINE
5
27270
8
ADD_LINE
6
HIDDEN
62
  3
10
239.189
20
958.243
30
0.0
11
81.081
21
958.243
31
0.0
0
LINE
5
27271
8
0-0
6
CONTINUOUS
62
  7
10
728.135
20
502.946
30
0.0
11
728.135
21
380.946
31
0.0
0
LINE
5
27272
8
0-0
6
CONTINUOUS
62
  7
10
710.135
20
380.946
30
0.0
11
728.135
21
380.946
31
0.0
0
LINE
5
27273
8
0-0
6
CONTINUOUS
62
  7
10
710.135
20
600.946
30
0.0
11
710.135
21
380.946
31
0.0
0
LINE
5
27274
8
0-0
6
CONTINUOUS
62
  7
10
724.486
20
380.946
30
0.0
11
728.135
21
380.946
31
0.0
0
LINE
5
27275
8
0-0
6
CONTINUOUS
62
  7
10
950.135
20
595.946
30
0.0
11
950.135
21
502.946
31
0.0
0
LINE
5
27276
8
0-0
6
CONTINUOUS
62
  7
10
1000.135
20
595.946
30
0.0
11
1000.135
21
502.946
31
0.0
0
LINE
5
27277
8
0-0
6
CONTINUOUS
62
  7
10
728.135
20
502.946
30
0.0
11
950.135
21
502.946
31
0.0
0
LINE
5
27278
8
0-0
6
CONTINUOUS
62
  7
10
725.135
20
595.946
30
0.0
11
950.135
21
595.946
31
0.0
0
LINE
5
27279
8
ADD_LINE
6
HIDDEN
62
  3
10
1220.270
20
958.243
30
0.0
11
1537.574
21
958.243
31
0.0
0
LINE
5
2727a
8
ADD_LINE
6
HIDDEN
62
  3
10
1354.465
20
821.243
30
0.0
11
1354.465
21
1095.243
31
0.0
0
LINE
5
2727b
8
0-0
6
CONTINUOUS
62
  7
10
1354.465
20
1095.243
30
0.0
11
1347.833
21
1067.617
31
0.0
0
LINE
5
2727c
8
0-0
6
CONTINUOUS
62
  7
10
1347.833
20
848.869
30
0.0
11
1354.465
21
821.243
31
0.0
0
LINE
5
2727d
8
0-2
6
CONTINUOUS
62
  7
10
210.270
20
1329.730
30
0.0
11
430.270
21
1329.730
31
0.0
0
LINE
5
2727e
8
0-2
6
CONTINUOUS
62
  7
10
210.270
20
1151.351
30
0.0
11
210.270
21
1329.730
31
0.0
0
LINE
5
2727f
8
0-2
6
CONTINUOUS
62
  7
10
430.270
20
1151.351
30
0.0
11
430.270
21
1329.730
31
0.0
0
LINE
5
27280
8
0-2
6
CONTINUOUS
62
  7
10
685.135
20
1329.730
30
0.0
11
1000.135
21
1329.730
31
0.0
0
LINE
5
27281
8
0-2
6
CONTINUOUS
62
  7
10
685.135
20
1151.351
30
0.0
11
685.135
21
1329.730
31
0.0
0
LINE
5
27282
8
0-2
6
CONTINUOUS
62
  7
10
1000.135
20
1151.351
30
0.0
11
1000.135
21
1329.730
31
0.0
0
LINE
5
27283
8
0-2
6
CONTINUOUS
62
  7
10
685.135
20
1256.757
30
0.0
11
710.135
21
1256.757
31
0.0
0
LINE
5
27284
8
0-2
6
CONTINUOUS
62
  7
10
685.135
20
1151.351
30
0.0
11
685.135
21
1256.757
31
0.0
0
LINE
5
27285
8
0-2
6
CONTINUOUS
62
  7
10
710.135
20
1151.351
30
0.0
11
710.135
21
1256.757
31
0.0
0
LINE
5
27286
8
0-2
6
CONTINUOUS
62
  7
10
710.135
20
1256.757
30
0.0
11
950.135
21
1256.757
31
0.0
0
LINE
5
27287
8
0-2
6
CONTINUOUS
62
  7
10
950.135
20
1151.351
30
0.0
11
950.135
21
1256.757
31
0.0
0
LINE
5
27288
8
0-2
6
CONTINUOUS
62
  7
10
950.135
20
1256.757
30
0.0
11
1000.135
21
1256.757
31
0.0
0
LINE
5
27289
8
0-2
6
CONTINUOUS
62
  7
10
1000.135
20
1151.351
30
0.0
11
1000.135
21
1256.757
31
0.0
0
LINE
5
2728a
8
0-2
6
CONTINUOUS
62
  7
10
685.135
20
227.027
30
0.0
11
710.135
21
227.027
31
0.0
0
LINE
5
2728b
8
0-2
6
CONTINUOUS
62
  7
10
685.135
20
320.270
30
0.0
11
685.135
21
227.027
31
0.0
0
LINE
5
2728c
8
0-2
6
CONTINUOUS
62
  7
10
710.135
20
320.270
30
0.0
11
710.135
21
227.027
31
0.0
0
LINE
5
2728d
8
0-2
6
CONTINUOUS
62
  7
10
710.135
20
227.027
30
0.0
11
728.135
21
227.027
31
0.0
0
LINE
5
2728e
8
0-2
6
CONTINUOUS
62
  7
10
728.135
20
320.270
30
0.0
11
728.135
21
227.027
31
0.0
0
LINE
5
2728f
8
0-2
6
CONTINUOUS
62
  7
10
728.135
20
227.027
30
0.0
11
950.135
21
227.027
31
0.0
0
LINE
5
27290
8
0-2
6
CONTINUOUS
62
  7
10
950.135
20
320.270
30
0.0
11
950.135
21
227.027
31
0.0
0
LINE
5
27291
8
0-2
6
CONTINUOUS
62
  7
10
950.135
20
227.027
30
0.0
11
1000.135
21
227.027
31
0.0
0
LINE
5
27292
8
0-2
6
CONTINUOUS
62
  7
10
1000.135
20
320.270
30
0.0
11
1000.135
21
227.027
31
0.0
0
LINE
5
27293
8
0-2
6
CONTINUOUS
62
  7
10
539.189
20
1068.243
30
0.0
11
539.189
21
848.243
31
0.0
0
LINE
5
27294
8
0-2
6
CONTINUOUS
62
  7
10
620.270
20
1068.243
30
0.0
11
539.189
21
1068.243
31
0.0
0
LINE
5
27295
8
0-2
6
CONTINUOUS
62
  7
10
620.270
20
848.243
30
0.0
11
539.189
21
848.243
31
0.0
0
LINE
5
27296
8
0-2
6
CONTINUOUS
62
  7
10
539.189
20
600.946
30
0.0
11
539.189
21
380.946
31
0.0
0
LINE
5
27297
8
0-2
6
CONTINUOUS
62
  7
10
620.270
20
600.946
30
0.0
11
539.189
21
600.946
31
0.0
0
LINE
5
27298
8
0-2
6
CONTINUOUS
62
  7
10
620.270
20
380.946
30
0.0
11
539.189
21
380.946
31
0.0
0
LINE
5
27299
8
0-2
6
CONTINUOUS
62
  7
10
1135.135
20
1095.243
30
0.0
11
1135.135
21
821.243
31
0.0
0
LINE
5
2729a
8
0-2
6
CONTINUOUS
62
  7
10
1041.892
20
1095.243
30
0.0
11
1135.135
21
1095.243
31
0.0
0
LINE
5
2729b
8
0-2
6
CONTINUOUS
62
  7
10
1041.892
20
821.243
30
0.0
11
1135.135
21
821.243
31
0.0
0
LINE
5
2729c
8
0-2
6
CONTINUOUS
62
  7
10
1135.135
20
615.946
30
0.0
11
1135.135
21
502.946
31
0.0
0
LINE
5
2729d
8
0-2
6
CONTINUOUS
62
  7
10
1041.892
20
615.946
30
0.0
11
1135.135
21
615.946
31
0.0
0
LINE
5
2729e
8
0-2
6
CONTINUOUS
62
  7
10
1041.892
20
502.946
30
0.0
11
1135.135
21
502.946
31
0.0
0
LINE
5
2729f
8
0-2
6
CONTINUOUS
62
  7
10
1135.135
20
502.946
30
0.0
11
1135.135
21
497.946
31
0.0
0
LINE
5
272a0
8
0-2
6
CONTINUOUS
62
  7
10
1041.892
20
497.946
30
0.0
11
1135.135
21
497.946
31
0.0
0
LINE
5
272a1
8
ADD_LINE
6
HIDDEN
62
  3
10
950.135
20
502.946
30
0.0
11
950.135
21
487.966
31
0.0
0
LINE
5
272a2
8
ADD_LINE
6
HIDDEN
62
  3
10
950.135
20
502.946
30
0.0
11
966.618
21
502.946
31
0.0
0
ARC
5
272a3
8
0-0
6
CONTINUOUS
62
  7
10
1374.602
20
958.243
30
0.0
40
97.602
50
470.137695
51
249.862350
0
ARC
5
272a4
8
0-0
6
CONTINUOUS
62
  7
10
1374.602
20
958.243
30
0.0
40
112.602
50
463.752838
51
256.247192
0
ARC
5
272a5
8
0-0
6
CONTINUOUS
62
  7
10
1374.602
20
958.243
30
0.0
40
120.602
50
461.811768
51
258.188263
0
ARC
5
272a6
8
0-0
6
CONTINUOUS
62
  7
10
939.635
20
958.243
30
0.0
40
254.500
50
154.391449
51
205.608551
0
ARC
5
272a7
8
0-0
6
CONTINUOUS
62
  7
10
975.889
20
1069.469
30
0.0
40
25.785
50
19.893784
51
177.167801
0
ARC
5
272a8
8
0-0
6
CONTINUOUS
62
  7
10
975.889
20
847.017
30
0.0
40
25.785
50
182.832199
51
340.106201
0
CIRCLE
5
272a9
8
0-0
6
CONTINUOUS
62
  7
10
320.270
20
958.243
30
0.0
40
110.000
0
ARC
5
272aa
8
0-0
6
CONTINUOUS
62
  7
10
939.635
20
490.946
30
0.0
40
254.500
50
154.391449
51
205.608551
0
ARC
5
272ab
8
0-0
6
CONTINUOUS
62
  7
10
727.504
20
628.051
30
0.0
40
32.192
50
237.349121
51
265.780884
0
ARC
5
272ac
8
0-0
6
CONTINUOUS
62
  7
10
975.135
20
590.321
30
0.0
40
25.625
50
12.680344
51
167.319626
0
ARC
5
272ad
8
0-0
6
CONTINUOUS
62
  7
10
975.135
20
562.946
30
0.0
40
65.000
50
247.380219
51
292.619843
0
ARC
5
272ae
8
0-0
6
CONTINUOUS
62
  7
10
1372.135
20
958.243
30
0.0
40
138.135
50
97.349289
51
262.650696
0
CIRCLE
5
272af
8
ADD_LINE
6
HIDDEN
62
  3
10
710.135
20
958.243
30
0.0
40
3.000
0
CIRCLE
5
272b0
8
ADD_LINE
6
HIDDEN
62
  3
10
950.135
20
502.946
30
0.0
40
3.000
0
TEXT
5
272b1
100
AcDbEntity
8
0-2
62
7
100
AcDbText
10
310.895
20
1332.230
30
0.0
40
9.750
41
0.800
50
0.000
1
220
100
AcDbText
0
TEXT
5
272b2
100
AcDbEntity
8
0-2
62
7
100
AcDbText
10
833.260
20
1332.230
30
0.0
40
9.750
41
0.800
50
0.000
1
315
100
AcDbText
0
TEXT
5
272b3
100
AcDbEntity
8
0-2
62
7
100
AcDbText
10
691.385
20
1259.257
30
0.0
40
9.750
41
0.800
50
0.000
1
25
100
AcDbText
0
TEXT
5
272b4
100
AcDbEntity
8
0-2
62
7
100
AcDbText
10
820.760
20
1259.257
30
0.0
40
9.750
41
0.800
50
0.000
1
240
100
AcDbText
0
TEXT
5
272b5
100
AcDbEntity
8
0-2
62
7
100
AcDbText
10
968.885
20
1259.257
30
0.0
40
9.750
41
0.800
50
0.000
1
50
100
AcDbText
0
TEXT
5
272b6
100
AcDbEntity
8
0-2
62
7
100
AcDbText
10
691.385
20
229.527
30
0.0
40
9.750
41
0.800
50
0.000
1
25
100
AcDbText
0
TEXT
5
272b7
100
AcDbEntity
8
0-2
62
7
100
AcDbText
10
712.885
20
229.527
30
0.0
40
9.750
41
0.800
50
0.000
1
18
100
AcDbText
0
TEXT
5
272b8
100
AcDbEntity
8
0-2
62
7
100
AcDbText
10
829.760
20
229.527
30
0.0
40
9.750
41
0.800
50
0.000
1
222
100
AcDbText
0
TEXT
5
272b9
100
AcDbEntity
8
0-2
62
7
100
AcDbText
10
968.885
20
229.527
30
0.0
40
9.750
41
0.800
50
0.000
1
50
100
AcDbText
0
TEXT
5
272ba
100
AcDbEntity
8
0-2
62
7
100
AcDbText
10
536.689
20
948.868
30
0.0
40
9.750
41
0.800
50
90.000
1
220
100
AcDbText
0
TEXT
5
272bb
100
AcDbEntity
8
0-2
62
7
100
AcDbText
10
536.689
20
481.571
30
0.0
40
9.750
41
0.800
50
90.000
1
220
100
AcDbText
0
TEXT
5
272bc
100
AcDbEntity
8
0-2
62
7
100
AcDbText
10
1132.635
20
948.868
30
0.0
40
9.750
41
0.800
50
90.000
1
274
100
AcDbText
0
TEXT
5
272bd
100
AcDbEntity
8
0-2
62
7
100
AcDbText
10
1132.635
20
550.071
30
0.0
40
9.750
41
0.800
50
90.000
1
113
100
AcDbText
0
TEXT
5
272be
100
AcDbEntity
8
0-2
62
7
100
AcDbText
10
1133.923
20
488.306
30
0.0
40
9.750
41
0.800
50
90.000
1
5
100
AcDbText
0
POINT
5
272bf
8
0-2
62
  7
10
210.270
20
1329.730
30
0.0
0
POINT
5
272c0
8
0-2
62
  7
10
430.270
20
1329.730
30
0.0
0
POINT
5
272c1
8
0-2
62
  7
10
685.135
20
1329.730
30
0.0
0
POINT
5
272c2
8
0-2
62
  7
10
1000.135
20
1329.730
30
0.0
0
POINT
5
272c3
8
0-2
62
  7
10
685.135
20
1256.757
30
0.0
0
POINT
5
272c4
8
0-2
62
  7
10
710.135
20
1256.757
30
0.0
0
POINT
5
272c5
8
0-2
62
  7
10
950.135
20
1256.757
30
0.0
0
POINT
5
272c6
8
0-2
62
  7
10
1000.135
20
1256.757
30
0.0
0
POINT
5
272c7
8
0-2
62
  7
10
685.135
20
227.027
30
0.0
0
POINT
5
272c8
8
0-2
62
  7
10
710.135
20
227.027
30
0.0
0
POINT
5
272c9
8
0-2
62
  7
10
728.135
20
227.027
30
0.0
0
POINT
5
272ca
8
0-2
62
  7
10
950.135
20
227.027
30
0.0
0
POINT
5
272cb
8
0-2
62
  7
10
1000.135
20
227.027
30
0.0
0
POINT
5
272cc
8
0-2
62
  7
10
539.189
20
1068.243
30
0.0
0
POINT
5
272cd
8
0-2
62
  7
10
539.189
20
848.243
30
0.0
0
POINT
5
272ce
8
0-2
62
  7
10
539.189
20
600.946
30
0.0
0
POINT
5
272cf
8
0-2
62
  7
10
539.189
20
380.946
30
0.0
0
POINT
5
272d0
8
0-2
62
  7
10
1135.135
20
1095.243
30
0.0
0
POINT
5
272d1
8
0-2
62
  7
10
1135.135
20
821.243
30
0.0
0
POINT
5
272d2
8
0-2
62
  7
10
1135.135
20
615.946
30
0.0
0
POINT
5
272d3
8
0-2
62
  7
10
1135.135
20
502.946
30
0.0
0
POINT
5
272d4
8
0-2
62
  7
10
1135.135
20
497.946
30
0.0
0
ENDSEC
0
EOF
