0
SECTION
2
HEADER
  9
$EXTMIN
10
0
20
0
30
0
  9
$EXTMAX
10
1491.892
20
1304.620
30
0
  9
$LTSCALE
40
5.000
  9
$DIMSCALE
40
5.000
  9
$PDMODE
70
0
  9
$PDSIZE
40
40
0
ENDSEC
0
SECTION
2
TABLES
0
TABLE
2
LTYPE
70
9
0
LTYPE
5
1f4
2
CONTINUOUS
70
0
3
実線
72
65
73
0
40
0.0
0
LTYPE
5
1f5
2
DOT
70
0
3
--  --  --  --  --  --  --  --     
72
65
73
2
40
5.000
49
1.000
49
-4.000
0
LTYPE
5
1f6
2
DASHED
70
0
3
----    ----    ----    ----    
72
65
73
2
40
5.000
49
2.000
49
-3.000
0
LTYPE
5
1f7
2
DASHED2
70
0
3
------  ------  ------  ------ 
72
65
73
2
40
10.000
49
4.000
49
-6.000
0
LTYPE
5
1f8
2
CENTER
70
0
3
----- - ----- - ----- - ----- - 
72
65
73
4
40
9.000
49
6.000
49
-1.000
49
1.000
49
-1.000
0
LTYPE
5
1f9
2
CENTER2
70
0
3
----------  --  ----------  -- 
72
65
73
4
40
18.000
49
12.000
49
-2.000
49
2.000
49
-2.000
0
LTYPE
5
1fa
2
PHANTOM
70
0
3
--- - - --- - - --- - - --- - -
72
65
73
6
40
10.000
49
5.000
49
-1.000
49
1.000
49
-1.000
49
1.000
49
-1.000
0
LTYPE
5
1fb
2
PHANTOM2
70
0
3
--------  -  -  --------  -  -
72
65
73
6
40
16.000
49
6.000
49
-2.000
49
2.000
49
-2.000
49
2.000
49
-2.000
0
LTYPE
5
1fc
2
HIDDEN
70
0
3
-   -   -   -   -   -   -   -   
72
65
73
2
40
2.500
49
0.500
49
-2.000
0
ENDTAB
0
TABLE
2
STYLE
70
1
0
STYLE
5
1fd
100
AcDbSymbolTableRecord
100
AcDbTextStyleTableRecord
2
STANDARD
70
0
40
0.0
41
1.0
50
0.0
71
0
42
0.0
3
txt.shx
4
extfont.shx
0
STYLE
5
1fe
100
AcDbSymbolTableRecord
100
AcDbTextStyleTableRecord
2
TATEGAKI
70
4
40
0.0
41
1.0
50
0.0
71
0
42
0.0
3
txt.shx
4
extfont.shx
0
STYLE
5
1ff
100
AcDbSymbolTableRecord
100
AcDbTextStyleTableRecord
2
MT
70
0
40
0.0
41
1.0
50
0.0
71
0
42
0.0
3
MS Mincho
4

0
STYLE
5
200
100
AcDbSymbolTableRecord
100
AcDbTextStyleTableRecord
2
TMT
70
4
40
0.0
41
1.0
50
0.0
71
0
42
0.0
3
@MS Mincho
4

0
ENDTAB
0
TABLE
2
LAYER
5
b7e
100
AcDbSymbolTable
70
10
0
LAYER
5
b7f
100
AcDbSymbolTableRecord
100
AcDbLayerTableRecord
2
0
70
64
62
  7
  6
CONTINUOUS
0
LAYER
5
b80
100
AcDbSymbolTableRecord
100
AcDbLayerTableRecord
2
0-0
70
64
62
  7
  6
CONTINUOUS
0
LAYER
5
b81
100
AcDbSymbolTableRecord
100
AcDbLayerTableRecord
2
ADD_LINE
70
64
62
  -7
  6
CONTINUOUS
0
ENDTAB
0
ENDSEC
0
SECTION
2
ENTITIES
0
LINE
5
b82
8
0-0
6
CONTINUOUS
62
  7
10
863.987
20
661.734
30
0.0
11
1008.987
21
661.734
31
0.0
0
LINE
5
b83
8
0-0
6
CONTINUOUS
62
  7
10
1008.987
20
661.734
30
0.0
11
1010.487
21
926.734
31
0.0
0
LINE
5
b84
8
0-0
6
CONTINUOUS
62
  7
10
862.487
20
926.734
30
0.0
11
1010.487
21
926.734
31
0.0
0
LINE
5
b85
8
0-0
6
CONTINUOUS
62
  7
10
863.987
20
661.734
30
0.0
11
862.487
21
926.734
31
0.0
0
LINE
5
b86
8
0-0
6
CONTINUOUS
62
  7
10
876.487
20
926.734
30
0.0
11
885.317
21
956.734
31
0.0
0
LINE
5
b87
8
0-0
6
CONTINUOUS
62
  7
10
885.317
20
956.734
30
0.0
11
987.656
21
956.734
31
0.0
0
LINE
5
b88
8
0-0
6
CONTINUOUS
62
  7
10
987.656
20
956.734
30
0.0
11
996.486
21
926.734
31
0.0
0
LINE
5
b89
8
0-0
6
CONTINUOUS
62
  7
10
898.987
20
939.234
30
0.0
11
973.987
21
939.234
31
0.0
0
LINE
5
b8a
8
0-0
6
CONTINUOUS
62
  7
10
898.987
20
944.234
30
0.0
11
973.987
21
944.234
31
0.0
0
LINE
5
b8b
8
ADD_LINE
6
HIDDEN
62
  3
10
788.228
20
429.730
30
0.0
11
1083.031
21
429.730
31
0.0
0
LINE
5
b8c
8
0-0
6
CONTINUOUS
62
  7
10
863.987
20
429.730
30
0.0
11
883.173
21
433.113
31
0.0
0
LINE
5
b8d
8
0-0
6
CONTINUOUS
62
  7
10
1008.987
20
429.730
30
0.0
11
989.800
21
433.113
31
0.0
0
LINE
5
b8e
8
ADD_LINE
6
HIDDEN
62
  3
10
787.254
20
1205.864
30
0.0
11
1130.799
21
1205.864
31
0.0
0
LINE
5
b8f
8
0-0
6
CONTINUOUS
62
  7
10
862.487
20
1205.864
30
0.0
11
887.152
21
1201.515
31
0.0
0
LINE
5
b90
8
0-0
6
CONTINUOUS
62
  7
10
1010.487
20
1205.864
30
0.0
11
985.821
21
1201.515
31
0.0
0
LINE
5
b91
8
0-0
6
CONTINUOUS
62
  7
10
1246.459
20
926.734
30
0.0
11
1309.459
21
926.734
31
0.0
0
LINE
5
b92
8
0-0
6
CONTINUOUS
62
  7
10
1309.459
20
926.734
30
0.0
11
1309.459
21
661.734
31
0.0
0
LINE
5
b93
8
0-0
6
CONTINUOUS
62
  7
10
1262.460
20
926.734
30
0.0
11
1262.460
21
956.734
31
0.0
0
LINE
5
b94
8
0-0
6
CONTINUOUS
62
  7
10
1262.460
20
956.734
30
0.0
11
1294.460
21
956.734
31
0.0
0
LINE
5
b95
8
0-0
6
CONTINUOUS
62
  7
10
1294.460
20
956.734
30
0.0
11
1302.460
21
926.734
31
0.0
0
LINE
5
b96
8
0-0
6
CONTINUOUS
62
  7
10
1287.590
20
944.234
30
0.0
11
1262.460
21
944.234
31
0.0
0
LINE
5
b97
8
0-0
6
CONTINUOUS
62
  7
10
1289.789
20
941.749
30
0.0
11
1289.522
21
942.749
31
0.0
0
LINE
5
b98
8
0-0
6
CONTINUOUS
62
  7
10
1287.857
20
939.234
30
0.0
11
1262.460
21
939.234
31
0.0
0
LINE
5
b99
8
0-0
6
CONTINUOUS
62
  7
10
1247.959
20
661.734
30
0.0
11
1309.459
21
661.734
31
0.0
0
LINE
5
b9a
8
0-0
6
CONTINUOUS
62
  7
10
1246.459
20
926.734
30
0.0
11
1247.959
21
661.734
31
0.0
0
LINE
5
b9b
8
0-0
6
CONTINUOUS
62
  7
10
862.487
20
1302.120
30
0.0
11
1010.487
21
1302.120
31
0.0
0
LINE
5
b9c
8
0-0
6
CONTINUOUS
62
  7
10
862.487
20
1232.557
30
0.0
11
862.487
21
1302.120
31
0.0
0
LINE
5
b9d
8
0-0
6
CONTINUOUS
62
  7
10
1010.487
20
1232.557
30
0.0
11
1010.487
21
1302.120
31
0.0
0
LINE
5
b9e
8
0-0
6
CONTINUOUS
62
  7
10
863.987
20
317.538
30
0.0
11
1008.987
21
317.538
31
0.0
0
LINE
5
b9f
8
0-0
6
CONTINUOUS
62
  7
10
863.987
20
387.101
30
0.0
11
863.987
21
317.538
31
0.0
0
LINE
5
ba0
8
0-0
6
CONTINUOUS
62
  7
10
1008.987
20
387.101
30
0.0
11
1008.987
21
317.538
31
0.0
0
LINE
5
ba1
8
0-0
6
CONTINUOUS
62
  7
10
1309.459
20
569.035
30
0.0
11
1247.959
21
569.035
31
0.0
0
LINE
5
ba2
8
0-0
6
CONTINUOUS
62
  7
10
1309.459
20
633.247
30
0.0
11
1309.459
21
569.035
31
0.0
0
LINE
5
ba3
8
0-0
6
CONTINUOUS
62
  7
10
1247.959
20
633.247
30
0.0
11
1247.959
21
569.035
31
0.0
0
LINE
5
ba4
8
0-0
6
CONTINUOUS
62
  7
10
1008.987
20
569.035
30
0.0
11
863.987
21
569.035
31
0.0
0
LINE
5
ba5
8
0-0
6
CONTINUOUS
62
  7
10
1008.987
20
633.247
30
0.0
11
1008.987
21
569.035
31
0.0
0
LINE
5
ba6
8
0-0
6
CONTINUOUS
62
  7
10
863.987
20
633.247
30
0.0
11
863.987
21
569.035
31
0.0
0
LINE
5
ba7
8
0-0
6
CONTINUOUS
62
  7
10
862.487
20
1045.273
30
0.0
11
1010.487
21
1045.273
31
0.0
0
LINE
5
ba8
8
0-0
6
CONTINUOUS
62
  7
10
862.487
20
981.061
30
0.0
11
862.487
21
1045.273
31
0.0
0
LINE
5
ba9
8
0-0
6
CONTINUOUS
62
  7
10
1010.487
20
981.061
30
0.0
11
1010.487
21
1045.273
31
0.0
0
LINE
5
baa
8
0-0
6
CONTINUOUS
62
  7
10
1246.459
20
1045.273
30
0.0
11
1309.459
21
1045.273
31
0.0
0
LINE
5
bab
8
0-0
6
CONTINUOUS
62
  7
10
1246.459
20
981.061
30
0.0
11
1246.459
21
1045.273
31
0.0
0
LINE
5
bac
8
0-0
6
CONTINUOUS
62
  7
10
1309.459
20
981.061
30
0.0
11
1309.459
21
1045.273
31
0.0
0
LINE
5
bad
8
0-0
6
CONTINUOUS
62
  7
10
656.380
20
1205.864
30
0.0
11
656.380
21
1142.864
31
0.0
0
LINE
5
bae
8
0-0
6
CONTINUOUS
62
  7
10
784.804
20
1205.864
30
0.0
11
656.380
21
1205.864
31
0.0
0
LINE
5
baf
8
0-0
6
CONTINUOUS
62
  7
10
784.804
20
1142.864
30
0.0
11
656.380
21
1142.864
31
0.0
0
LINE
5
bb0
8
0-0
6
CONTINUOUS
62
  7
10
656.380
20
956.734
30
0.0
11
656.380
21
926.734
31
0.0
0
LINE
5
bb1
8
0-0
6
CONTINUOUS
62
  7
10
784.804
20
956.734
30
0.0
11
656.380
21
956.734
31
0.0
0
LINE
5
bb2
8
0-0
6
CONTINUOUS
62
  7
10
784.804
20
926.734
30
0.0
11
656.380
21
926.734
31
0.0
0
LINE
5
bb3
8
0-0
6
CONTINUOUS
62
  7
10
656.380
20
926.734
30
0.0
11
656.380
21
661.734
31
0.0
0
LINE
5
bb4
8
0-0
6
CONTINUOUS
62
  7
10
784.804
20
661.734
30
0.0
11
656.380
21
661.734
31
0.0
0
LINE
5
bb5
8
0-0
6
CONTINUOUS
62
  7
10
656.380
20
491.230
30
0.0
11
656.380
21
429.730
31
0.0
0
LINE
5
bb6
8
0-0
6
CONTINUOUS
62
  7
10
784.804
20
491.230
30
0.0
11
656.380
21
491.230
31
0.0
0
LINE
5
bb7
8
0-0
6
CONTINUOUS
62
  7
10
784.804
20
429.730
30
0.0
11
656.380
21
429.730
31
0.0
0
LINE
5
bb8
8
0-0
6
CONTINUOUS
62
  7
10
1491.892
20
956.734
30
0.0
11
1491.892
21
926.734
31
0.0
0
LINE
5
bb9
8
0-0
6
CONTINUOUS
62
  7
10
1386.487
20
956.734
30
0.0
11
1491.892
21
956.734
31
0.0
0
LINE
5
bba
8
0-0
6
CONTINUOUS
62
  7
10
1386.487
20
926.734
30
0.0
11
1491.892
21
926.734
31
0.0
0
LINE
5
bbb
8
0-0
6
CONTINUOUS
62
  7
10
1491.892
20
926.734
30
0.0
11
1491.892
21
661.734
31
0.0
0
LINE
5
bbc
8
0-0
6
CONTINUOUS
62
  7
10
1386.487
20
661.734
30
0.0
11
1491.892
21
661.734
31
0.0
0
LINE
5
bbd
8
ADD_LINE
6
HIDDEN
62
  3
10
936.487
20
390.112
30
0.0
11
936.487
21
1241.464
31
0.0
0
CIRCLE
5
bbe
8
0-0
6
CONTINUOUS
62
  7
10
936.487
20
731.734
30
0.0
40
3.000
0
CIRCLE
5
bbf
8
0-0
6
CONTINUOUS
62
  7
10
936.487
20
751.734
30
0.0
40
3.000
0
ARC
5
bc0
8
0-0
6
CONTINUOUS
62
  7
10
898.987
20
941.734
30
0.0
40
2.500
50
90.000000
51
270.000000
0
ARC
5
bc1
8
0-0
6
CONTINUOUS
62
  7
10
973.987
20
941.734
30
0.0
40
2.500
50
270.000000
51
90.000000
0
ARC
5
bc2
8
0-0
6
CONTINUOUS
62
  7
10
936.487
20
417.746
30
0.0
40
73.484
50
9.385651
51
170.614349
0
ARC
5
bc3
8
0-0
6
CONTINUOUS
62
  7
10
936.487
20
417.746
30
0.0
40
55.484
50
16.078842
51
163.921158
0
ARC
5
bc4
8
0-0
6
CONTINUOUS
62
  7
10
936.487
20
417.746
30
0.0
40
63.484
50
12.594666
51
167.405334
0
ARC
5
bc5
8
0-0
6
CONTINUOUS
62
  7
10
936.487
20
1217.824
30
0.0
40
74.960
50
189.181061
51
350.818939
0
ARC
5
bc6
8
0-0
6
CONTINUOUS
62
  7
10
936.487
20
1217.824
30
0.0
40
51.960
50
198.293442
51
341.706543
0
ARC
5
bc7
8
0-0
6
CONTINUOUS
62
  7
10
936.487
20
1217.824
30
0.0
40
61.960
50
193.421310
51
346.578674
0
ARC
5
bc8
8
0-0
6
CONTINUOUS
62
  7
10
1287.590
20
942.234
30
0.0
40
2.000
50
14.930283
51
90.000000
0
ARC
5
bc9
8
0-0
6
CONTINUOUS
62
  7
10
1287.857
20
941.234
30
0.0
40
2.000
50
270.000000
51
14.932907
0
CIRCLE
5
bca
8
ADD_LINE
6
HIDDEN
62
  3
10
936.487
20
429.730
30
0.0
40
3.000
0
TEXT
5
bcb
100
AcDbEntity
8
0-0
62
7
100
AcDbText
10
927.112
20
1304.620
30
0.0
40
9.750
41
0.800
50
0.000
1
148
100
AcDbText
0
TEXT
5
bcc
100
AcDbEntity
8
0-0
62
7
100
AcDbText
10
927.112
20
320.038
30
0.0
40
9.750
41
0.800
50
0.000
1
145
100
AcDbText
0
TEXT
5
bcd
100
AcDbEntity
8
0-0
62
7
100
AcDbText
10
927.112
20
571.535
30
0.0
40
9.750
41
0.800
50
0.000
1
145
100
AcDbText
0
TEXT
5
bce
100
AcDbEntity
8
0-0
62
7
100
AcDbText
10
927.112
20
1047.773
30
0.0
40
9.750
41
0.800
50
0.000
1
148
100
AcDbText
0
TEXT
5
bcf
100
AcDbEntity
8
0-0
62
7
100
AcDbText
10
1271.709
20
1047.773
30
0.0
40
9.750
41
0.800
50
0.000
1
63
100
AcDbText
0
TEXT
5
bd0
100
AcDbEntity
8
0-0
62
7
100
AcDbText
10
653.880
20
1168.114
30
0.0
40
9.750
41
0.800
50
90.000
1
63
100
AcDbText
0
TEXT
5
bd1
100
AcDbEntity
8
0-0
62
7
100
AcDbText
10
653.880
20
935.484
30
0.0
40
9.750
41
0.800
50
90.000
1
30
100
AcDbText
0
TEXT
5
bd2
100
AcDbEntity
8
0-0
62
7
100
AcDbText
10
653.880
20
784.859
30
0.0
40
9.750
41
0.800
50
90.000
1
265
100
AcDbText
0
TEXT
5
bd3
100
AcDbEntity
8
0-0
62
7
100
AcDbText
10
1489.392
20
935.484
30
0.0
40
9.750
41
0.800
50
90.000
1
30
100
AcDbText
0
TEXT
5
bd4
100
AcDbEntity
8
0-0
62
7
100
AcDbText
10
1489.392
20
784.859
30
0.0
40
9.750
41
0.800
50
90.000
1
265
100
AcDbText
0
TEXT
5
bd5
100
AcDbEntity
8
0-0
62
7
100
AcDbText
10
1266.209
20
571.535
30
0.0
40
9.750
41
0.800
50
0.000
1
61.5
100
AcDbText
0
TEXT
5
bd6
100
AcDbEntity
8
0-0
62
7
100
AcDbText
10
653.880
20
447.980
30
0.0
40
9.750
41
0.800
50
90.000
1
61.5
100
AcDbText
0
POINT
5
bd7
8
0-0
62
  7
10
862.487
20
1302.120
30
0.0
0
POINT
5
bd8
8
0-0
62
  7
10
1010.487
20
1302.120
30
0.0
0
POINT
5
bd9
8
0-0
62
  7
10
863.987
20
317.538
30
0.0
0
POINT
5
bda
8
0-0
62
  7
10
1008.987
20
317.538
30
0.0
0
POINT
5
bdb
8
0-0
62
  7
10
1309.459
20
569.035
30
0.0
0
POINT
5
bdc
8
0-0
62
  7
10
1247.959
20
569.035
30
0.0
0
POINT
5
bdd
8
0-0
62
  7
10
1008.987
20
569.035
30
0.0
0
POINT
5
bde
8
0-0
62
  7
10
863.987
20
569.035
30
0.0
0
POINT
5
bdf
8
0-0
62
  7
10
862.487
20
1045.273
30
0.0
0
POINT
5
be0
8
0-0
62
  7
10
1010.487
20
1045.273
30
0.0
0
POINT
5
be1
8
0-0
62
  7
10
1246.459
20
1045.273
30
0.0
0
POINT
5
be2
8
0-0
62
  7
10
1309.459
20
1045.273
30
0.0
0
POINT
5
be3
8
0-0
62
  7
10
656.380
20
1205.864
30
0.0
0
POINT
5
be4
8
0-0
62
  7
10
656.380
20
1142.864
30
0.0
0
POINT
5
be5
8
0-0
62
  7
10
656.380
20
956.734
30
0.0
0
POINT
5
be6
8
0-0
62
  7
10
656.380
20
926.734
30
0.0
0
POINT
5
be7
8
0-0
62
  7
10
656.380
20
661.734
30
0.0
0
POINT
5
be8
8
0-0
62
  7
10
656.380
20
491.230
30
0.0
0
POINT
5
be9
8
0-0
62
  7
10
656.380
20
429.730
30
0.0
0
POINT
5
bea
8
0-0
62
  7
10
1491.892
20
956.734
30
0.0
0
POINT
5
beb
8
0-0
62
  7
10
1491.892
20
926.734
30
0.0
0
POINT
5
bec
8
0-0
62
  7
10
1491.892
20
661.734
30
0.0
0
ENDSEC
0
EOF
