0
SECTION
2
HEADER
  9
$EXTMIN
10
0
20
0
30
0
  9
$EXTMAX
10
1360.907
20
1408.663
30
0
  9
$LTSCALE
40
5.000
  9
$DIMSCALE
40
5.000
  9
$PDMODE
70
0
  9
$PDSIZE
40
40
0
ENDSEC
0
SECTION
2
TABLES
0
TABLE
2
LTYPE
70
9
0
LTYPE
5
1f4
2
CONTINUOUS
70
0
3
実線
72
65
73
0
40
0.0
0
LTYPE
5
1f5
2
DOT
70
0
3
--  --  --  --  --  --  --  --     
72
65
73
2
40
5.000
49
1.000
49
-4.000
0
LTYPE
5
1f6
2
DASHED
70
0
3
----    ----    ----    ----    
72
65
73
2
40
5.000
49
2.000
49
-3.000
0
LTYPE
5
1f7
2
DASHED2
70
0
3
------  ------  ------  ------ 
72
65
73
2
40
10.000
49
4.000
49
-6.000
0
LTYPE
5
1f8
2
CENTER
70
0
3
----- - ----- - ----- - ----- - 
72
65
73
4
40
9.000
49
6.000
49
-1.000
49
1.000
49
-1.000
0
LTYPE
5
1f9
2
CENTER2
70
0
3
----------  --  ----------  -- 
72
65
73
4
40
18.000
49
12.000
49
-2.000
49
2.000
49
-2.000
0
LTYPE
5
1fa
2
PHANTOM
70
0
3
--- - - --- - - --- - - --- - -
72
65
73
6
40
10.000
49
5.000
49
-1.000
49
1.000
49
-1.000
49
1.000
49
-1.000
0
LTYPE
5
1fb
2
PHANTOM2
70
0
3
--------  -  -  --------  -  -
72
65
73
6
40
16.000
49
6.000
49
-2.000
49
2.000
49
-2.000
49
2.000
49
-2.000
0
LTYPE
5
1fc
2
HIDDEN
70
0
3
-   -   -   -   -   -   -   -   
72
65
73
2
40
2.500
49
0.500
49
-2.000
0
ENDTAB
0
TABLE
2
STYLE
70
1
0
STYLE
5
1fd
100
AcDbSymbolTableRecord
100
AcDbTextStyleTableRecord
2
STANDARD
70
0
40
0.0
41
1.0
50
0.0
71
0
42
0.0
3
txt.shx
4
extfont.shx
0
STYLE
5
1fe
100
AcDbSymbolTableRecord
100
AcDbTextStyleTableRecord
2
TATEGAKI
70
4
40
0.0
41
1.0
50
0.0
71
0
42
0.0
3
txt.shx
4
extfont.shx
0
STYLE
5
1ff
100
AcDbSymbolTableRecord
100
AcDbTextStyleTableRecord
2
MT
70
0
40
0.0
41
1.0
50
0.0
71
0
42
0.0
3
MS Mincho
4

0
STYLE
5
200
100
AcDbSymbolTableRecord
100
AcDbTextStyleTableRecord
2
TMT
70
4
40
0.0
41
1.0
50
0.0
71
0
42
0.0
3
@MS Mincho
4

0
ENDTAB
0
TABLE
2
LAYER
5
470
100
AcDbSymbolTable
70
10
0
LAYER
5
471
100
AcDbSymbolTableRecord
100
AcDbLayerTableRecord
2
0
70
64
62
  7
  6
CONTINUOUS
0
LAYER
5
472
100
AcDbSymbolTableRecord
100
AcDbLayerTableRecord
2
0-0
70
64
62
  7
  6
CONTINUOUS
0
LAYER
5
473
100
AcDbSymbolTableRecord
100
AcDbLayerTableRecord
2
ADD_LINE
70
64
62
  -7
  6
CONTINUOUS
0
ENDTAB
0
ENDSEC
0
SECTION
2
ENTITIES
0
LINE
5
474
8
0-0
6
CONTINUOUS
62
  7
10
717.258
20
1246.497
30
0.0
11
977.258
21
1246.497
31
0.0
0
LINE
5
475
8
0-0
6
CONTINUOUS
62
  7
10
937.258
20
971.497
30
0.0
11
977.258
21
971.497
31
0.0
0
LINE
5
476
8
0-0
6
CONTINUOUS
62
  7
10
977.258
20
971.497
30
0.0
11
977.258
21
1246.497
31
0.0
0
LINE
5
477
8
0-0
6
CONTINUOUS
62
  7
10
672.258
20
941.497
30
0.0
11
937.258
21
941.497
31
0.0
0
LINE
5
478
8
0-0
6
CONTINUOUS
62
  7
10
937.258
20
941.497
30
0.0
11
937.258
21
971.497
31
0.0
0
LINE
5
479
8
0-0
6
CONTINUOUS
62
  7
10
742.258
20
1238.497
30
0.0
11
742.258
21
1246.497
31
0.0
0
LINE
5
47a
8
0-0
6
CONTINUOUS
62
  7
10
742.258
20
1238.497
30
0.0
11
969.258
21
1238.497
31
0.0
0
LINE
5
47b
8
0-0
6
CONTINUOUS
62
  7
10
969.258
20
971.497
30
0.0
11
969.258
21
1238.497
31
0.0
0
LINE
5
47c
8
0-0
6
CONTINUOUS
62
  7
10
1243.366
20
1246.497
30
0.0
11
1243.366
21
1238.497
31
0.0
0
LINE
5
47d
8
0-0
6
CONTINUOUS
62
  7
10
1233.366
20
1238.497
30
0.0
11
1233.366
21
941.497
31
0.0
0
LINE
5
47e
8
0-0
6
CONTINUOUS
62
  7
10
1213.366
20
1246.497
30
0.0
11
1213.366
21
1238.497
31
0.0
0
LINE
5
47f
8
0-0
6
CONTINUOUS
62
  7
10
1233.366
20
1238.497
30
0.0
11
1243.366
21
1238.497
31
0.0
0
LINE
5
480
8
0-0
6
CONTINUOUS
62
  7
10
1176.366
20
1246.497
30
0.0
11
1243.366
21
1246.497
31
0.0
0
LINE
5
481
8
0-0
6
CONTINUOUS
62
  7
10
1176.366
20
1238.497
30
0.0
11
1219.366
21
1238.497
31
0.0
0
LINE
5
482
8
0-0
6
CONTINUOUS
62
  7
10
1227.366
20
941.497
30
0.0
11
1233.366
21
941.497
31
0.0
0
LINE
5
483
8
0-0
6
CONTINUOUS
62
  7
10
1219.366
20
949.497
30
0.0
11
1219.366
21
1238.497
31
0.0
0
LINE
5
484
8
0-0
6
CONTINUOUS
62
  7
10
1178.366
20
941.497
30
0.0
11
1227.366
21
941.497
31
0.0
0
LINE
5
485
8
0-0
6
CONTINUOUS
62
  7
10
672.258
20
843.822
30
0.0
11
977.258
21
843.822
31
0.0
0
LINE
5
486
8
0-0
6
CONTINUOUS
62
  7
10
672.258
20
905.839
30
0.0
11
672.258
21
843.822
31
0.0
0
LINE
5
487
8
0-0
6
CONTINUOUS
62
  7
10
977.258
20
905.839
30
0.0
11
977.258
21
843.822
31
0.0
0
LINE
5
488
8
0-0
6
CONTINUOUS
62
  7
10
672.258
20
874.830
30
0.0
11
937.258
21
874.830
31
0.0
0
LINE
5
489
8
0-0
6
CONTINUOUS
62
  7
10
672.258
20
905.839
30
0.0
11
672.258
21
874.830
31
0.0
0
LINE
5
48a
8
0-0
6
CONTINUOUS
62
  7
10
937.258
20
905.839
30
0.0
11
937.258
21
874.830
31
0.0
0
LINE
5
48b
8
0-0
6
CONTINUOUS
62
  7
10
937.258
20
874.830
30
0.0
11
977.258
21
874.830
31
0.0
0
LINE
5
48c
8
0-0
6
CONTINUOUS
62
  7
10
977.258
20
905.839
30
0.0
11
977.258
21
874.830
31
0.0
0
LINE
5
48d
8
0-0
6
CONTINUOUS
62
  7
10
1360.907
20
941.497
30
0.0
11
1360.907
21
1246.497
31
0.0
0
LINE
5
48e
8
0-0
6
CONTINUOUS
62
  7
10
1296.042
20
941.497
30
0.0
11
1360.907
21
941.497
31
0.0
0
LINE
5
48f
8
0-0
6
CONTINUOUS
62
  7
10
1296.042
20
1246.497
30
0.0
11
1360.907
21
1246.497
31
0.0
0
LINE
5
490
8
0-0
6
CONTINUOUS
62
  7
10
672.258
20
1406.163
30
0.0
11
977.258
21
1406.163
31
0.0
0
LINE
5
491
8
0-0
6
CONTINUOUS
62
  7
10
672.258
20
1280.879
30
0.0
11
672.258
21
1406.163
31
0.0
0
LINE
5
492
8
0-0
6
CONTINUOUS
62
  7
10
977.258
20
1280.879
30
0.0
11
977.258
21
1406.163
31
0.0
0
LINE
5
493
8
0-0
6
CONTINUOUS
62
  7
10
977.258
20
1355.323
30
0.0
11
717.258
21
1355.323
31
0.0
0
LINE
5
494
8
0-0
6
CONTINUOUS
62
  7
10
977.258
20
1280.879
30
0.0
11
977.258
21
1355.323
31
0.0
0
LINE
5
495
8
0-0
6
CONTINUOUS
62
  7
10
717.258
20
1280.879
30
0.0
11
717.258
21
1355.323
31
0.0
0
LINE
5
496
8
0-0
6
CONTINUOUS
62
  7
10
717.258
20
1355.323
30
0.0
11
672.258
21
1355.323
31
0.0
0
LINE
5
497
8
0-0
6
CONTINUOUS
62
  7
10
672.258
20
1280.879
30
0.0
11
672.258
21
1355.323
31
0.0
0
LINE
5
498
8
0-0
6
CONTINUOUS
62
  7
10
1074.572
20
941.497
30
0.0
11
1074.572
21
971.497
31
0.0
0
LINE
5
499
8
0-0
6
CONTINUOUS
62
  7
10
1020.100
20
941.497
30
0.0
11
1074.572
21
941.497
31
0.0
0
LINE
5
49a
8
0-0
6
CONTINUOUS
62
  7
10
1020.100
20
971.497
30
0.0
11
1074.572
21
971.497
31
0.0
0
LINE
5
49b
8
0-0
6
CONTINUOUS
62
  7
10
1074.572
20
971.497
30
0.0
11
1074.572
21
1246.497
31
0.0
0
LINE
5
49c
8
0-0
6
CONTINUOUS
62
  7
10
1020.100
20
1246.497
30
0.0
11
1074.572
21
1246.497
31
0.0
0
LINE
5
49d
8
0-0
6
CONTINUOUS
62
  7
10
717.258
20
1186.497
30
0.0
11
717.258
21
1246.497
31
0.0
0
LINE
5
49e
8
0-0
6
CONTINUOUS
62
  7
10
672.258
20
1186.497
30
0.0
11
717.258
21
1186.497
31
0.0
0
LINE
5
49f
8
0-0
6
CONTINUOUS
62
  7
10
672.258
20
941.497
30
0.0
11
672.258
21
1186.497
31
0.0
0
LINE
5
4a0
8
0-0
6
CONTINUOUS
62
  7
10
525.920
20
941.497
30
0.0
11
525.920
21
1246.497
31
0.0
0
LINE
5
4a1
8
0-0
6
CONTINUOUS
62
  7
10
618.412
20
941.497
30
0.0
11
525.920
21
941.497
31
0.0
0
LINE
5
4a2
8
0-0
6
CONTINUOUS
62
  7
10
618.412
20
1246.497
30
0.0
11
525.920
21
1246.497
31
0.0
0
LINE
5
4a3
8
0-0
6
CONTINUOUS
62
  7
10
572.166
20
1246.497
30
0.0
11
572.166
21
1186.497
31
0.0
0
LINE
5
4a4
8
0-0
6
CONTINUOUS
62
  7
10
618.412
20
1246.497
30
0.0
11
572.166
21
1246.497
31
0.0
0
LINE
5
4a5
8
0-0
6
CONTINUOUS
62
  7
10
618.412
20
1186.497
30
0.0
11
572.166
21
1186.497
31
0.0
0
LINE
5
4a6
8
0-0
6
CONTINUOUS
62
  7
10
572.166
20
1186.497
30
0.0
11
572.166
21
941.497
31
0.0
0
LINE
5
4a7
8
0-0
6
CONTINUOUS
62
  7
10
618.412
20
941.497
30
0.0
11
572.166
21
941.497
31
0.0
0
LINE
5
4a8
8
0-0
6
CONTINUOUS
62
  7
10
1170.366
20
949.497
30
0.0
11
1170.366
21
1186.497
31
0.0
0
LINE
5
4a9
8
0-0
6
CONTINUOUS
62
  7
10
1170.366
20
1186.497
30
0.0
11
1176.366
21
1186.497
31
0.0
0
LINE
5
4aa
8
0-0
6
CONTINUOUS
62
  7
10
1176.366
20
1246.497
30
0.0
11
1176.366
21
1186.497
31
0.0
0
LINE
5
4ab
8
0-0
6
CONTINUOUS
62
  7
10
700.616
20
535.514
30
0.0
11
672.258
21
519.390
31
0.0
0
LINE
5
4ac
8
0-0
6
CONTINUOUS
62
  7
10
970.311
20
521.103
30
0.0
11
977.258
21
521.103
31
0.0
0
LINE
5
4ad
8
0-0
6
CONTINUOUS
62
  7
10
672.258
20
519.390
30
0.0
11
672.258
21
505.390
31
0.0
0
LINE
5
4ae
8
0-0
6
CONTINUOUS
62
  7
10
695.120
20
517.233
30
0.0
11
672.258
21
505.390
31
0.0
0
LINE
5
4af
8
0-0
6
CONTINUOUS
62
  7
10
977.258
20
521.103
30
0.0
11
977.258
21
505.197
31
0.0
0
LINE
5
4b0
8
0-0
6
CONTINUOUS
62
  7
10
977.258
20
521.103
30
0.0
11
977.258
21
505.197
31
0.0
0
LINE
5
4b1
8
ADD_LINE
6
HIDDEN
62
  3
10
977.258
20
521.103
30
0.0
11
977.258
21
574.693
31
0.0
0
LINE
5
4b2
8
0-0
6
CONTINUOUS
62
  7
10
672.258
20
646.158
30
0.0
11
977.258
21
646.158
31
0.0
0
LINE
5
4b3
8
0-0
6
CONTINUOUS
62
  7
10
672.258
20
574.156
30
0.0
11
672.258
21
646.158
31
0.0
0
LINE
5
4b4
8
0-0
6
CONTINUOUS
62
  7
10
977.258
20
574.156
30
0.0
11
977.258
21
646.158
31
0.0
0
LINE
5
4b5
8
ADD_LINE
6
HIDDEN
62
  7
10
937.258
20
574.156
30
0.0
11
937.258
21
646.158
31
0.0
0
LINE
5
4b6
8
0-0
6
CONTINUOUS
62
  7
10
672.258
20
610.157
30
0.0
11
937.258
21
610.157
31
0.0
0
LINE
5
4b7
8
0-0
6
CONTINUOUS
62
  7
10
672.258
20
574.156
30
0.0
11
672.258
21
610.157
31
0.0
0
LINE
5
4b8
8
0-0
6
CONTINUOUS
62
  7
10
937.258
20
574.156
30
0.0
11
937.258
21
610.157
31
0.0
0
LINE
5
4b9
8
ADD_LINE
6
HIDDEN
62
  3
10
859.461
20
478.378
30
0.0
11
859.461
21
476.354
31
0.0
0
LINE
5
4ba
8
ADD_LINE
6
HIDDEN
62
  3
10
859.461
20
478.378
30
0.0
11
928.537
21
478.378
31
0.0
0
LINE
5
4bb
8
ADD_LINE
6
HIDDEN
62
  3
10
859.459
20
478.378
30
0.0
11
787.240
21
478.378
31
0.0
0
LINE
5
4bc
8
ADD_LINE
6
HIDDEN
62
  3
10
672.258
20
519.390
30
0.0
11
672.258
21
574.693
31
0.0
0
LINE
5
4bd
8
ADD_LINE
6
HIDDEN
62
  3
10
937.258
20
574.156
30
0.0
11
937.258
21
458.977
31
0.0
0
LINE
5
4be
8
ADD_LINE
6
HIDDEN
62
  3
10
672.258
20
519.390
30
0.0
11
679.109
21
519.390
31
0.0
0
LINE
5
4bf
8
ADD_LINE
6
HIDDEN
62
  3
10
672.258
20
519.390
30
0.0
11
668.572
21
519.390
31
0.0
0
LINE
5
4c0
8
ADD_LINE
6
HIDDEN
62
  3
10
931.026
20
519.390
30
0.0
11
944.855
21
519.390
31
0.0
0
CIRCLE
5
4c1
8
0-0
6
CONTINUOUS
62
  7
10
777.258
20
1226.497
30
0.0
40
3.000
0
ARC
5
4c2
8
0-0
6
CONTINUOUS
62
  7
10
1178.366
20
949.497
30
0.0
40
8.000
50
180.000000
51
270.000000
0
ARC
5
4c3
8
0-0
6
CONTINUOUS
62
  7
10
1227.366
20
949.497
30
0.0
40
8.000
50
180.000000
51
270.000000
0
ARC
5
4c4
8
0-0
6
CONTINUOUS
62
  7
10
709.815
20
523.272
30
0.0
40
15.314
50
42.690552
51
126.920761
0
ARC
5
4c5
8
0-0
6
CONTINUOUS
62
  7
10
708.882
20
498.640
30
0.0
40
23.132
50
47.123047
51
126.507172
0
ARC
5
4c6
8
0-0
6
CONTINUOUS
62
  7
10
859.911
20
746.708
30
0.0
40
254.299
50
236.909088
51
297.481079
0
ARC
5
4c7
8
0-0
6
CONTINUOUS
62
  7
10
860.610
20
745.445
30
0.0
40
267.069
50
239.390030
51
295.898193
0
CIRCLE
5
4c8
8
ADD_LINE
6
HIDDEN
62
  3
10
859.459
20
478.378
30
0.0
40
3.000
0
CIRCLE
5
4c9
8
ADD_LINE
6
HIDDEN
62
  3
10
672.258
20
519.390
30
0.0
40
3.000
0
CIRCLE
5
4ca
8
ADD_LINE
6
HIDDEN
62
  3
10
937.258
20
519.390
30
0.0
40
3.000
0
ARC
5
4cb
8
0-0
6
CONTINUOUS
62
  7
10
965.407
20
520.720
30
0.0
40
4.918
50
300.157471
51
4.473755
0
TEXT
5
4cc
100
AcDbEntity
8
0-0
62
4
100
AcDbText
10
815.383
20
846.322
30
0.0
40
9.750
41
0.800
50
0.000
1
305
100
AcDbText
0
TEXT
5
4cd
100
AcDbEntity
8
0-0
62
4
100
AcDbText
10
795.383
20
877.330
30
0.0
40
9.750
41
0.800
50
0.000
1
265
100
AcDbText
0
TEXT
5
4ce
100
AcDbEntity
8
0-0
62
4
100
AcDbText
10
951.008
20
877.330
30
0.0
40
9.750
41
0.800
50
0.000
1
40
100
AcDbText
0
TEXT
5
4cf
100
AcDbEntity
8
0-0
62
4
100
AcDbText
10
1358.407
20
1084.622
30
0.0
40
9.750
41
0.800
50
90.000
1
305
100
AcDbText
0
TEXT
5
4d0
100
AcDbEntity
8
0-0
62
4
100
AcDbText
10
815.383
20
1408.663
30
0.0
40
9.750
41
0.800
50
0.000
1
305
100
AcDbText
0
TEXT
5
4d1
100
AcDbEntity
8
0-0
62
4
100
AcDbText
10
837.883
20
1357.823
30
0.0
40
9.750
41
0.800
50
0.000
1
260
100
AcDbText
0
TEXT
5
4d2
100
AcDbEntity
8
0-0
62
4
100
AcDbText
10
688.508
20
1357.823
30
0.0
40
9.750
41
0.800
50
0.000
1
45
100
AcDbText
0
TEXT
5
4d3
100
AcDbEntity
8
0-0
62
4
100
AcDbText
10
1072.072
20
950.247
30
0.0
40
9.750
41
0.800
50
90.000
1
30
100
AcDbText
0
TEXT
5
4d4
100
AcDbEntity
8
0-0
62
4
100
AcDbText
10
1072.072
20
1099.622
30
0.0
40
9.750
41
0.800
50
90.000
1
275
100
AcDbText
0
TEXT
5
4d5
100
AcDbEntity
8
0-0
62
4
100
AcDbText
10
523.420
20
1084.622
30
0.0
40
9.750
41
0.800
50
90.000
1
305
100
AcDbText
0
TEXT
5
4d6
100
AcDbEntity
8
0-0
62
4
100
AcDbText
10
569.666
20
1210.247
30
0.0
40
9.750
41
0.800
50
90.000
1
60
100
AcDbText
0
TEXT
5
4d7
100
AcDbEntity
8
0-0
62
4
100
AcDbText
10
569.666
20
1054.622
30
0.0
40
9.750
41
0.800
50
90.000
1
245
100
AcDbText
0
TEXT
5
4d8
100
AcDbEntity
8
0-0
62
4
100
AcDbText
10
815.383
20
648.658
30
0.0
40
9.750
41
0.800
50
0.000
1
305
100
AcDbText
0
TEXT
5
4d9
100
AcDbEntity
8
0-0
62
4
100
AcDbText
10
795.383
20
612.657
30
0.0
40
9.750
41
0.800
50
0.000
1
265
100
AcDbText
0
POINT
5
4da
8
0-0
62
  7
10
672.258
20
843.822
30
0.0
0
POINT
5
4db
8
0-0
62
  7
10
977.258
20
843.822
30
0.0
0
POINT
5
4dc
8
0-0
62
  7
10
672.258
20
874.830
30
0.0
0
POINT
5
4dd
8
0-0
62
  7
10
937.258
20
874.830
30
0.0
0
POINT
5
4de
8
0-0
62
  7
10
977.258
20
874.830
30
0.0
0
POINT
5
4df
8
0-0
62
  7
10
1360.907
20
941.497
30
0.0
0
POINT
5
4e0
8
0-0
62
  7
10
1360.907
20
1246.497
30
0.0
0
POINT
5
4e1
8
0-0
62
  7
10
672.258
20
1406.163
30
0.0
0
POINT
5
4e2
8
0-0
62
  7
10
977.258
20
1406.163
30
0.0
0
POINT
5
4e3
8
0-0
62
  7
10
977.258
20
1355.323
30
0.0
0
POINT
5
4e4
8
0-0
62
  7
10
717.258
20
1355.323
30
0.0
0
POINT
5
4e5
8
0-0
62
  7
10
672.258
20
1355.323
30
0.0
0
POINT
5
4e6
8
0-0
62
  7
10
1074.572
20
941.497
30
0.0
0
POINT
5
4e7
8
0-0
62
  7
10
1074.572
20
971.497
30
0.0
0
POINT
5
4e8
8
0-0
62
  7
10
1074.572
20
1246.497
30
0.0
0
POINT
5
4e9
8
0-0
62
  7
10
525.920
20
941.497
30
0.0
0
POINT
5
4ea
8
0-0
62
  7
10
525.920
20
1246.497
30
0.0
0
POINT
5
4eb
8
0-0
62
  7
10
572.166
20
1246.497
30
0.0
0
POINT
5
4ec
8
0-0
62
  7
10
572.166
20
1186.497
30
0.0
0
POINT
5
4ed
8
0-0
62
  7
10
572.166
20
941.497
30
0.0
0
POINT
5
4ee
8
0-0
62
  7
10
672.258
20
646.158
30
0.0
0
POINT
5
4ef
8
0-0
62
  7
10
977.258
20
646.158
30
0.0
0
POINT
5
4f0
8
0-0
62
  7
10
672.258
20
610.157
30
0.0
0
POINT
5
4f1
8
0-0
62
  7
10
937.258
20
610.157
30
0.0
0
ENDSEC
0
EOF
