0
SECTION
2
HEADER
  9
$EXTMIN
10
0
20
0
30
0
  9
$EXTMAX
10
1473.369
20
1283.581
30
0
  9
$LTSCALE
40
5.000
  9
$DIMSCALE
40
5.000
  9
$PDMODE
70
0
  9
$PDSIZE
40
40
0
ENDSEC
0
SECTION
2
TABLES
0
TABLE
2
LTYPE
70
9
0
LTYPE
5
1f4
2
CONTINUOUS
70
0
3
実線
72
65
73
0
40
0.0
0
LTYPE
5
1f5
2
DOT
70
0
3
--  --  --  --  --  --  --  --     
72
65
73
2
40
5.000
49
1.000
49
-4.000
0
LTYPE
5
1f6
2
DASHED
70
0
3
----    ----    ----    ----    
72
65
73
2
40
5.000
49
2.000
49
-3.000
0
LTYPE
5
1f7
2
DASHED2
70
0
3
------  ------  ------  ------ 
72
65
73
2
40
10.000
49
4.000
49
-6.000
0
LTYPE
5
1f8
2
CENTER
70
0
3
----- - ----- - ----- - ----- - 
72
65
73
4
40
9.000
49
6.000
49
-1.000
49
1.000
49
-1.000
0
LTYPE
5
1f9
2
CENTER2
70
0
3
----------  --  ----------  -- 
72
65
73
4
40
18.000
49
12.000
49
-2.000
49
2.000
49
-2.000
0
LTYPE
5
1fa
2
PHANTOM
70
0
3
--- - - --- - - --- - - --- - -
72
65
73
6
40
10.000
49
5.000
49
-1.000
49
1.000
49
-1.000
49
1.000
49
-1.000
0
LTYPE
5
1fb
2
PHANTOM2
70
0
3
--------  -  -  --------  -  -
72
65
73
6
40
16.000
49
6.000
49
-2.000
49
2.000
49
-2.000
49
2.000
49
-2.000
0
LTYPE
5
1fc
2
HIDDEN
70
0
3
-   -   -   -   -   -   -   -   
72
65
73
2
40
2.500
49
0.500
49
-2.000
0
ENDTAB
0
TABLE
2
STYLE
70
1
0
STYLE
5
1fd
100
AcDbSymbolTableRecord
100
AcDbTextStyleTableRecord
2
STANDARD
70
0
40
0.0
41
1.0
50
0.0
71
0
42
0.0
3
txt.shx
4
extfont.shx
0
STYLE
5
1fe
100
AcDbSymbolTableRecord
100
AcDbTextStyleTableRecord
2
TATEGAKI
70
4
40
0.0
41
1.0
50
0.0
71
0
42
0.0
3
txt.shx
4
extfont.shx
0
STYLE
5
1ff
100
AcDbSymbolTableRecord
100
AcDbTextStyleTableRecord
2
MT
70
0
40
0.0
41
1.0
50
0.0
71
0
42
0.0
3
MS Mincho
4

0
STYLE
5
200
100
AcDbSymbolTableRecord
100
AcDbTextStyleTableRecord
2
TMT
70
4
40
0.0
41
1.0
50
0.0
71
0
42
0.0
3
@MS Mincho
4

0
ENDTAB
0
TABLE
2
LAYER
5
138a
100
AcDbSymbolTable
70
10
0
LAYER
5
138b
100
AcDbSymbolTableRecord
100
AcDbLayerTableRecord
2
0
70
64
62
  7
  6
CONTINUOUS
0
LAYER
5
138c
100
AcDbSymbolTableRecord
100
AcDbLayerTableRecord
2
0-0
70
64
62
  7
  6
CONTINUOUS
0
LAYER
5
138d
100
AcDbSymbolTableRecord
100
AcDbLayerTableRecord
2
0-1
70
64
62
  7
  6
CONTINUOUS
0
LAYER
5
138e
100
AcDbSymbolTableRecord
100
AcDbLayerTableRecord
2
ADD_LINE
70
64
62
  -7
  6
CONTINUOUS
0
ENDTAB
0
ENDSEC
0
SECTION
2
ENTITIES
0
LINE
5
138f
8
0-0
6
CONTINUOUS
62
  7
10
1234.243
20
484.946
30
0.0
11
1242.243
21
484.946
31
0.0
0
LINE
5
1390
8
0-0
6
CONTINUOUS
62
  7
10
1234.243
20
484.946
30
0.0
11
1234.243
21
481.924
31
0.0
0
LINE
5
1391
8
0-0
6
CONTINUOUS
62
  7
10
1242.243
20
484.946
30
0.0
11
1242.243
21
470.946
31
0.0
0
LINE
5
1392
8
0-0
6
CONTINUOUS
62
  7
10
977.243
20
298.459
30
0.0
11
993.243
21
298.459
31
0.0
0
LINE
5
1393
8
0-0
6
CONTINUOUS
62
  7
10
977.243
20
347.108
30
0.0
11
977.243
21
298.459
31
0.0
0
LINE
5
1394
8
0-0
6
CONTINUOUS
62
  7
10
993.243
20
347.108
30
0.0
11
993.243
21
298.459
31
0.0
0
LINE
5
1395
8
0-0
6
CONTINUOUS
62
  7
10
993.243
20
298.459
30
0.0
11
1242.243
21
298.459
31
0.0
0
LINE
5
1396
8
0-0
6
CONTINUOUS
62
  7
10
1242.243
20
347.108
30
0.0
11
1242.243
21
298.459
31
0.0
0
LINE
5
1397
8
ADD_LINE
6
HIDDEN
62
  3
10
900.835
20
445.946
30
0.0
11
1256.034
21
445.946
31
0.0
0
LINE
5
1398
8
0-0
6
CONTINUOUS
62
  7
10
977.243
20
484.946
30
0.0
11
977.243
21
371.946
31
0.0
0
LINE
5
1399
8
0-0
6
CONTINUOUS
62
  7
10
977.243
20
371.946
30
0.0
11
993.243
21
371.946
31
0.0
0
LINE
5
139a
8
0-0
6
CONTINUOUS
62
  7
10
993.243
20
465.114
30
0.0
11
993.243
21
371.946
31
0.0
0
LINE
5
139b
8
0-0
6
CONTINUOUS
62
  7
10
977.243
20
788.378
30
0.0
11
1242.243
21
788.378
31
0.0
0
LINE
5
139c
8
0-0
6
CONTINUOUS
62
  7
10
1242.243
20
788.378
30
0.0
11
1242.243
21
1078.379
31
0.0
0
LINE
5
139d
8
0-0
6
CONTINUOUS
62
  7
10
1381.757
20
1078.379
30
0.0
11
1381.757
21
788.378
31
0.0
0
LINE
5
139e
8
0-0
6
CONTINUOUS
62
  7
10
1406.757
20
1078.379
30
0.0
11
1406.757
21
788.378
31
0.0
0
LINE
5
139f
8
0-0
6
CONTINUOUS
62
  7
10
1420.757
20
1078.379
30
0.0
11
1420.757
21
1074.598
31
0.0
0
LINE
5
13a0
8
0-0
6
CONTINUOUS
62
  7
10
1420.757
20
1074.598
30
0.0
11
1420.757
21
788.378
31
0.0
0
LINE
5
13a1
8
0-0
6
CONTINUOUS
62
  7
10
1381.757
20
1078.379
30
0.0
11
1420.757
21
1078.379
31
0.0
0
LINE
5
13a2
8
0-0
6
CONTINUOUS
62
  7
10
1381.757
20
788.378
30
0.0
11
1420.757
21
788.378
31
0.0
0
LINE
5
13a3
8
0-0
6
CONTINUOUS
62
  7
10
646.892
20
1058.379
30
0.0
11
628.892
21
903.378
31
0.0
0
LINE
5
13a4
8
0-0
6
CONTINUOUS
62
  7
10
721.892
20
1058.379
30
0.0
11
646.892
21
1058.379
31
0.0
0
LINE
5
13a5
8
0-0
6
CONTINUOUS
62
  7
10
646.892
20
1281.081
30
0.0
11
741.892
21
1281.081
31
0.0
0
LINE
5
13a6
8
0-0
6
CONTINUOUS
62
  7
10
646.892
20
1135.135
30
0.0
11
646.892
21
1281.081
31
0.0
0
LINE
5
13a7
8
0-0
6
CONTINUOUS
62
  7
10
741.892
20
1135.135
30
0.0
11
741.892
21
1281.081
31
0.0
0
LINE
5
13a8
8
0-0
6
CONTINUOUS
62
  7
10
974.243
20
1058.379
30
0.0
11
977.243
21
788.378
31
0.0
0
LINE
5
13a9
8
0-0
6
CONTINUOUS
62
  7
10
974.243
20
1281.081
30
0.0
11
1242.243
21
1281.081
31
0.0
0
LINE
5
13aa
8
0-0
6
CONTINUOUS
62
  7
10
974.243
20
1135.135
30
0.0
11
974.243
21
1281.081
31
0.0
0
LINE
5
13ab
8
0-0
6
CONTINUOUS
62
  7
10
1242.243
20
1135.135
30
0.0
11
1242.243
21
1281.081
31
0.0
0
LINE
5
13ac
8
0-0
6
CONTINUOUS
62
  7
10
974.243
20
1058.379
30
0.0
11
1004.243
21
1058.379
31
0.0
0
LINE
5
13ad
8
0-0
6
CONTINUOUS
62
  7
10
1004.243
20
1058.379
30
0.0
11
1004.243
21
1078.379
31
0.0
0
LINE
5
13ae
8
0-0
6
CONTINUOUS
62
  7
10
1004.243
20
1078.379
30
0.0
11
1242.243
21
1078.379
31
0.0
0
LINE
5
13af
8
0-0
6
CONTINUOUS
62
  7
10
974.243
20
1224.324
30
0.0
11
1004.243
21
1224.324
31
0.0
0
LINE
5
13b0
8
0-0
6
CONTINUOUS
62
  7
10
974.243
20
1135.135
30
0.0
11
974.243
21
1224.324
31
0.0
0
LINE
5
13b1
8
0-0
6
CONTINUOUS
62
  7
10
1004.243
20
1135.135
30
0.0
11
1004.243
21
1224.324
31
0.0
0
LINE
5
13b2
8
0-0
6
CONTINUOUS
62
  7
10
1004.243
20
1224.324
30
0.0
11
1242.243
21
1224.324
31
0.0
0
LINE
5
13b3
8
0-0
6
CONTINUOUS
62
  7
10
1242.243
20
1135.135
30
0.0
11
1242.243
21
1224.324
31
0.0
0
LINE
5
13b4
8
0-0
6
CONTINUOUS
62
  7
10
1406.757
20
1224.324
30
0.0
11
1420.757
21
1224.324
31
0.0
0
LINE
5
13b5
8
0-0
6
CONTINUOUS
62
  7
10
1406.757
20
1135.135
30
0.0
11
1406.757
21
1224.324
31
0.0
0
LINE
5
13b6
8
0-0
6
CONTINUOUS
62
  7
10
1420.757
20
1135.135
30
0.0
11
1420.757
21
1224.324
31
0.0
0
LINE
5
13b7
8
0-0
6
CONTINUOUS
62
  7
10
977.243
20
616.216
30
0.0
11
1242.243
21
616.216
31
0.0
0
LINE
5
13b8
8
0-0
6
CONTINUOUS
62
  7
10
977.243
20
737.838
30
0.0
11
977.243
21
616.216
31
0.0
0
LINE
5
13b9
8
0-0
6
CONTINUOUS
62
  7
10
1242.243
20
737.838
30
0.0
11
1242.243
21
616.216
31
0.0
0
LINE
5
13ba
8
0-0
6
CONTINUOUS
62
  7
10
348.649
20
1078.379
30
0.0
11
348.649
21
788.378
31
0.0
0
LINE
5
13bb
8
0-0
6
CONTINUOUS
62
  7
10
559.459
20
1078.379
30
0.0
11
348.649
21
1078.379
31
0.0
0
LINE
5
13bc
8
0-0
6
CONTINUOUS
62
  7
10
559.459
20
788.378
30
0.0
11
348.649
21
788.378
31
0.0
0
LINE
5
13bd
8
0-0
6
CONTINUOUS
62
  7
10
417.568
20
1078.378
30
0.0
11
417.568
21
1058.379
31
0.0
0
LINE
5
13be
8
0-0
6
CONTINUOUS
62
  7
10
559.459
20
1078.378
30
0.0
11
417.568
21
1078.378
31
0.0
0
LINE
5
13bf
8
0-0
6
CONTINUOUS
62
  7
10
559.459
20
1058.379
30
0.0
11
417.568
21
1058.379
31
0.0
0
LINE
5
13c0
8
0-0
6
CONTINUOUS
62
  7
10
417.568
20
1058.379
30
0.0
11
417.568
21
903.378
31
0.0
0
LINE
5
13c1
8
0-0
6
CONTINUOUS
62
  7
10
559.459
20
903.378
30
0.0
11
417.568
21
903.378
31
0.0
0
LINE
5
13c2
8
0-0
6
CONTINUOUS
62
  7
10
417.568
20
903.378
30
0.0
11
417.568
21
788.378
31
0.0
0
LINE
5
13c3
8
0-0
6
CONTINUOUS
62
  7
10
559.459
20
788.378
30
0.0
11
417.568
21
788.378
31
0.0
0
LINE
5
13c4
8
0-0
6
CONTINUOUS
62
  7
10
843.243
20
1078.379
30
0.0
11
843.243
21
1058.379
31
0.0
0
LINE
5
13c5
8
0-0
6
CONTINUOUS
62
  7
10
940.541
20
1078.379
30
0.0
11
843.243
21
1078.379
31
0.0
0
LINE
5
13c6
8
0-0
6
CONTINUOUS
62
  7
10
940.541
20
1058.379
30
0.0
11
843.243
21
1058.379
31
0.0
0
LINE
5
13c7
8
0-0
6
CONTINUOUS
62
  7
10
843.243
20
1058.379
30
0.0
11
843.243
21
788.378
31
0.0
0
LINE
5
13c8
8
0-0
6
CONTINUOUS
62
  7
10
940.541
20
788.378
30
0.0
11
843.243
21
788.378
31
0.0
0
LINE
5
13c9
8
0-0
6
CONTINUOUS
62
  7
10
843.243
20
484.946
30
0.0
11
843.243
21
371.946
31
0.0
0
LINE
5
13ca
8
0-0
6
CONTINUOUS
62
  7
10
940.541
20
484.946
30
0.0
11
843.243
21
484.946
31
0.0
0
LINE
5
13cb
8
0-0
6
CONTINUOUS
62
  7
10
940.541
20
371.946
30
0.0
11
843.243
21
371.946
31
0.0
0
LINE
5
13cc
8
0-0
6
CONTINUOUS
62
  7
10
900.000
20
1058.378
30
0.0
11
900.000
21
903.378
31
0.0
0
LINE
5
13cd
8
0-0
6
CONTINUOUS
62
  7
10
940.541
20
1058.378
30
0.0
11
900.000
21
1058.378
31
0.0
0
LINE
5
13ce
8
0-0
6
CONTINUOUS
62
  7
10
940.541
20
903.378
30
0.0
11
900.000
21
903.378
31
0.0
0
LINE
5
13cf
8
0-0
6
CONTINUOUS
62
  7
10
721.892
20
1058.379
30
0.0
11
741.892
21
1058.379
31
0.0
0
LINE
5
13d0
8
0-0
6
CONTINUOUS
62
  7
10
741.892
20
1058.379
30
0.0
11
741.892
21
788.378
31
0.0
0
LINE
5
13d1
8
0-0
6
CONTINUOUS
62
  7
10
723.892
20
903.378
30
0.0
11
628.892
21
903.378
31
0.0
0
LINE
5
13d2
8
0-0
6
CONTINUOUS
62
  7
10
723.892
20
903.378
30
0.0
11
723.892
21
788.378
31
0.0
0
LINE
5
13d3
8
0-0
6
CONTINUOUS
62
  7
10
741.892
20
788.378
30
0.0
11
723.892
21
788.378
31
0.0
0
LINE
5
13d4
8
0-0
6
CONTINUOUS
62
  7
10
741.892
20
616.216
30
0.0
11
628.892
21
616.216
31
0.0
0
LINE
5
13d5
8
0-0
6
CONTINUOUS
62
  7
10
741.892
20
737.838
30
0.0
11
741.892
21
616.216
31
0.0
0
LINE
5
13d6
8
0-0
6
CONTINUOUS
62
  7
10
628.892
20
737.838
30
0.0
11
628.892
21
616.216
31
0.0
0
LINE
5
13d7
8
0-0
6
CONTINUOUS
62
  7
10
628.892
20
660.811
30
0.0
11
723.892
21
660.811
31
0.0
0
LINE
5
13d8
8
0-0
6
CONTINUOUS
62
  7
10
628.892
20
737.838
30
0.0
11
628.892
21
660.811
31
0.0
0
LINE
5
13d9
8
0-0
6
CONTINUOUS
62
  7
10
723.892
20
737.838
30
0.0
11
723.892
21
660.811
31
0.0
0
LINE
5
13da
8
0-0
6
CONTINUOUS
62
  7
10
723.892
20
660.811
30
0.0
11
741.892
21
660.811
31
0.0
0
LINE
5
13db
8
0-0
6
CONTINUOUS
62
  7
10
741.892
20
737.838
30
0.0
11
741.892
21
660.811
31
0.0
0
ARC
5
13dc
8
0-0
6
CONTINUOUS
62
  7
10
1109.743
20
809.572
30
0.0
40
363.626
50
248.630203
51
291.369812
0
ARC
5
13dd
8
0-0
6
CONTINUOUS
62
  7
10
1109.743
20
823.571
30
0.0
40
363.625
50
248.630188
51
290.022278
0
CIRCLE
5
13de
8
ADD_LINE
6
HIDDEN
62
  3
10
993.243
20
445.946
30
0.0
40
3.000
0
CIRCLE
5
13df
8
0-0
6
CONTINUOUS
62
  7
10
1067.243
20
1058.379
30
0.0
40
3.000
0
CIRCLE
5
13e0
8
0-0
6
CONTINUOUS
62
  7
10
1167.243
20
1058.379
30
0.0
40
3.000
0
TEXT
5
13e1
100
AcDbEntity
8
0-0
62
7
100
AcDbText
10
978.993
20
300.959
30
0.0
40
9.750
41
0.800
50
0.000
1
16
100
AcDbText
0
TEXT
5
13e2
100
AcDbEntity
8
0-0
62
7
100
AcDbText
10
1108.368
20
300.959
30
0.0
40
9.750
41
0.800
50
0.000
1
249
100
AcDbText
0
TEXT
5
13e3
100
AcDbEntity
8
0-0
62
7
100
AcDbText
10
688.142
20
1283.581
30
0.0
40
9.750
41
0.800
50
0.000
1
95
100
AcDbText
0
TEXT
5
13e4
100
AcDbEntity
8
0-0
62
7
100
AcDbText
10
1098.868
20
1283.581
30
0.0
40
9.750
41
0.800
50
0.000
1
268
100
AcDbText
0
TEXT
5
13e5
100
AcDbEntity
8
0-0
62
7
100
AcDbText
10
982.993
20
1226.824
30
0.0
40
9.750
41
0.800
50
0.000
1
30
100
AcDbText
0
TEXT
5
13e6
100
AcDbEntity
8
0-0
62
7
100
AcDbText
10
1113.868
20
1226.824
30
0.0
40
9.750
41
0.800
50
0.000
1
238
100
AcDbText
0
TEXT
5
13e7
100
AcDbEntity
8
0-0
62
7
100
AcDbText
10
1407.507
20
1226.824
30
0.0
40
9.750
41
0.800
50
0.000
1
14
100
AcDbText
0
TEXT
5
13e8
100
AcDbEntity
8
0-0
62
7
100
AcDbText
10
1100.368
20
618.716
30
0.0
40
9.750
41
0.800
50
0.000
1
265
100
AcDbText
0
TEXT
5
13e9
100
AcDbEntity
8
0-0
62
7
100
AcDbText
10
346.149
20
924.003
30
0.0
40
9.750
41
0.800
50
90.000
1
290
100
AcDbText
0
TEXT
5
13ea
100
AcDbEntity
8
0-0
62
7
100
AcDbText
10
415.068
20
1062.128
30
0.0
40
9.750
41
0.800
50
90.000
1
20
100
AcDbText
0
TEXT
5
13eb
100
AcDbEntity
8
0-0
62
7
100
AcDbText
10
415.068
20
971.503
30
0.0
40
9.750
41
0.800
50
90.000
1
155
100
AcDbText
0
TEXT
5
13ec
100
AcDbEntity
8
0-0
62
7
100
AcDbText
10
415.068
20
836.503
30
0.0
40
9.750
41
0.800
50
90.000
1
115
100
AcDbText
0
TEXT
5
13ed
100
AcDbEntity
8
0-0
62
7
100
AcDbText
10
840.743
20
1062.128
30
0.0
40
9.750
41
0.800
50
90.000
1
20
100
AcDbText
0
TEXT
5
13ee
100
AcDbEntity
8
0-0
62
7
100
AcDbText
10
840.743
20
914.003
30
0.0
40
9.750
41
0.800
50
90.000
1
270
100
AcDbText
0
TEXT
5
13ef
100
AcDbEntity
8
0-0
62
7
100
AcDbText
10
840.743
20
419.071
30
0.0
40
9.750
41
0.800
50
90.000
1
113
100
AcDbText
0
TEXT
5
13f0
100
AcDbEntity
8
0-0
62
7
100
AcDbText
10
897.500
20
971.503
30
0.0
40
9.750
41
0.800
50
90.000
1
155
100
AcDbText
0
TEXT
5
13f1
100
AcDbEntity
8
0-0
62
7
100
AcDbText
10
676.017
20
618.716
30
0.0
40
9.750
41
0.800
50
0.000
1
113
100
AcDbText
0
TEXT
5
13f2
100
AcDbEntity
8
0-0
62
7
100
AcDbText
10
670.142
20
663.311
30
0.0
40
9.750
41
0.800
50
0.000
1
95
100
AcDbText
0
TEXT
5
13f3
100
AcDbEntity
8
0-0
62
7
100
AcDbText
10
726.642
20
663.311
30
0.0
40
9.750
41
0.800
50
0.000
1
18
100
AcDbText
0
POINT
5
13f4
8
0-0
62
  7
10
977.243
20
298.459
30
0.0
0
POINT
5
13f5
8
0-0
62
  7
10
993.243
20
298.459
30
0.0
0
POINT
5
13f6
8
0-0
62
  7
10
1242.243
20
298.459
30
0.0
0
POINT
5
13f7
8
0-0
62
  7
10
646.892
20
1281.081
30
0.0
0
POINT
5
13f8
8
0-0
62
  7
10
741.892
20
1281.081
30
0.0
0
POINT
5
13f9
8
0-0
62
  7
10
974.243
20
1281.081
30
0.0
0
POINT
5
13fa
8
0-0
62
  7
10
1242.243
20
1281.081
30
0.0
0
POINT
5
13fb
8
0-0
62
  7
10
974.243
20
1224.324
30
0.0
0
POINT
5
13fc
8
0-0
62
  7
10
1004.243
20
1224.324
30
0.0
0
POINT
5
13fd
8
0-0
62
  7
10
1242.243
20
1224.324
30
0.0
0
POINT
5
13fe
8
0-0
62
  7
10
1406.757
20
1224.324
30
0.0
0
POINT
5
13ff
8
0-0
62
  7
10
1420.757
20
1224.324
30
0.0
0
POINT
5
1400
8
0-0
62
  7
10
977.243
20
616.216
30
0.0
0
POINT
5
1401
8
0-0
62
  7
10
1242.243
20
616.216
30
0.0
0
POINT
5
1402
8
0-0
62
  7
10
348.649
20
1078.379
30
0.0
0
POINT
5
1403
8
0-0
62
  7
10
348.649
20
788.378
30
0.0
0
POINT
5
1404
8
0-0
62
  7
10
417.568
20
1078.378
30
0.0
0
POINT
5
1405
8
0-0
62
  7
10
417.568
20
1058.379
30
0.0
0
POINT
5
1406
8
0-0
62
  7
10
417.568
20
903.378
30
0.0
0
POINT
5
1407
8
0-0
62
  7
10
417.568
20
788.378
30
0.0
0
POINT
5
1408
8
0-0
62
  7
10
843.243
20
1078.379
30
0.0
0
POINT
5
1409
8
0-0
62
  7
10
843.243
20
1058.379
30
0.0
0
POINT
5
140a
8
0-0
62
  7
10
843.243
20
788.378
30
0.0
0
POINT
5
140b
8
0-0
62
  7
10
843.243
20
484.946
30
0.0
0
POINT
5
140c
8
0-0
62
  7
10
843.243
20
371.946
30
0.0
0
POINT
5
140d
8
0-0
62
  7
10
900.000
20
1058.378
30
0.0
0
POINT
5
140e
8
0-0
62
  7
10
900.000
20
903.378
30
0.0
0
POINT
5
140f
8
0-0
62
  7
10
741.892
20
616.216
30
0.0
0
POINT
5
1410
8
0-0
62
  7
10
628.892
20
616.216
30
0.0
0
POINT
5
1411
8
0-0
62
  7
10
628.892
20
660.811
30
0.0
0
POINT
5
1412
8
0-0
62
  7
10
723.892
20
660.811
30
0.0
0
POINT
5
1413
8
0-0
62
  7
10
741.892
20
660.811
30
0.0
0
ENDSEC
0
EOF
