0
SECTION
2
HEADER
  9
$EXTMIN
10
0
20
0
30
0
  9
$EXTMAX
10
1331.771
20
1287.635
30
0
  9
$LTSCALE
40
5.000
  9
$DIMSCALE
40
5.000
  9
$PDMODE
70
0
  9
$PDSIZE
40
40
0
ENDSEC
0
SECTION
2
TABLES
0
TABLE
2
LTYPE
70
9
0
LTYPE
5
1f4
2
CONTINUOUS
70
0
3
実線
72
65
73
0
40
0.0
0
LTYPE
5
1f5
2
DOT
70
0
3
--  --  --  --  --  --  --  --     
72
65
73
2
40
5.000
49
1.000
49
-4.000
0
LTYPE
5
1f6
2
DASHED
70
0
3
----    ----    ----    ----    
72
65
73
2
40
5.000
49
2.000
49
-3.000
0
LTYPE
5
1f7
2
DASHED2
70
0
3
------  ------  ------  ------ 
72
65
73
2
40
10.000
49
4.000
49
-6.000
0
LTYPE
5
1f8
2
CENTER
70
0
3
----- - ----- - ----- - ----- - 
72
65
73
4
40
9.000
49
6.000
49
-1.000
49
1.000
49
-1.000
0
LTYPE
5
1f9
2
CENTER2
70
0
3
----------  --  ----------  -- 
72
65
73
4
40
18.000
49
12.000
49
-2.000
49
2.000
49
-2.000
0
LTYPE
5
1fa
2
PHANTOM
70
0
3
--- - - --- - - --- - - --- - -
72
65
73
6
40
10.000
49
5.000
49
-1.000
49
1.000
49
-1.000
49
1.000
49
-1.000
0
LTYPE
5
1fb
2
PHANTOM2
70
0
3
--------  -  -  --------  -  -
72
65
73
6
40
16.000
49
6.000
49
-2.000
49
2.000
49
-2.000
49
2.000
49
-2.000
0
LTYPE
5
1fc
2
HIDDEN
70
0
3
-   -   -   -   -   -   -   -   
72
65
73
2
40
2.500
49
0.500
49
-2.000
0
ENDTAB
0
TABLE
2
STYLE
70
1
0
STYLE
5
1fd
100
AcDbSymbolTableRecord
100
AcDbTextStyleTableRecord
2
STANDARD
70
0
40
0.0
41
1.0
50
0.0
71
0
42
0.0
3
txt.shx
4
extfont.shx
0
STYLE
5
1fe
100
AcDbSymbolTableRecord
100
AcDbTextStyleTableRecord
2
TATEGAKI
70
4
40
0.0
41
1.0
50
0.0
71
0
42
0.0
3
txt.shx
4
extfont.shx
0
STYLE
5
1ff
100
AcDbSymbolTableRecord
100
AcDbTextStyleTableRecord
2
MT
70
0
40
0.0
41
1.0
50
0.0
71
0
42
0.0
3
MS Mincho
4

0
STYLE
5
200
100
AcDbSymbolTableRecord
100
AcDbTextStyleTableRecord
2
TMT
70
4
40
0.0
41
1.0
50
0.0
71
0
42
0.0
3
@MS Mincho
4

0
ENDTAB
0
TABLE
2
LAYER
5
149d
100
AcDbSymbolTable
70
10
0
LAYER
5
149e
100
AcDbSymbolTableRecord
100
AcDbLayerTableRecord
2
0
70
64
62
  7
  6
CONTINUOUS
0
LAYER
5
149f
100
AcDbSymbolTableRecord
100
AcDbLayerTableRecord
2
0-0
70
64
62
  7
  6
CONTINUOUS
0
LAYER
5
14a0
100
AcDbSymbolTableRecord
100
AcDbLayerTableRecord
2
ADD_LINE
70
64
62
  -7
  6
CONTINUOUS
0
ENDTAB
0
ENDSEC
0
SECTION
2
ENTITIES
0
LINE
5
14a1
8
0-0
6
CONTINUOUS
62
  7
10
1311.771
20
1075.892
30
0.0
11
1300.771
21
1075.892
31
0.0
0
LINE
5
14a2
8
0-0
6
CONTINUOUS
62
  7
10
746.162
20
480.892
30
0.0
11
746.162
21
397.892
31
0.0
0
LINE
5
14a3
8
0-0
6
CONTINUOUS
62
  7
10
1006.162
20
480.892
30
0.0
11
1014.162
21
480.892
31
0.0
0
LINE
5
14a4
8
0-0
6
CONTINUOUS
62
  7
10
762.162
20
461.059
30
0.0
11
762.162
21
397.892
31
0.0
0
LINE
5
14a5
8
0-0
6
CONTINUOUS
62
  7
10
1006.162
20
480.892
30
0.0
11
1006.162
21
477.870
31
0.0
0
LINE
5
14a6
8
0-0
6
CONTINUOUS
62
  7
10
746.162
20
294.405
30
0.0
11
762.162
21
294.405
31
0.0
0
LINE
5
14a7
8
0-0
6
CONTINUOUS
62
  7
10
746.162
20
343.054
30
0.0
11
746.162
21
294.405
31
0.0
0
LINE
5
14a8
8
0-0
6
CONTINUOUS
62
  7
10
762.162
20
343.054
30
0.0
11
762.162
21
294.405
31
0.0
0
LINE
5
14a9
8
0-0
6
CONTINUOUS
62
  7
10
762.162
20
294.405
30
0.0
11
1011.162
21
294.405
31
0.0
0
LINE
5
14aa
8
0-0
6
CONTINUOUS
62
  7
10
1011.162
20
343.054
30
0.0
11
1011.162
21
294.405
31
0.0
0
LINE
5
14ab
8
0-0
6
CONTINUOUS
62
  7
10
620.487
20
397.892
30
0.0
11
620.487
21
480.892
31
0.0
0
LINE
5
14ac
8
0-0
6
CONTINUOUS
62
  7
10
705.622
20
397.892
30
0.0
11
620.487
21
397.892
31
0.0
0
LINE
5
14ad
8
0-0
6
CONTINUOUS
62
  7
10
705.622
20
480.892
30
0.0
11
620.487
21
480.892
31
0.0
0
LINE
5
14ae
8
ADD_LINE
6
HIDDEN
62
  3
10
710.294
20
441.892
30
0.0
11
1065.493
21
441.892
31
0.0
0
LINE
5
14af
8
0-0
6
CONTINUOUS
62
  7
10
746.162
20
1070.892
30
0.0
11
762.162
21
1070.892
31
0.0
0
LINE
5
14b0
8
0-0
6
CONTINUOUS
62
  7
10
762.162
20
1075.892
30
0.0
11
1014.162
21
1075.892
31
0.0
0
LINE
5
14b1
8
0-0
6
CONTINUOUS
62
  7
10
762.162
20
1075.892
30
0.0
11
762.162
21
1067.892
31
0.0
0
LINE
5
14b2
8
0-0
6
CONTINUOUS
62
  7
10
762.162
20
1067.892
30
0.0
11
1006.162
21
1067.892
31
0.0
0
LINE
5
14b3
8
0-0
6
CONTINUOUS
62
  7
10
746.162
20
770.892
30
0.0
11
974.162
21
770.892
31
0.0
0
LINE
5
14b4
8
0-0
6
CONTINUOUS
62
  7
10
974.162
20
800.892
30
0.0
11
974.162
21
770.892
31
0.0
0
LINE
5
14b5
8
0-0
6
CONTINUOUS
62
  7
10
974.162
20
800.892
30
0.0
11
1014.162
21
800.892
31
0.0
0
LINE
5
14b6
8
0-0
6
CONTINUOUS
62
  7
10
1014.162
20
800.892
30
0.0
11
1014.162
21
1075.892
31
0.0
0
LINE
5
14b7
8
0-0
6
CONTINUOUS
62
  7
10
1006.162
20
800.892
30
0.0
11
1006.162
21
1067.892
31
0.0
0
LINE
5
14b8
8
0-0
6
CONTINUOUS
62
  7
10
1300.771
20
1067.892
30
0.0
11
1300.771
21
1075.892
31
0.0
0
LINE
5
14b9
8
0-0
6
CONTINUOUS
62
  7
10
1311.771
20
1075.892
30
0.0
11
1311.771
21
1067.892
31
0.0
0
LINE
5
14ba
8
0-0
6
CONTINUOUS
62
  7
10
1300.771
20
1067.892
30
0.0
11
1317.771
21
1067.892
31
0.0
0
LINE
5
14bb
8
0-0
6
CONTINUOUS
62
  7
10
1317.771
20
1067.892
30
0.0
11
1317.771
21
793.892
31
0.0
0
LINE
5
14bc
8
0-0
6
CONTINUOUS
62
  7
10
1317.771
20
797.600
30
0.0
11
1317.771
21
770.892
31
0.0
0
LINE
5
14bd
8
0-0
6
CONTINUOUS
62
  7
10
1292.771
20
770.892
30
0.0
11
1331.771
21
770.892
31
0.0
0
LINE
5
14be
8
0-0
6
CONTINUOUS
62
  7
10
1331.771
20
1075.892
30
0.0
11
1311.771
21
1075.892
31
0.0
0
LINE
5
14bf
8
0-0
6
CONTINUOUS
62
  7
10
1331.771
20
1075.892
30
0.0
11
1331.771
21
770.892
31
0.0
0
LINE
5
14c0
8
0-0
6
CONTINUOUS
62
  7
10
1292.771
20
1070.892
30
0.0
11
1292.771
21
770.892
31
0.0
0
LINE
5
14c1
8
0-0
6
CONTINUOUS
62
  7
10
1292.771
20
1070.892
30
0.0
11
1300.771
21
1070.892
31
0.0
0
LINE
5
14c2
8
0-0
6
CONTINUOUS
62
  7
10
534.750
20
1070.892
30
0.0
11
516.750
21
815.892
31
0.0
0
LINE
5
14c3
8
0-0
6
CONTINUOUS
62
  7
10
519.573
20
855.892
30
0.0
11
599.750
21
855.892
31
0.0
0
LINE
5
14c4
8
0-0
6
CONTINUOUS
62
  7
10
1014.162
20
480.892
30
0.0
11
1014.162
21
466.892
31
0.0
0
LINE
5
14c5
8
0-0
6
CONTINUOUS
62
  7
10
726.162
20
480.892
30
0.0
11
726.162
21
397.892
31
0.0
0
LINE
5
14c6
8
0-0
6
CONTINUOUS
62
  7
10
726.162
20
397.892
30
0.0
11
762.162
21
397.892
31
0.0
0
LINE
5
14c7
8
0-0
6
CONTINUOUS
62
  7
10
726.162
20
480.892
30
0.0
11
746.162
21
480.892
31
0.0
0
LINE
5
14c8
8
0-0
6
CONTINUOUS
62
  7
10
534.750
20
1285.135
30
0.0
11
599.750
21
1285.135
31
0.0
0
LINE
5
14c9
8
0-0
6
CONTINUOUS
62
  7
10
534.750
20
1122.973
30
0.0
11
534.750
21
1285.135
31
0.0
0
LINE
5
14ca
8
0-0
6
CONTINUOUS
62
  7
10
599.750
20
1122.973
30
0.0
11
599.750
21
1285.135
31
0.0
0
LINE
5
14cb
8
0-0
6
CONTINUOUS
62
  7
10
746.162
20
1285.135
30
0.0
11
1014.162
21
1285.135
31
0.0
0
LINE
5
14cc
8
0-0
6
CONTINUOUS
62
  7
10
746.162
20
1122.973
30
0.0
11
746.162
21
1285.135
31
0.0
0
LINE
5
14cd
8
0-0
6
CONTINUOUS
62
  7
10
1014.162
20
1122.973
30
0.0
11
1014.162
21
1285.135
31
0.0
0
LINE
5
14ce
8
0-0
6
CONTINUOUS
62
  7
10
746.162
20
1224.324
30
0.0
11
762.162
21
1224.324
31
0.0
0
LINE
5
14cf
8
0-0
6
CONTINUOUS
62
  7
10
746.162
20
1122.973
30
0.0
11
746.162
21
1224.324
31
0.0
0
LINE
5
14d0
8
0-0
6
CONTINUOUS
62
  7
10
762.162
20
1122.973
30
0.0
11
762.162
21
1224.324
31
0.0
0
LINE
5
14d1
8
0-0
6
CONTINUOUS
62
  7
10
762.162
20
1224.324
30
0.0
11
1014.162
21
1224.324
31
0.0
0
LINE
5
14d2
8
0-0
6
CONTINUOUS
62
  7
10
1014.162
20
1122.973
30
0.0
11
1014.162
21
1224.324
31
0.0
0
LINE
5
14d3
8
0-0
6
CONTINUOUS
62
  7
10
1317.771
20
1224.324
30
0.0
11
1331.771
21
1224.324
31
0.0
0
LINE
5
14d4
8
0-0
6
CONTINUOUS
62
  7
10
1317.771
20
1122.973
30
0.0
11
1317.771
21
1224.324
31
0.0
0
LINE
5
14d5
8
0-0
6
CONTINUOUS
62
  7
10
1331.771
20
1122.973
30
0.0
11
1331.771
21
1224.324
31
0.0
0
LINE
5
14d6
8
0-0
6
CONTINUOUS
62
  7
10
746.162
20
612.162
30
0.0
11
1014.162
21
612.162
31
0.0
0
LINE
5
14d7
8
0-0
6
CONTINUOUS
62
  7
10
746.162
20
725.676
30
0.0
11
746.162
21
612.162
31
0.0
0
LINE
5
14d8
8
0-0
6
CONTINUOUS
62
  7
10
1014.162
20
725.676
30
0.0
11
1014.162
21
612.162
31
0.0
0
LINE
5
14d9
8
0-0
6
CONTINUOUS
62
  7
10
746.162
20
660.811
30
0.0
11
974.162
21
660.811
31
0.0
0
LINE
5
14da
8
0-0
6
CONTINUOUS
62
  7
10
746.162
20
725.676
30
0.0
11
746.162
21
660.811
31
0.0
0
LINE
5
14db
8
0-0
6
CONTINUOUS
62
  7
10
974.162
20
725.676
30
0.0
11
974.162
21
660.811
31
0.0
0
LINE
5
14dc
8
0-0
6
CONTINUOUS
62
  7
10
974.162
20
660.811
30
0.0
11
1014.162
21
660.811
31
0.0
0
LINE
5
14dd
8
0-0
6
CONTINUOUS
62
  7
10
1014.162
20
725.676
30
0.0
11
1014.162
21
660.811
31
0.0
0
LINE
5
14de
8
0-0
6
CONTINUOUS
62
  7
10
726.162
20
294.405
30
0.0
11
746.162
21
294.405
31
0.0
0
LINE
5
14df
8
0-0
6
CONTINUOUS
62
  7
10
726.162
20
343.054
30
0.0
11
726.162
21
294.405
31
0.0
0
LINE
5
14e0
8
0-0
6
CONTINUOUS
62
  7
10
746.162
20
343.054
30
0.0
11
746.162
21
294.405
31
0.0
0
LINE
5
14e1
8
0-0
6
CONTINUOUS
62
  7
10
316.216
20
770.892
30
0.0
11
316.216
21
815.892
31
0.0
0
LINE
5
14e2
8
0-0
6
CONTINUOUS
62
  7
10
445.946
20
770.892
30
0.0
11
316.216
21
770.892
31
0.0
0
LINE
5
14e3
8
0-0
6
CONTINUOUS
62
  7
10
445.946
20
815.892
30
0.0
11
316.216
21
815.892
31
0.0
0
LINE
5
14e4
8
0-0
6
CONTINUOUS
62
  7
10
316.216
20
1070.892
30
0.0
11
316.216
21
815.892
31
0.0
0
LINE
5
14e5
8
0-0
6
CONTINUOUS
62
  7
10
445.946
20
1070.892
30
0.0
11
316.216
21
1070.892
31
0.0
0
LINE
5
14e6
8
0-0
6
CONTINUOUS
62
  7
10
316.216
20
1070.892
30
0.0
11
316.216
21
1075.892
31
0.0
0
LINE
5
14e7
8
0-0
6
CONTINUOUS
62
  7
10
445.946
20
1070.892
30
0.0
11
316.216
21
1070.892
31
0.0
0
LINE
5
14e8
8
0-0
6
CONTINUOUS
62
  7
10
360.490
20
770.892
30
0.0
11
360.490
21
835.892
31
0.0
0
LINE
5
14e9
8
0-0
6
CONTINUOUS
62
  7
10
445.946
20
770.892
30
0.0
11
360.490
21
770.892
31
0.0
0
LINE
5
14ea
8
0-0
6
CONTINUOUS
62
  7
10
445.946
20
835.892
30
0.0
11
360.490
21
835.892
31
0.0
0
LINE
5
14eb
8
0-0
6
CONTINUOUS
62
  7
10
360.490
20
835.892
30
0.0
11
360.490
21
1070.892
31
0.0
0
LINE
5
14ec
8
0-0
6
CONTINUOUS
62
  7
10
445.946
20
1070.892
30
0.0
11
360.490
21
1070.892
31
0.0
0
LINE
5
14ed
8
0-0
6
CONTINUOUS
62
  7
10
699.230
20
815.892
30
0.0
11
699.230
21
855.892
31
0.0
0
LINE
5
14ee
8
0-0
6
CONTINUOUS
62
  7
10
718.131
20
815.892
30
0.0
11
699.230
21
815.892
31
0.0
0
LINE
5
14ef
8
0-0
6
CONTINUOUS
62
  7
10
718.131
20
855.892
30
0.0
11
699.230
21
855.892
31
0.0
0
LINE
5
14f0
8
0-0
6
CONTINUOUS
62
  7
10
1163.514
20
1075.892
30
0.0
11
1163.514
21
770.892
31
0.0
0
LINE
5
14f1
8
0-0
6
CONTINUOUS
62
  7
10
1058.108
20
1075.892
30
0.0
11
1163.514
21
1075.892
31
0.0
0
LINE
5
14f2
8
0-0
6
CONTINUOUS
62
  7
10
1058.108
20
770.892
30
0.0
11
1163.514
21
770.892
31
0.0
0
LINE
5
14f3
8
0-0
6
CONTINUOUS
62
  7
10
1118.919
20
770.892
30
0.0
11
1118.919
21
800.892
31
0.0
0
LINE
5
14f4
8
0-0
6
CONTINUOUS
62
  7
10
1058.108
20
770.892
30
0.0
11
1118.919
21
770.892
31
0.0
0
LINE
5
14f5
8
0-0
6
CONTINUOUS
62
  7
10
1058.108
20
800.892
30
0.0
11
1118.919
21
800.892
31
0.0
0
LINE
5
14f6
8
0-0
6
CONTINUOUS
62
  7
10
1118.919
20
800.892
30
0.0
11
1118.919
21
1075.892
31
0.0
0
LINE
5
14f7
8
0-0
6
CONTINUOUS
62
  7
10
1058.108
20
1075.892
30
0.0
11
1118.919
21
1075.892
31
0.0
0
LINE
5
14f8
8
ADD_LINE
6
HIDDEN
62
  3
10
880.162
20
475.209
30
0.0
11
880.162
21
419.031
31
0.0
0
LINE
5
14f9
8
0-0
6
CONTINUOUS
62
  7
10
534.750
20
1070.892
30
0.0
11
599.750
21
1070.892
31
0.0
0
LINE
5
14fa
8
0-0
6
CONTINUOUS
62
  7
10
599.750
20
1070.892
30
0.0
11
599.750
21
770.892
31
0.0
0
LINE
5
14fb
8
0-0
6
CONTINUOUS
62
  7
10
275.648
20
1070.892
30
0.0
11
275.648
21
770.892
31
0.0
0
LINE
5
14fc
8
0-0
6
CONTINUOUS
62
  7
10
445.946
20
1070.892
30
0.0
11
275.648
21
1070.892
31
0.0
0
LINE
5
14fd
8
0-0
6
CONTINUOUS
62
  7
10
445.946
20
770.892
30
0.0
11
275.648
21
770.892
31
0.0
0
LINE
5
14fe
8
0-0
6
CONTINUOUS
62
  7
10
581.750
20
815.892
30
0.0
11
581.750
21
770.892
31
0.0
0
LINE
5
14ff
8
0-0
6
CONTINUOUS
62
  7
10
599.750
20
770.892
30
0.0
11
581.750
21
770.892
31
0.0
0
LINE
5
1500
8
0-0
6
CONTINUOUS
62
  7
10
516.750
20
815.892
30
0.0
11
599.750
21
815.892
31
0.0
0
LINE
5
1501
8
0-0
6
CONTINUOUS
62
  7
10
516.750
20
612.162
30
0.0
11
599.750
21
612.162
31
0.0
0
LINE
5
1502
8
0-0
6
CONTINUOUS
62
  7
10
516.750
20
725.676
30
0.0
11
516.750
21
612.162
31
0.0
0
LINE
5
1503
8
0-0
6
CONTINUOUS
62
  7
10
599.750
20
725.676
30
0.0
11
599.750
21
612.162
31
0.0
0
LINE
5
1504
8
0-0
6
CONTINUOUS
62
  7
10
516.750
20
660.811
30
0.0
11
581.750
21
660.811
31
0.0
0
LINE
5
1505
8
0-0
6
CONTINUOUS
62
  7
10
516.750
20
725.676
30
0.0
11
516.750
21
660.811
31
0.0
0
LINE
5
1506
8
0-0
6
CONTINUOUS
62
  7
10
581.750
20
725.676
30
0.0
11
581.750
21
660.811
31
0.0
0
LINE
5
1507
8
0-0
6
CONTINUOUS
62
  7
10
581.750
20
660.811
30
0.0
11
599.750
21
660.811
31
0.0
0
LINE
5
1508
8
0-0
6
CONTINUOUS
62
  7
10
599.750
20
725.676
30
0.0
11
599.750
21
660.811
31
0.0
0
LINE
5
1509
8
0-0
6
CONTINUOUS
62
  7
10
746.162
20
770.892
30
0.0
11
746.162
21
1070.892
31
0.0
0
CIRCLE
5
150a
8
ADD_LINE
6
HIDDEN
62
  3
10
762.162
20
441.892
30
0.0
40
3.000
0
CIRCLE
5
150b
8
0-0
6
CONTINUOUS
62
  7
10
825.162
20
1055.892
30
0.0
40
3.000
0
CIRCLE
5
150c
8
0-0
6
CONTINUOUS
62
  7
10
925.162
20
1055.892
30
0.0
40
3.000
0
CIRCLE
5
150d
8
0-0
6
CONTINUOUS
62
  7
10
776.162
20
840.892
30
0.0
40
3.000
0
CIRCLE
5
150e
8
0-0
6
CONTINUOUS
62
  7
10
776.162
20
860.892
30
0.0
40
3.000
0
ARC
5
150f
8
0-0
6
CONTINUOUS
62
  7
10
746.162
20
835.892
30
0.0
40
20.000
50
90.000000
51
270.000000
0
ARC
5
1510
8
0-0
6
CONTINUOUS
62
  7
10
880.162
20
813.513
30
0.0
40
371.621
50
248.864014
51
291.135986
0
ARC
5
1511
8
0-0
6
CONTINUOUS
62
  7
10
880.162
20
827.559
30
0.0
40
371.664
50
248.866592
51
289.816956
0
TEXT
5
1512
100
AcDbEntity
8
0-0
62
7
100
AcDbText
10
747.912
20
296.905
30
0.0
40
9.750
41
0.800
50
0.000
1
16
100
AcDbText
0
TEXT
5
1513
100
AcDbEntity
8
0-0
62
7
100
AcDbText
10
877.287
20
296.905
30
0.0
40
9.750
41
0.800
50
0.000
1
249
100
AcDbText
0
TEXT
5
1514
100
AcDbEntity
8
0-0
62
7
100
AcDbText
10
617.987
20
433.142
30
0.0
40
9.750
41
0.800
50
90.000
1
83
100
AcDbText
0
TEXT
5
1515
100
AcDbEntity
8
0-0
62
7
100
AcDbText
10
561.000
20
1287.635
30
0.0
40
9.750
41
0.800
50
0.000
1
65
100
AcDbText
0
TEXT
5
1516
100
AcDbEntity
8
0-0
62
7
100
AcDbText
10
870.787
20
1287.635
30
0.0
40
9.750
41
0.800
50
0.000
1
268
100
AcDbText
0
TEXT
5
1517
100
AcDbEntity
8
0-0
62
7
100
AcDbText
10
747.912
20
1226.824
30
0.0
40
9.750
41
0.800
50
0.000
1
16
100
AcDbText
0
TEXT
5
1518
100
AcDbEntity
8
0-0
62
7
100
AcDbText
10
878.787
20
1226.824
30
0.0
40
9.750
41
0.800
50
0.000
1
252
100
AcDbText
0
TEXT
5
1519
100
AcDbEntity
8
0-0
62
7
100
AcDbText
10
1318.521
20
1226.824
30
0.0
40
9.750
41
0.800
50
0.000
1
14
100
AcDbText
0
TEXT
5
151a
100
AcDbEntity
8
0-0
62
7
100
AcDbText
10
870.787
20
614.662
30
0.0
40
9.750
41
0.800
50
0.000
1
268
100
AcDbText
0
TEXT
5
151b
100
AcDbEntity
8
0-0
62
7
100
AcDbText
10
850.787
20
663.311
30
0.0
40
9.750
41
0.800
50
0.000
1
228
100
AcDbText
0
TEXT
5
151c
100
AcDbEntity
8
0-0
62
7
100
AcDbText
10
987.912
20
663.311
30
0.0
40
9.750
41
0.800
50
0.000
1
40
100
AcDbText
0
TEXT
5
151d
100
AcDbEntity
8
0-0
62
7
100
AcDbText
10
729.912
20
296.905
30
0.0
40
9.750
41
0.800
50
0.000
1
20
100
AcDbText
0
TEXT
5
151e
100
AcDbEntity
8
0-0
62
7
100
AcDbText
10
313.716
20
787.142
30
0.0
40
9.750
41
0.800
50
90.000
1
45
100
AcDbText
0
TEXT
5
151f
100
AcDbEntity
8
0-0
62
7
100
AcDbText
10
313.716
20
934.017
30
0.0
40
9.750
41
0.800
50
90.000
1
255
100
AcDbText
0
TEXT
5
1520
100
AcDbEntity
8
0-0
62
7
100
AcDbText
10
357.990
20
797.142
30
0.0
40
9.750
41
0.800
50
90.000
1
65
100
AcDbText
0
TEXT
5
1521
100
AcDbEntity
8
0-0
62
7
100
AcDbText
10
357.990
20
944.017
30
0.0
40
9.750
41
0.800
50
90.000
1
235
100
AcDbText
0
TEXT
5
1522
100
AcDbEntity
8
0-0
62
7
100
AcDbText
10
696.730
20
829.642
30
0.0
40
9.750
41
0.800
50
90.000
1
40
100
AcDbText
0
TEXT
5
1523
100
AcDbEntity
8
0-0
62
7
100
AcDbText
10
1161.014
20
914.017
30
0.0
40
9.750
41
0.800
50
90.000
1
305
100
AcDbText
0
TEXT
5
1524
100
AcDbEntity
8
0-0
62
7
100
AcDbText
10
1116.419
20
779.642
30
0.0
40
9.750
41
0.800
50
90.000
1
30
100
AcDbText
0
TEXT
5
1525
100
AcDbEntity
8
0-0
62
7
100
AcDbText
10
1116.419
20
929.017
30
0.0
40
9.750
41
0.800
50
90.000
1
275
100
AcDbText
0
TEXT
5
1526
100
AcDbEntity
8
0-0
62
7
100
AcDbText
10
273.148
20
911.517
30
0.0
40
9.750
41
0.800
50
90.000
1
300
100
AcDbText
0
TEXT
5
1527
100
AcDbEntity
8
0-0
62
7
100
AcDbText
10
552.000
20
614.662
30
0.0
40
9.750
41
0.800
50
0.000
1
83
100
AcDbText
0
TEXT
5
1528
100
AcDbEntity
8
0-0
62
7
100
AcDbText
10
543.000
20
663.311
30
0.0
40
9.750
41
0.800
50
0.000
1
65
100
AcDbText
0
TEXT
5
1529
100
AcDbEntity
8
0-0
62
7
100
AcDbText
10
584.500
20
663.311
30
0.0
40
9.750
41
0.800
50
0.000
1
18
100
AcDbText
0
POINT
5
152a
8
0-0
62
  7
10
746.162
20
294.405
30
0.0
0
POINT
5
152b
8
0-0
62
  7
10
762.162
20
294.405
30
0.0
0
POINT
5
152c
8
0-0
62
  7
10
1011.162
20
294.405
30
0.0
0
POINT
5
152d
8
0-0
62
  7
10
620.487
20
397.892
30
0.0
0
POINT
5
152e
8
0-0
62
  7
10
620.487
20
480.892
30
0.0
0
POINT
5
152f
8
0-0
62
  7
10
534.750
20
1285.135
30
0.0
0
POINT
5
1530
8
0-0
62
  7
10
599.750
20
1285.135
30
0.0
0
POINT
5
1531
8
0-0
62
  7
10
746.162
20
1285.135
30
0.0
0
POINT
5
1532
8
0-0
62
  7
10
1014.162
20
1285.135
30
0.0
0
POINT
5
1533
8
0-0
62
  7
10
746.162
20
1224.324
30
0.0
0
POINT
5
1534
8
0-0
62
  7
10
762.162
20
1224.324
30
0.0
0
POINT
5
1535
8
0-0
62
  7
10
1014.162
20
1224.324
30
0.0
0
POINT
5
1536
8
0-0
62
  7
10
1317.771
20
1224.324
30
0.0
0
POINT
5
1537
8
0-0
62
  7
10
1331.771
20
1224.324
30
0.0
0
POINT
5
1538
8
0-0
62
  7
10
746.162
20
612.162
30
0.0
0
POINT
5
1539
8
0-0
62
  7
10
1014.162
20
612.162
30
0.0
0
POINT
5
153a
8
0-0
62
  7
10
746.162
20
660.811
30
0.0
0
POINT
5
153b
8
0-0
62
  7
10
974.162
20
660.811
30
0.0
0
POINT
5
153c
8
0-0
62
  7
10
1014.162
20
660.811
30
0.0
0
POINT
5
153d
8
0-0
62
  7
10
726.162
20
294.405
30
0.0
0
POINT
5
153e
8
0-0
62
  7
10
746.162
20
294.405
30
0.0
0
POINT
5
153f
8
0-0
62
  7
10
316.216
20
770.892
30
0.0
0
POINT
5
1540
8
0-0
62
  7
10
316.216
20
815.892
30
0.0
0
POINT
5
1541
8
0-0
62
  7
10
316.216
20
1070.892
30
0.0
0
POINT
5
1542
8
0-0
62
  7
10
316.216
20
1070.892
30
0.0
0
POINT
5
1543
8
0-0
62
  7
10
360.490
20
770.892
30
0.0
0
POINT
5
1544
8
0-0
62
  7
10
360.490
20
835.892
30
0.0
0
POINT
5
1545
8
0-0
62
  7
10
360.490
20
1070.892
30
0.0
0
POINT
5
1546
8
0-0
62
  7
10
699.230
20
815.892
30
0.0
0
POINT
5
1547
8
0-0
62
  7
10
699.230
20
855.892
30
0.0
0
POINT
5
1548
8
0-0
62
  7
10
1163.514
20
1075.892
30
0.0
0
POINT
5
1549
8
0-0
62
  7
10
1163.514
20
770.892
30
0.0
0
POINT
5
154a
8
0-0
62
  7
10
1118.919
20
770.892
30
0.0
0
POINT
5
154b
8
0-0
62
  7
10
1118.919
20
800.892
30
0.0
0
POINT
5
154c
8
0-0
62
  7
10
1118.919
20
1075.892
30
0.0
0
POINT
5
154d
8
0-0
62
  7
10
275.648
20
1070.892
30
0.0
0
POINT
5
154e
8
0-0
62
  7
10
275.648
20
770.892
30
0.0
0
POINT
5
154f
8
0-0
62
  7
10
516.750
20
612.162
30
0.0
0
POINT
5
1550
8
0-0
62
  7
10
599.750
20
612.162
30
0.0
0
POINT
5
1551
8
0-0
62
  7
10
516.750
20
660.811
30
0.0
0
POINT
5
1552
8
0-0
62
  7
10
581.750
20
660.811
30
0.0
0
POINT
5
1553
8
0-0
62
  7
10
599.750
20
660.811
30
0.0
0
ENDSEC
0
EOF
