0
SECTION
2
HEADER
  9
$EXTMIN
10
0
20
0
30
0
  9
$EXTMAX
10
1685.195
20
1205.473
30
0
  9
$LTSCALE
40
5.000
  9
$DIMSCALE
40
5.000
  9
$PDMODE
70
0
  9
$PDSIZE
40
40
0
ENDSEC
0
SECTION
2
TABLES
0
TABLE
2
LTYPE
70
9
0
LTYPE
5
1f4
2
CONTINUOUS
70
0
3
実線
72
65
73
0
40
0.0
0
LTYPE
5
1f5
2
DOT
70
0
3
--  --  --  --  --  --  --  --     
72
65
73
2
40
5.000
49
1.000
49
-4.000
0
LTYPE
5
1f6
2
DASHED
70
0
3
----    ----    ----    ----    
72
65
73
2
40
5.000
49
2.000
49
-3.000
0
LTYPE
5
1f7
2
DASHED2
70
0
3
------  ------  ------  ------ 
72
65
73
2
40
10.000
49
4.000
49
-6.000
0
LTYPE
5
1f8
2
CENTER
70
0
3
----- - ----- - ----- - ----- - 
72
65
73
4
40
9.000
49
6.000
49
-1.000
49
1.000
49
-1.000
0
LTYPE
5
1f9
2
CENTER2
70
0
3
----------  --  ----------  -- 
72
65
73
4
40
18.000
49
12.000
49
-2.000
49
2.000
49
-2.000
0
LTYPE
5
1fa
2
PHANTOM
70
0
3
--- - - --- - - --- - - --- - -
72
65
73
6
40
10.000
49
5.000
49
-1.000
49
1.000
49
-1.000
49
1.000
49
-1.000
0
LTYPE
5
1fb
2
PHANTOM2
70
0
3
--------  -  -  --------  -  -
72
65
73
6
40
16.000
49
6.000
49
-2.000
49
2.000
49
-2.000
49
2.000
49
-2.000
0
LTYPE
5
1fc
2
HIDDEN
70
0
3
-   -   -   -   -   -   -   -   
72
65
73
2
40
2.500
49
0.500
49
-2.000
0
ENDTAB
0
TABLE
2
STYLE
70
1
0
STYLE
5
1fd
100
AcDbSymbolTableRecord
100
AcDbTextStyleTableRecord
2
STANDARD
70
0
40
0.0
41
1.0
50
0.0
71
0
42
0.0
3
txt.shx
4
extfont.shx
0
STYLE
5
1fe
100
AcDbSymbolTableRecord
100
AcDbTextStyleTableRecord
2
TATEGAKI
70
4
40
0.0
41
1.0
50
0.0
71
0
42
0.0
3
txt.shx
4
extfont.shx
0
STYLE
5
1ff
100
AcDbSymbolTableRecord
100
AcDbTextStyleTableRecord
2
MT
70
0
40
0.0
41
1.0
50
0.0
71
0
42
0.0
3
MS Mincho
4

0
STYLE
5
200
100
AcDbSymbolTableRecord
100
AcDbTextStyleTableRecord
2
TMT
70
4
40
0.0
41
1.0
50
0.0
71
0
42
0.0
3
@MS Mincho
4

0
ENDTAB
0
TABLE
2
LAYER
5
1f91
100
AcDbSymbolTable
70
10
0
LAYER
5
1f92
100
AcDbSymbolTableRecord
100
AcDbLayerTableRecord
2
0
70
64
62
  7
  6
CONTINUOUS
0
LAYER
5
1f93
100
AcDbSymbolTableRecord
100
AcDbLayerTableRecord
2
0-0
70
64
62
  7
  6
CONTINUOUS
0
LAYER
5
1f94
100
AcDbSymbolTableRecord
100
AcDbLayerTableRecord
2
ADD_LINE
70
64
62
  -7
  6
CONTINUOUS
0
ENDTAB
0
ENDSEC
0
SECTION
2
ENTITIES
0
LINE
5
1f95
8
0-0
6
CONTINUOUS
62
  7
10
868.851
20
1044.865
30
0.0
11
868.851
21
754.865
31
0.0
0
LINE
5
1f96
8
0-0
6
CONTINUOUS
62
  7
10
868.851
20
754.865
30
0.0
11
1133.851
21
754.865
31
0.0
0
LINE
5
1f97
8
0-0
6
CONTINUOUS
62
  7
10
868.851
20
1044.865
30
0.0
11
1116.851
21
1044.865
31
0.0
0
LINE
5
1f98
8
0-0
6
CONTINUOUS
62
  7
10
1116.851
20
1044.865
30
0.0
11
1116.851
21
1039.865
31
0.0
0
LINE
5
1f99
8
0-0
6
CONTINUOUS
62
  7
10
1136.800
20
1039.865
30
0.0
11
1133.851
21
754.865
31
0.0
0
LINE
5
1f9a
8
0-0
6
CONTINUOUS
62
  7
10
868.851
20
505.676
30
0.0
11
868.851
21
455.676
31
0.0
0
LINE
5
1f9b
8
0-0
6
CONTINUOUS
62
  7
10
1133.851
20
505.676
30
0.0
11
1133.851
21
455.676
31
0.0
0
LINE
5
1f9c
8
0-0
6
CONTINUOUS
62
  7
10
1133.851
20
455.676
30
0.0
11
1133.851
21
385.676
31
0.0
0
LINE
5
1f9d
8
0-0
6
CONTINUOUS
62
  7
10
1115.851
20
385.676
30
0.0
11
1133.851
21
385.676
31
0.0
0
LINE
5
1f9e
8
0-0
6
CONTINUOUS
62
  7
10
1115.851
20
447.780
30
0.0
11
1115.851
21
385.676
31
0.0
0
LINE
5
1f9f
8
0-0
6
CONTINUOUS
62
  7
10
1468.851
20
1039.865
30
0.0
11
1563.851
21
1039.865
31
0.0
0
LINE
5
1fa0
8
0-0
6
CONTINUOUS
62
  7
10
1563.851
20
1039.865
30
0.0
11
1588.851
21
834.865
31
0.0
0
LINE
5
1fa1
8
0-0
6
CONTINUOUS
62
  7
10
1468.851
20
754.865
30
0.0
11
1509.851
21
754.865
31
0.0
0
LINE
5
1fa2
8
0-0
6
CONTINUOUS
62
  7
10
1554.251
20
892.845
30
0.0
11
1554.133
21
892.491
31
0.0
0
LINE
5
1fa3
8
0-0
6
CONTINUOUS
62
  7
10
1506.743
20
834.168
30
0.0
11
1506.884
21
833.457
31
0.0
0
LINE
5
1fa4
8
0-0
6
CONTINUOUS
62
  7
10
1506.884
20
833.457
30
0.0
11
1506.903
21
832.803
31
0.0
0
LINE
5
1fa5
8
0-0
6
CONTINUOUS
62
  7
10
1506.903
20
832.803
30
0.0
11
1506.799
21
832.209
31
0.0
0
LINE
5
1fa6
8
0-0
6
CONTINUOUS
62
  7
10
1506.799
20
832.209
30
0.0
11
1506.702
21
831.959
31
0.0
0
LINE
5
1fa7
8
0-0
6
CONTINUOUS
62
  7
10
1506.702
20
831.959
30
0.0
11
1506.541
21
831.690
31
0.0
0
LINE
5
1fa8
8
0-0
6
CONTINUOUS
62
  7
10
1506.541
20
831.690
30
0.0
11
1506.073
21
831.196
31
0.0
0
LINE
5
1fa9
8
0-0
6
CONTINUOUS
62
  7
10
1506.073
20
831.196
30
0.0
11
1505.442
21
830.766
31
0.0
0
LINE
5
1faa
8
0-0
6
CONTINUOUS
62
  7
10
1505.442
20
830.766
30
0.0
11
1504.653
21
830.389
31
0.0
0
LINE
5
1fab
8
0-0
6
CONTINUOUS
62
  7
10
1504.653
20
830.389
30
0.0
11
1504.170
21
830.208
31
0.0
0
LINE
5
1fac
8
0-0
6
CONTINUOUS
62
  7
10
1504.170
20
830.208
30
0.0
11
1503.603
21
830.033
31
0.0
0
LINE
5
1fad
8
0-0
6
CONTINUOUS
62
  7
10
1503.603
20
830.033
30
0.0
11
1502.612
21
829.825
31
0.0
0
LINE
5
1fae
8
0-0
6
CONTINUOUS
62
  7
10
1502.612
20
829.825
30
0.0
11
1501.710
21
829.776
31
0.0
0
LINE
5
1faf
8
0-0
6
CONTINUOUS
62
  7
10
1501.710
20
829.776
30
0.0
11
1500.911
21
829.897
31
0.0
0
LINE
5
1fb0
8
0-0
6
CONTINUOUS
62
  7
10
1500.911
20
829.897
30
0.0
11
1500.572
21
830.026
31
0.0
0
LINE
5
1fb1
8
0-0
6
CONTINUOUS
62
  7
10
1500.572
20
830.026
30
0.0
11
1500.150
21
830.294
31
0.0
0
LINE
5
1fb2
8
0-0
6
CONTINUOUS
62
  7
10
1500.150
20
830.294
30
0.0
11
1499.422
21
831.083
31
0.0
0
LINE
5
1fb3
8
0-0
6
CONTINUOUS
62
  7
10
1499.422
20
831.083
30
0.0
11
1498.816
21
832.152
31
0.0
0
LINE
5
1fb4
8
0-0
6
CONTINUOUS
62
  7
10
1498.816
20
832.152
30
0.0
11
1498.328
21
833.420
31
0.0
0
LINE
5
1fb5
8
0-0
6
CONTINUOUS
62
  7
10
1498.328
20
833.420
30
0.0
11
1498.106
21
834.172
31
0.0
0
LINE
5
1fb6
8
0-0
6
CONTINUOUS
62
  7
10
1498.106
20
834.172
30
0.0
11
1497.928
21
834.893
31
0.0
0
LINE
5
1fb7
8
0-0
6
CONTINUOUS
62
  7
10
1497.928
20
834.893
30
0.0
11
1497.700
21
836.131
31
0.0
0
LINE
5
1fb8
8
0-0
6
CONTINUOUS
62
  7
10
1497.700
20
836.131
30
0.0
11
1497.563
21
837.348
31
0.0
0
LINE
5
1fb9
8
0-0
6
CONTINUOUS
62
  7
10
1497.563
20
837.348
30
0.0
11
1497.505
21
838.582
31
0.0
0
LINE
5
1fba
8
0-0
6
CONTINUOUS
62
  7
10
1497.505
20
838.582
30
0.0
11
1497.503
21
839.306
31
0.0
0
LINE
5
1fbb
8
0-0
6
CONTINUOUS
62
  7
10
1497.503
20
839.306
30
0.0
11
1497.508
21
839.612
31
0.0
0
LINE
5
1fbc
8
0-0
6
CONTINUOUS
62
  7
10
1497.508
20
839.612
30
0.0
11
1497.532
21
840.140
31
0.0
0
LINE
5
1fbd
8
0-0
6
CONTINUOUS
62
  7
10
1497.532
20
840.140
30
0.0
11
1497.585
21
840.636
31
0.0
0
LINE
5
1fbe
8
0-0
6
CONTINUOUS
62
  7
10
1497.585
20
840.636
30
0.0
11
1497.677
21
841.106
31
0.0
0
LINE
5
1fbf
8
0-0
6
CONTINUOUS
62
  7
10
1497.677
20
841.106
30
0.0
11
1497.745
21
841.345
31
0.0
0
LINE
5
1fc0
8
0-0
6
CONTINUOUS
62
  7
10
1497.745
20
841.345
30
0.0
11
1497.817
21
841.543
31
0.0
0
LINE
5
1fc1
8
0-0
6
CONTINUOUS
62
  7
10
1497.817
20
841.543
30
0.0
11
1497.988
21
841.925
31
0.0
0
LINE
5
1fc2
8
0-0
6
CONTINUOUS
62
  7
10
1497.988
20
841.925
30
0.0
11
1498.193
21
842.312
31
0.0
0
LINE
5
1fc3
8
0-0
6
CONTINUOUS
62
  7
10
1498.193
20
842.312
30
0.0
11
1498.428
21
842.720
31
0.0
0
LINE
5
1fc4
8
0-0
6
CONTINUOUS
62
  7
10
1498.428
20
842.720
30
0.0
11
1498.561
21
842.946
31
0.0
0
LINE
5
1fc5
8
0-0
6
CONTINUOUS
62
  7
10
1498.561
20
842.946
30
0.0
11
1498.701
21
843.184
31
0.0
0
LINE
5
1fc6
8
0-0
6
CONTINUOUS
62
  7
10
1498.701
20
843.184
30
0.0
11
1498.929
21
843.568
31
0.0
0
LINE
5
1fc7
8
0-0
6
CONTINUOUS
62
  7
10
1498.929
20
843.568
30
0.0
11
1499.152
21
843.922
31
0.0
0
LINE
5
1fc8
8
0-0
6
CONTINUOUS
62
  7
10
1499.152
20
843.922
30
0.0
11
1499.380
21
844.253
31
0.0
0
LINE
5
1fc9
8
0-0
6
CONTINUOUS
62
  7
10
1499.380
20
844.253
30
0.0
11
1499.510
21
844.423
31
0.0
0
LINE
5
1fca
8
0-0
6
CONTINUOUS
62
  7
10
1499.510
20
844.423
30
0.0
11
1499.656
21
844.597
31
0.0
0
LINE
5
1fcb
8
0-0
6
CONTINUOUS
62
  7
10
1499.656
20
844.597
30
0.0
11
1499.940
21
844.899
31
0.0
0
LINE
5
1fcc
8
0-0
6
CONTINUOUS
62
  7
10
1499.940
20
844.899
30
0.0
11
1500.248
21
845.185
31
0.0
0
LINE
5
1fcd
8
0-0
6
CONTINUOUS
62
  7
10
1500.248
20
845.185
30
0.0
11
1500.582
21
845.463
31
0.0
0
LINE
5
1fce
8
0-0
6
CONTINUOUS
62
  7
10
1500.582
20
845.463
30
0.0
11
1500.773
21
845.610
31
0.0
0
LINE
5
1fcf
8
0-0
6
CONTINUOUS
62
  7
10
1500.773
20
845.610
30
0.0
11
1501.229
21
845.930
31
0.0
0
LINE
5
1fd0
8
0-0
6
CONTINUOUS
62
  7
10
1501.229
20
845.930
30
0.0
11
1502.069
21
846.428
31
0.0
0
LINE
5
1fd1
8
0-0
6
CONTINUOUS
62
  7
10
1502.069
20
846.428
30
0.0
11
1502.937
21
846.832
31
0.0
0
LINE
5
1fd2
8
0-0
6
CONTINUOUS
62
  7
10
1502.937
20
846.832
30
0.0
11
1503.847
21
847.144
31
0.0
0
LINE
5
1fd3
8
0-0
6
CONTINUOUS
62
  7
10
1503.847
20
847.144
30
0.0
11
1504.373
21
847.276
31
0.0
0
LINE
5
1fd4
8
0-0
6
CONTINUOUS
62
  7
10
1504.373
20
847.276
30
0.0
11
1504.649
21
847.330
31
0.0
0
LINE
5
1fd5
8
0-0
6
CONTINUOUS
62
  7
10
1504.649
20
847.330
30
0.0
11
1505.168
21
847.414
31
0.0
0
LINE
5
1fd6
8
0-0
6
CONTINUOUS
62
  7
10
1505.168
20
847.414
30
0.0
11
1505.716
21
847.492
31
0.0
0
LINE
5
1fd7
8
0-0
6
CONTINUOUS
62
  7
10
1505.716
20
847.492
30
0.0
11
1506.275
21
847.575
31
0.0
0
LINE
5
1fd8
8
0-0
6
CONTINUOUS
62
  7
10
1506.275
20
847.575
30
0.0
11
1506.617
21
847.633
31
0.0
0
LINE
5
1fd9
8
0-0
6
CONTINUOUS
62
  7
10
1506.617
20
847.633
30
0.0
11
1506.995
21
847.707
31
0.0
0
LINE
5
1fda
8
0-0
6
CONTINUOUS
62
  7
10
1506.995
20
847.707
30
0.0
11
1507.604
21
847.839
31
0.0
0
LINE
5
1fdb
8
0-0
6
CONTINUOUS
62
  7
10
1507.604
20
847.839
30
0.0
11
1508.189
21
847.962
31
0.0
0
LINE
5
1fdc
8
0-0
6
CONTINUOUS
62
  7
10
1508.189
20
847.962
30
0.0
11
1508.746
21
848.056
31
0.0
0
LINE
5
1fdd
8
0-0
6
CONTINUOUS
62
  7
10
1508.746
20
848.056
30
0.0
11
1509.046
21
848.089
31
0.0
0
LINE
5
1fde
8
0-0
6
CONTINUOUS
62
  7
10
1509.046
20
848.089
30
0.0
11
1509.281
21
848.103
31
0.0
0
LINE
5
1fdf
8
0-0
6
CONTINUOUS
62
  7
10
1509.281
20
848.103
30
0.0
11
1509.725
21
848.106
31
0.0
0
LINE
5
1fe0
8
0-0
6
CONTINUOUS
62
  7
10
1509.725
20
848.106
30
0.0
11
1510.179
21
848.086
31
0.0
0
LINE
5
1fe1
8
0-0
6
CONTINUOUS
62
  7
10
1510.179
20
848.086
30
0.0
11
1510.660
21
848.049
31
0.0
0
LINE
5
1fe2
8
0-0
6
CONTINUOUS
62
  7
10
1510.660
20
848.049
30
0.0
11
1510.945
21
848.023
31
0.0
0
LINE
5
1fe3
8
0-0
6
CONTINUOUS
62
  7
10
1510.945
20
848.023
30
0.0
11
1511.229
21
847.996
31
0.0
0
LINE
5
1fe4
8
0-0
6
CONTINUOUS
62
  7
10
1511.229
20
847.996
30
0.0
11
1511.716
21
847.940
31
0.0
0
LINE
5
1fe5
8
0-0
6
CONTINUOUS
62
  7
10
1511.716
20
847.940
30
0.0
11
1512.160
21
847.866
31
0.0
0
LINE
5
1fe6
8
0-0
6
CONTINUOUS
62
  7
10
1512.160
20
847.866
30
0.0
11
1512.573
21
847.761
31
0.0
0
LINE
5
1fe7
8
0-0
6
CONTINUOUS
62
  7
10
1512.573
20
847.761
30
0.0
11
1512.764
21
847.695
31
0.0
0
LINE
5
1fe8
8
0-0
6
CONTINUOUS
62
  7
10
1512.764
20
847.695
30
0.0
11
1513.065
21
847.557
31
0.0
0
LINE
5
1fe9
8
0-0
6
CONTINUOUS
62
  7
10
1513.065
20
847.557
30
0.0
11
1513.610
21
847.213
31
0.0
0
LINE
5
1fea
8
0-0
6
CONTINUOUS
62
  7
10
1513.610
20
847.213
30
0.0
11
1514.140
21
846.774
31
0.0
0
LINE
5
1feb
8
0-0
6
CONTINUOUS
62
  7
10
1514.140
20
846.774
30
0.0
11
1514.676
21
846.251
31
0.0
0
LINE
5
1fec
8
0-0
6
CONTINUOUS
62
  7
10
1514.676
20
846.251
30
0.0
11
1514.983
21
845.930
31
0.0
0
LINE
5
1fed
8
0-0
6
CONTINUOUS
62
  7
10
1514.983
20
845.930
30
0.0
11
1515.429
21
845.449
31
0.0
0
LINE
5
1fee
8
0-0
6
CONTINUOUS
62
  7
10
1515.429
20
845.449
30
0.0
11
1516.170
21
844.609
31
0.0
0
LINE
5
1fef
8
0-0
6
CONTINUOUS
62
  7
10
1516.170
20
844.609
30
0.0
11
1516.860
21
843.759
31
0.0
0
LINE
5
1ff0
8
0-0
6
CONTINUOUS
62
  7
10
1516.860
20
843.759
30
0.0
11
1517.498
21
842.885
31
0.0
0
LINE
5
1ff1
8
0-0
6
CONTINUOUS
62
  7
10
1517.498
20
842.885
30
0.0
11
1517.837
21
842.371
31
0.0
0
LINE
5
1ff2
8
0-0
6
CONTINUOUS
62
  7
10
1517.837
20
842.371
30
0.0
11
1518.109
21
841.927
31
0.0
0
LINE
5
1ff3
8
0-0
6
CONTINUOUS
62
  7
10
1518.109
20
841.927
30
0.0
11
1518.567
21
841.123
31
0.0
0
LINE
5
1ff4
8
0-0
6
CONTINUOUS
62
  7
10
1518.567
20
841.123
30
0.0
11
1519.018
21
840.296
31
0.0
0
LINE
5
1ff5
8
0-0
6
CONTINUOUS
62
  7
10
1519.018
20
840.296
30
0.0
11
1519.490
21
839.433
31
0.0
0
LINE
5
1ff6
8
0-0
6
CONTINUOUS
62
  7
10
1519.490
20
839.433
30
0.0
11
1519.775
21
838.935
31
0.0
0
LINE
5
1ff7
8
0-0
6
CONTINUOUS
62
  7
10
1519.775
20
838.935
30
0.0
11
1520.114
21
838.368
31
0.0
0
LINE
5
1ff8
8
0-0
6
CONTINUOUS
62
  7
10
1520.114
20
838.368
30
0.0
11
1520.696
21
837.419
31
0.0
0
LINE
5
1ff9
8
0-0
6
CONTINUOUS
62
  7
10
1520.696
20
837.419
30
0.0
11
1521.241
21
836.493
31
0.0
0
LINE
5
1ffa
8
0-0
6
CONTINUOUS
62
  7
10
1521.241
20
836.493
30
0.0
11
1521.712
21
835.569
31
0.0
0
LINE
5
1ffb
8
0-0
6
CONTINUOUS
62
  7
10
1521.712
20
835.569
30
0.0
11
1521.933
21
835.042
31
0.0
0
LINE
5
1ffc
8
0-0
6
CONTINUOUS
62
  7
10
1521.933
20
835.042
30
0.0
11
1522.077
21
834.628
31
0.0
0
LINE
5
1ffd
8
0-0
6
CONTINUOUS
62
  7
10
1522.077
20
834.628
30
0.0
11
1522.284
21
833.860
31
0.0
0
LINE
5
1ffe
8
0-0
6
CONTINUOUS
62
  7
10
1522.284
20
833.860
30
0.0
11
1522.427
21
833.074
31
0.0
0
LINE
5
1fff
8
0-0
6
CONTINUOUS
62
  7
10
1522.427
20
833.074
30
0.0
11
1522.513
21
832.267
31
0.0
0
LINE
5
2000
8
0-0
6
CONTINUOUS
62
  7
10
1522.513
20
832.267
30
0.0
11
1522.537
21
831.805
31
0.0
0
LINE
5
2001
8
0-0
6
CONTINUOUS
62
  7
10
1522.537
20
831.805
30
0.0
11
1522.542
21
831.337
31
0.0
0
LINE
5
2002
8
0-0
6
CONTINUOUS
62
  7
10
1522.542
20
831.337
30
0.0
11
1522.511
21
830.508
31
0.0
0
LINE
5
2003
8
0-0
6
CONTINUOUS
62
  7
10
1522.511
20
830.508
30
0.0
11
1522.431
21
829.683
31
0.0
0
LINE
5
2004
8
0-0
6
CONTINUOUS
62
  7
10
1522.431
20
829.683
30
0.0
11
1522.305
21
828.846
31
0.0
0
LINE
5
2005
8
0-0
6
CONTINUOUS
62
  7
10
1522.305
20
828.846
30
0.0
11
1522.215
21
828.364
31
0.0
0
LINE
5
2006
8
0-0
6
CONTINUOUS
62
  7
10
1522.215
20
828.364
30
0.0
11
1522.144
21
828.031
31
0.0
0
LINE
5
2007
8
0-0
6
CONTINUOUS
62
  7
10
1522.144
20
828.031
30
0.0
11
1522.002
21
827.462
31
0.0
0
LINE
5
2008
8
0-0
6
CONTINUOUS
62
  7
10
1522.002
20
827.462
30
0.0
11
1521.831
21
826.941
31
0.0
0
LINE
5
2009
8
0-0
6
CONTINUOUS
62
  7
10
1521.831
20
826.941
30
0.0
11
1521.618
21
826.457
31
0.0
0
LINE
5
200a
8
0-0
6
CONTINUOUS
62
  7
10
1521.618
20
826.457
30
0.0
11
1521.487
21
826.224
31
0.0
0
LINE
5
200b
8
0-0
6
CONTINUOUS
62
  7
10
1521.487
20
826.224
30
0.0
11
1521.322
21
825.983
31
0.0
0
LINE
5
200c
8
0-0
6
CONTINUOUS
62
  7
10
1521.322
20
825.983
30
0.0
11
1520.956
21
825.550
31
0.0
0
LINE
5
200d
8
0-0
6
CONTINUOUS
62
  7
10
1520.956
20
825.550
30
0.0
11
1520.527
21
825.136
31
0.0
0
LINE
5
200e
8
0-0
6
CONTINUOUS
62
  7
10
1520.527
20
825.136
30
0.0
11
1520.040
21
824.725
31
0.0
0
LINE
5
200f
8
0-0
6
CONTINUOUS
62
  7
10
1520.040
20
824.725
30
0.0
11
1519.746
21
824.492
31
0.0
0
LINE
5
2010
8
0-0
6
CONTINUOUS
62
  7
10
1519.746
20
824.492
30
0.0
11
1519.340
21
824.180
31
0.0
0
LINE
5
2011
8
0-0
6
CONTINUOUS
62
  7
10
1519.340
20
824.180
30
0.0
11
1518.628
21
823.658
31
0.0
0
LINE
5
2012
8
0-0
6
CONTINUOUS
62
  7
10
1518.628
20
823.658
30
0.0
11
1517.916
21
823.176
31
0.0
0
LINE
5
2013
8
0-0
6
CONTINUOUS
62
  7
10
1517.916
20
823.176
30
0.0
11
1517.185
21
822.727
31
0.0
0
LINE
5
2014
8
0-0
6
CONTINUOUS
62
  7
10
1517.185
20
822.727
30
0.0
11
1516.761
21
822.491
31
0.0
0
LINE
5
2015
8
0-0
6
CONTINUOUS
62
  7
10
1516.761
20
822.491
30
0.0
11
1516.484
21
822.346
31
0.0
0
LINE
5
2016
8
0-0
6
CONTINUOUS
62
  7
10
1516.484
20
822.346
30
0.0
11
1515.981
21
822.099
31
0.0
0
LINE
5
2017
8
0-0
6
CONTINUOUS
62
  7
10
1515.981
20
822.099
30
0.0
11
1515.470
21
821.867
31
0.0
0
LINE
5
2018
8
0-0
6
CONTINUOUS
62
  7
10
1515.470
20
821.867
30
0.0
11
1514.944
21
821.642
31
0.0
0
LINE
5
2019
8
0-0
6
CONTINUOUS
62
  7
10
1514.944
20
821.642
30
0.0
11
1514.635
21
821.516
31
0.0
0
LINE
5
201a
8
0-0
6
CONTINUOUS
62
  7
10
1514.635
20
821.516
30
0.0
11
1514.344
21
821.400
31
0.0
0
LINE
5
201b
8
0-0
6
CONTINUOUS
62
  7
10
1514.344
20
821.400
30
0.0
11
1513.841
21
821.195
31
0.0
0
LINE
5
201c
8
0-0
6
CONTINUOUS
62
  7
10
1513.841
20
821.195
30
0.0
11
1513.317
21
820.964
31
0.0
0
LINE
5
201d
8
0-0
6
CONTINUOUS
62
  7
10
1513.317
20
820.964
30
0.0
11
1512.798
21
820.700
31
0.0
0
LINE
5
201e
8
0-0
6
CONTINUOUS
62
  7
10
1512.798
20
820.700
30
0.0
11
1512.486
21
820.515
31
0.0
0
LINE
5
201f
8
0-0
6
CONTINUOUS
62
  7
10
1512.486
20
820.515
30
0.0
11
1512.121
21
820.266
31
0.0
0
LINE
5
2020
8
0-0
6
CONTINUOUS
62
  7
10
1512.121
20
820.266
30
0.0
11
1511.565
21
819.813
31
0.0
0
LINE
5
2021
8
0-0
6
CONTINUOUS
62
  7
10
1511.565
20
819.813
30
0.0
11
1511.052
21
819.322
31
0.0
0
LINE
5
2022
8
0-0
6
CONTINUOUS
62
  7
10
1511.052
20
819.322
30
0.0
11
1510.574
21
818.820
31
0.0
0
LINE
5
2023
8
0-0
6
CONTINUOUS
62
  7
10
1510.574
20
818.820
30
0.0
11
1510.296
21
818.519
31
0.0
0
LINE
5
2024
8
0-0
6
CONTINUOUS
62
  7
10
1510.296
20
818.519
30
0.0
11
1510.035
21
818.234
31
0.0
0
LINE
5
2025
8
0-0
6
CONTINUOUS
62
  7
10
1510.035
20
818.234
30
0.0
11
1509.579
21
817.701
31
0.0
0
LINE
5
2026
8
0-0
6
CONTINUOUS
62
  7
10
1509.579
20
817.701
30
0.0
11
1509.149
21
817.080
31
0.0
0
LINE
5
2027
8
0-0
6
CONTINUOUS
62
  7
10
1509.149
20
817.080
30
0.0
11
1508.833
21
816.367
31
0.0
0
LINE
5
2028
8
0-0
6
CONTINUOUS
62
  7
10
1508.833
20
816.367
30
0.0
11
1508.731
21
815.859
31
0.0
0
LINE
5
2029
8
0-0
6
CONTINUOUS
62
  7
10
1508.731
20
815.859
30
0.0
11
1508.719
21
815.461
31
0.0
0
LINE
5
202a
8
0-0
6
CONTINUOUS
62
  7
10
1508.719
20
815.461
30
0.0
11
1508.784
21
814.908
31
0.0
0
LINE
5
202b
8
0-0
6
CONTINUOUS
62
  7
10
1508.784
20
814.908
30
0.0
11
1508.901
21
814.401
31
0.0
0
LINE
5
202c
8
0-0
6
CONTINUOUS
62
  7
10
1508.901
20
814.401
30
0.0
11
1509.020
21
813.958
31
0.0
0
LINE
5
202d
8
0-0
6
CONTINUOUS
62
  7
10
1509.020
20
813.958
30
0.0
11
1509.075
21
813.732
31
0.0
0
LINE
5
202e
8
0-0
6
CONTINUOUS
62
  7
10
1509.075
20
813.732
30
0.0
11
1509.108
21
813.574
31
0.0
0
LINE
5
202f
8
0-0
6
CONTINUOUS
62
  7
10
1509.108
20
813.574
30
0.0
11
1509.164
21
813.270
31
0.0
0
LINE
5
2030
8
0-0
6
CONTINUOUS
62
  7
10
1509.164
20
813.270
30
0.0
11
1509.227
21
812.934
31
0.0
0
LINE
5
2031
8
0-0
6
CONTINUOUS
62
  7
10
1509.227
20
812.934
30
0.0
11
1509.309
21
812.576
31
0.0
0
LINE
5
2032
8
0-0
6
CONTINUOUS
62
  7
10
1509.309
20
812.576
30
0.0
11
1509.381
21
812.335
31
0.0
0
LINE
5
2033
8
0-0
6
CONTINUOUS
62
  7
10
1509.381
20
812.335
30
0.0
11
1509.516
21
811.978
31
0.0
0
LINE
5
2034
8
0-0
6
CONTINUOUS
62
  7
10
1509.516
20
811.978
30
0.0
11
1509.790
21
811.431
31
0.0
0
LINE
5
2035
8
0-0
6
CONTINUOUS
62
  7
10
1509.790
20
811.431
30
0.0
11
1510.104
21
810.929
31
0.0
0
LINE
5
2036
8
0-0
6
CONTINUOUS
62
  7
10
1510.104
20
810.929
30
0.0
11
1510.420
21
810.484
31
0.0
0
LINE
5
2037
8
0-0
6
CONTINUOUS
62
  7
10
1510.420
20
810.484
30
0.0
11
1510.596
21
810.247
31
0.0
0
LINE
5
2038
8
0-0
6
CONTINUOUS
62
  7
10
1510.596
20
810.247
30
0.0
11
1510.755
21
810.036
31
0.0
0
LINE
5
2039
8
0-0
6
CONTINUOUS
62
  7
10
1510.755
20
810.036
30
0.0
11
1510.558
21
810.073
31
0.0
0
LINE
5
203a
8
0-0
6
CONTINUOUS
62
  7
10
1510.558
20
810.073
30
0.0
11
1509.976
21
810.123
31
0.0
0
LINE
5
203b
8
0-0
6
CONTINUOUS
62
  7
10
1509.976
20
810.123
30
0.0
11
1509.608
21
810.121
31
0.0
0
LINE
5
203c
8
0-0
6
CONTINUOUS
62
  7
10
1509.608
20
810.121
30
0.0
11
1509.274
21
810.098
31
0.0
0
LINE
5
203d
8
0-0
6
CONTINUOUS
62
  7
10
1509.274
20
810.098
30
0.0
11
1508.717
21
810.015
31
0.0
0
LINE
5
203e
8
0-0
6
CONTINUOUS
62
  7
10
1508.717
20
810.015
30
0.0
11
1508.140
21
809.872
31
0.0
0
LINE
5
203f
8
0-0
6
CONTINUOUS
62
  7
10
1508.140
20
809.872
30
0.0
11
1507.579
21
809.667
31
0.0
0
LINE
5
2040
8
0-0
6
CONTINUOUS
62
  7
10
1507.579
20
809.667
30
0.0
11
1507.238
21
809.506
31
0.0
0
LINE
5
2041
8
0-0
6
CONTINUOUS
62
  7
10
1507.238
20
809.506
30
0.0
11
1506.815
21
809.258
31
0.0
0
LINE
5
2042
8
0-0
6
CONTINUOUS
62
  7
10
1506.815
20
809.258
30
0.0
11
1506.193
21
808.776
31
0.0
0
LINE
5
2043
8
0-0
6
CONTINUOUS
62
  7
10
1506.193
20
808.776
30
0.0
11
1505.650
21
808.214
31
0.0
0
LINE
5
2044
8
0-0
6
CONTINUOUS
62
  7
10
1505.650
20
808.214
30
0.0
11
1505.194
21
807.615
31
0.0
0
LINE
5
2045
8
0-0
6
CONTINUOUS
62
  7
10
1505.194
20
807.615
30
0.0
11
1504.953
21
807.243
31
0.0
0
LINE
5
2046
8
0-0
6
CONTINUOUS
62
  7
10
1504.953
20
807.243
30
0.0
11
1504.768
21
806.928
31
0.0
0
LINE
5
2047
8
0-0
6
CONTINUOUS
62
  7
10
1504.768
20
806.928
30
0.0
11
1504.489
21
806.382
31
0.0
0
LINE
5
2048
8
0-0
6
CONTINUOUS
62
  7
10
1504.489
20
806.382
30
0.0
11
1504.253
21
805.799
31
0.0
0
LINE
5
2049
8
0-0
6
CONTINUOUS
62
  7
10
1504.253
20
805.799
30
0.0
11
1504.078
21
805.198
31
0.0
0
LINE
5
204a
8
0-0
6
CONTINUOUS
62
  7
10
1504.078
20
805.198
30
0.0
11
1504.003
21
804.817
31
0.0
0
LINE
5
204b
8
0-0
6
CONTINUOUS
62
  7
10
1504.003
20
804.817
30
0.0
11
1503.953
21
804.397
31
0.0
0
LINE
5
204c
8
0-0
6
CONTINUOUS
62
  7
10
1503.953
20
804.397
30
0.0
11
1503.933
21
803.722
31
0.0
0
LINE
5
204d
8
0-0
6
CONTINUOUS
62
  7
10
1503.933
20
803.722
30
0.0
11
1503.964
21
803.068
31
0.0
0
LINE
5
204e
8
0-0
6
CONTINUOUS
62
  7
10
1503.964
20
803.068
30
0.0
11
1504.017
21
802.435
31
0.0
0
LINE
5
204f
8
0-0
6
CONTINUOUS
62
  7
10
1504.017
20
802.435
30
0.0
11
1504.047
21
802.101
31
0.0
0
LINE
5
2050
8
0-0
6
CONTINUOUS
62
  7
10
1504.047
20
802.101
30
0.0
11
1504.075
21
801.719
31
0.0
0
LINE
5
2051
8
0-0
6
CONTINUOUS
62
  7
10
1504.075
20
801.719
30
0.0
11
1504.116
21
801.032
31
0.0
0
LINE
5
2052
8
0-0
6
CONTINUOUS
62
  7
10
1504.116
20
801.032
30
0.0
11
1504.150
21
800.355
31
0.0
0
LINE
5
2053
8
0-0
6
CONTINUOUS
62
  7
10
1504.150
20
800.355
30
0.0
11
1504.188
21
799.645
31
0.0
0
LINE
5
2054
8
0-0
6
CONTINUOUS
62
  7
10
1504.188
20
799.645
30
0.0
11
1504.215
21
799.237
31
0.0
0
LINE
5
2055
8
0-0
6
CONTINUOUS
62
  7
10
1504.215
20
799.237
30
0.0
11
1504.238
21
798.935
31
0.0
0
LINE
5
2056
8
0-0
6
CONTINUOUS
62
  7
10
1504.238
20
798.935
30
0.0
11
1504.286
21
798.418
31
0.0
0
LINE
5
2057
8
0-0
6
CONTINUOUS
62
  7
10
1504.286
20
798.418
30
0.0
11
1504.351
21
797.894
31
0.0
0
LINE
5
2058
8
0-0
6
CONTINUOUS
62
  7
10
1504.351
20
797.894
30
0.0
11
1504.434
21
797.371
31
0.0
0
LINE
5
2059
8
0-0
6
CONTINUOUS
62
  7
10
1504.434
20
797.371
30
0.0
11
1504.495
21
797.058
31
0.0
0
LINE
5
205a
8
0-0
6
CONTINUOUS
62
  7
10
1504.495
20
797.058
30
0.0
11
1504.571
21
796.714
31
0.0
0
LINE
5
205b
8
0-0
6
CONTINUOUS
62
  7
10
1504.571
20
796.714
30
0.0
11
1504.711
21
796.156
31
0.0
0
LINE
5
205c
8
0-0
6
CONTINUOUS
62
  7
10
1504.711
20
796.156
30
0.0
11
1504.847
21
795.620
31
0.0
0
LINE
5
205d
8
0-0
6
CONTINUOUS
62
  7
10
1504.847
20
795.620
30
0.0
11
1504.965
21
795.108
31
0.0
0
LINE
5
205e
8
0-0
6
CONTINUOUS
62
  7
10
1504.965
20
795.108
30
0.0
11
1505.016
21
794.829
31
0.0
0
LINE
5
205f
8
0-0
6
CONTINUOUS
62
  7
10
1505.016
20
794.829
30
0.0
11
1505.049
21
794.614
31
0.0
0
LINE
5
2060
8
0-0
6
CONTINUOUS
62
  7
10
1505.049
20
794.614
30
0.0
11
1505.092
21
794.219
31
0.0
0
LINE
5
2061
8
0-0
6
CONTINUOUS
62
  7
10
1505.092
20
794.219
30
0.0
11
1505.124
21
793.811
31
0.0
0
LINE
5
2062
8
0-0
6
CONTINUOUS
62
  7
10
1505.124
20
793.811
30
0.0
11
1505.149
21
793.384
31
0.0
0
LINE
5
2063
8
0-0
6
CONTINUOUS
62
  7
10
1505.149
20
793.384
30
0.0
11
1505.163
21
793.125
31
0.0
0
LINE
5
2064
8
0-0
6
CONTINUOUS
62
  7
10
1505.163
20
793.125
30
0.0
11
1505.181
21
792.802
31
0.0
0
LINE
5
2065
8
0-0
6
CONTINUOUS
62
  7
10
1505.181
20
792.802
30
0.0
11
1505.206
21
792.242
31
0.0
0
LINE
5
2066
8
0-0
6
CONTINUOUS
62
  7
10
1505.206
20
792.242
30
0.0
11
1505.208
21
791.718
31
0.0
0
LINE
5
2067
8
0-0
6
CONTINUOUS
62
  7
10
1505.208
20
791.718
30
0.0
11
1505.175
21
791.219
31
0.0
0
LINE
5
2068
8
0-0
6
CONTINUOUS
62
  7
10
1505.175
20
791.219
30
0.0
11
1505.139
21
790.967
31
0.0
0
LINE
5
2069
8
0-0
6
CONTINUOUS
62
  7
10
1505.139
20
790.967
30
0.0
11
1505.061
21
790.622
31
0.0
0
LINE
5
206a
8
0-0
6
CONTINUOUS
62
  7
10
1505.061
20
790.622
30
0.0
11
1504.843
21
789.997
31
0.0
0
LINE
5
206b
8
0-0
6
CONTINUOUS
62
  7
10
1504.843
20
789.997
30
0.0
11
1504.543
21
789.389
31
0.0
0
LINE
5
206c
8
0-0
6
CONTINUOUS
62
  7
10
1504.543
20
789.389
30
0.0
11
1504.165
21
788.784
31
0.0
0
LINE
5
206d
8
0-0
6
CONTINUOUS
62
  7
10
1504.165
20
788.784
30
0.0
11
1503.928
21
788.455
31
0.0
0
LINE
5
206e
8
0-0
6
CONTINUOUS
62
  7
10
1503.928
20
788.455
30
0.0
11
1503.653
21
788.107
31
0.0
0
LINE
5
206f
8
0-0
6
CONTINUOUS
62
  7
10
1503.653
20
788.107
30
0.0
11
1503.519
21
787.958
31
0.0
0
LINE
5
2070
8
0-0
6
CONTINUOUS
62
  7
10
1554.133
20
892.491
30
0.0
11
1554.079
21
892.330
31
0.0
0
LINE
5
2071
8
0-0
6
CONTINUOUS
62
  7
10
1554.079
20
892.330
30
0.0
11
1553.809
21
891.402
31
0.0
0
LINE
5
2072
8
0-0
6
CONTINUOUS
62
  7
10
1553.809
20
891.402
30
0.0
11
1553.583
21
890.463
31
0.0
0
LINE
5
2073
8
0-0
6
CONTINUOUS
62
  7
10
1553.583
20
890.463
30
0.0
11
1553.399
21
889.511
31
0.0
0
LINE
5
2074
8
0-0
6
CONTINUOUS
62
  7
10
1553.399
20
889.511
30
0.0
11
1553.314
21
888.977
31
0.0
0
LINE
5
2075
8
0-0
6
CONTINUOUS
62
  7
10
1553.314
20
888.977
30
0.0
11
1553.097
21
886.866
31
0.0
0
LINE
5
2076
8
0-0
6
CONTINUOUS
62
  7
10
1553.097
20
886.866
30
0.0
11
1553.072
21
883.159
31
0.0
0
LINE
5
2077
8
0-0
6
CONTINUOUS
62
  7
10
1553.072
20
883.159
30
0.0
11
1553.333
21
879.402
31
0.0
0
LINE
5
2078
8
0-0
6
CONTINUOUS
62
  7
10
1553.333
20
879.402
30
0.0
11
1553.691
21
875.605
31
0.0
0
LINE
5
2079
8
0-0
6
CONTINUOUS
62
  7
10
1553.691
20
875.605
30
0.0
11
1553.868
21
873.388
31
0.0
0
LINE
5
207a
8
0-0
6
CONTINUOUS
62
  7
10
1553.868
20
873.388
30
0.0
11
1553.981
21
871.131
31
0.0
0
LINE
5
207b
8
0-0
6
CONTINUOUS
62
  7
10
1553.981
20
871.131
30
0.0
11
1554.011
21
867.263
31
0.0
0
LINE
5
207c
8
0-0
6
CONTINUOUS
62
  7
10
1554.011
20
867.263
30
0.0
11
1553.851
21
863.383
31
0.0
0
LINE
5
207d
8
0-0
6
CONTINUOUS
62
  7
10
1553.851
20
863.383
30
0.0
11
1553.525
21
859.466
31
0.0
0
LINE
5
207e
8
0-0
6
CONTINUOUS
62
  7
10
1553.525
20
859.466
30
0.0
11
1553.266
21
857.151
31
0.0
0
LINE
5
207f
8
0-0
6
CONTINUOUS
62
  7
10
1553.266
20
857.151
30
0.0
11
1552.945
21
854.728
31
0.0
0
LINE
5
2080
8
0-0
6
CONTINUOUS
62
  7
10
1552.945
20
854.728
30
0.0
11
1552.168
21
850.556
31
0.0
0
LINE
5
2081
8
0-0
6
CONTINUOUS
62
  7
10
1552.168
20
850.556
30
0.0
11
1550.936
21
846.525
31
0.0
0
LINE
5
2082
8
0-0
6
CONTINUOUS
62
  7
10
1550.936
20
846.525
30
0.0
11
1549.051
21
842.861
31
0.0
0
LINE
5
2083
8
0-0
6
CONTINUOUS
62
  7
10
1549.051
20
842.861
30
0.0
11
1547.556
21
840.961
31
0.0
0
LINE
5
2084
8
0-0
6
CONTINUOUS
62
  7
10
1547.556
20
840.961
30
0.0
11
1546.455
21
839.888
31
0.0
0
LINE
5
2085
8
0-0
6
CONTINUOUS
62
  7
10
1546.455
20
839.888
30
0.0
11
1544.385
21
838.322
31
0.0
0
LINE
5
2086
8
0-0
6
CONTINUOUS
62
  7
10
1544.385
20
838.322
30
0.0
11
1542.086
21
837.034
31
0.0
0
LINE
5
2087
8
0-0
6
CONTINUOUS
62
  7
10
1542.086
20
837.034
30
0.0
11
1539.660
21
836.027
31
0.0
0
LINE
5
2088
8
0-0
6
CONTINUOUS
62
  7
10
1539.660
20
836.027
30
0.0
11
1538.198
21
835.558
31
0.0
0
LINE
5
2089
8
0-0
6
CONTINUOUS
62
  7
10
1538.198
20
835.558
30
0.0
11
1536.050
21
835.031
31
0.0
0
LINE
5
208a
8
0-0
6
CONTINUOUS
62
  7
10
1536.050
20
835.031
30
0.0
11
1532.360
21
834.499
31
0.0
0
LINE
5
208b
8
0-0
6
CONTINUOUS
62
  7
10
1532.360
20
834.499
30
0.0
11
1528.656
21
834.315
31
0.0
0
LINE
5
208c
8
0-0
6
CONTINUOUS
62
  7
10
1528.656
20
834.315
30
0.0
11
1524.971
21
834.341
31
0.0
0
LINE
5
208d
8
0-0
6
CONTINUOUS
62
  7
10
1524.971
20
834.341
30
0.0
11
1524.251
21
834.361
31
0.0
0
LINE
5
208e
8
0-0
6
CONTINUOUS
62
  7
10
1552.368
20
893.519
30
0.0
11
1552.169
21
892.925
31
0.0
0
LINE
5
208f
8
0-0
6
CONTINUOUS
62
  7
10
1552.169
20
892.925
30
0.0
11
1551.876
21
891.915
31
0.0
0
LINE
5
2090
8
0-0
6
CONTINUOUS
62
  7
10
1551.876
20
891.915
30
0.0
11
1551.629
21
890.889
31
0.0
0
LINE
5
2091
8
0-0
6
CONTINUOUS
62
  7
10
1551.629
20
890.889
30
0.0
11
1551.429
21
889.858
31
0.0
0
LINE
5
2092
8
0-0
6
CONTINUOUS
62
  7
10
1551.429
20
889.858
30
0.0
11
1551.330
21
889.236
31
0.0
0
LINE
5
2093
8
0-0
6
CONTINUOUS
62
  7
10
1551.330
20
889.236
30
0.0
11
1551.098
21
886.975
31
0.0
0
LINE
5
2094
8
0-0
6
CONTINUOUS
62
  7
10
1551.098
20
886.975
30
0.0
11
1551.071
21
883.097
31
0.0
0
LINE
5
2095
8
0-0
6
CONTINUOUS
62
  7
10
1551.071
20
883.097
30
0.0
11
1551.339
21
879.240
31
0.0
0
LINE
5
2096
8
0-0
6
CONTINUOUS
62
  7
10
1551.339
20
879.240
30
0.0
11
1551.699
21
875.432
31
0.0
0
LINE
5
2097
8
0-0
6
CONTINUOUS
62
  7
10
1551.699
20
875.432
30
0.0
11
1551.872
21
873.259
31
0.0
0
LINE
5
2098
8
0-0
6
CONTINUOUS
62
  7
10
1551.872
20
873.259
30
0.0
11
1551.981
21
871.072
31
0.0
0
LINE
5
2099
8
0-0
6
CONTINUOUS
62
  7
10
1551.981
20
871.072
30
0.0
11
1552.010
21
867.298
31
0.0
0
LINE
5
209a
8
0-0
6
CONTINUOUS
62
  7
10
1552.010
20
867.298
30
0.0
11
1551.855
21
863.507
31
0.0
0
LINE
5
209b
8
0-0
6
CONTINUOUS
62
  7
10
1551.855
20
863.507
30
0.0
11
1551.534
21
859.658
31
0.0
0
LINE
5
209c
8
0-0
6
CONTINUOUS
62
  7
10
1551.534
20
859.658
30
0.0
11
1551.281
21
857.395
31
0.0
0
LINE
5
209d
8
0-0
6
CONTINUOUS
62
  7
10
1551.281
20
857.395
30
0.0
11
1550.969
21
855.043
31
0.0
0
LINE
5
209e
8
0-0
6
CONTINUOUS
62
  7
10
1550.969
20
855.043
30
0.0
11
1550.223
21
851.033
31
0.0
0
LINE
5
209f
8
0-0
6
CONTINUOUS
62
  7
10
1550.223
20
851.033
30
0.0
11
1549.075
21
847.281
31
0.0
0
LINE
5
20a0
8
0-0
6
CONTINUOUS
62
  7
10
1549.075
20
847.281
30
0.0
11
1547.360
21
843.947
31
0.0
0
LINE
5
20a1
8
0-0
6
CONTINUOUS
62
  7
10
1547.360
20
843.947
30
0.0
11
1546.065
21
842.300
31
0.0
0
LINE
5
20a2
8
0-0
6
CONTINUOUS
62
  7
10
1546.065
20
842.300
30
0.0
11
1545.149
21
841.407
31
0.0
0
LINE
5
20a3
8
0-0
6
CONTINUOUS
62
  7
10
1545.149
20
841.407
30
0.0
11
1543.288
21
839.999
31
0.0
0
LINE
5
20a4
8
0-0
6
CONTINUOUS
62
  7
10
1543.288
20
839.999
30
0.0
11
1541.211
21
838.836
31
0.0
0
LINE
5
20a5
8
0-0
6
CONTINUOUS
62
  7
10
1541.211
20
838.836
30
0.0
11
1538.970
21
837.906
31
0.0
0
LINE
5
20a6
8
0-0
6
CONTINUOUS
62
  7
10
1538.970
20
837.906
30
0.0
11
1537.653
21
837.483
31
0.0
0
LINE
5
20a7
8
0-0
6
CONTINUOUS
62
  7
10
1537.653
20
837.483
30
0.0
11
1535.669
21
836.997
31
0.0
0
LINE
5
20a8
8
0-0
6
CONTINUOUS
62
  7
10
1535.669
20
836.997
30
0.0
11
1532.167
21
836.492
31
0.0
0
LINE
5
20a9
8
0-0
6
CONTINUOUS
62
  7
10
1532.167
20
836.492
30
0.0
11
1528.615
21
836.315
31
0.0
0
LINE
5
20aa
8
0-0
6
CONTINUOUS
62
  7
10
1528.615
20
836.315
30
0.0
11
1525.004
21
836.341
31
0.0
0
LINE
5
20ab
8
0-0
6
CONTINUOUS
62
  7
10
1525.004
20
836.341
30
0.0
11
1523.527
21
836.382
31
0.0
0
LINE
5
20ac
8
0-0
6
CONTINUOUS
62
  7
10
1508.265
20
835.802
30
0.0
11
1508.494
21
835.251
31
0.0
0
LINE
5
20ad
8
0-0
6
CONTINUOUS
62
  7
10
1508.494
20
835.251
30
0.0
11
1508.682
21
834.673
31
0.0
0
LINE
5
20ae
8
0-0
6
CONTINUOUS
62
  7
10
1508.682
20
834.673
30
0.0
11
1508.879
21
833.682
31
0.0
0
LINE
5
20af
8
0-0
6
CONTINUOUS
62
  7
10
1508.879
20
833.682
30
0.0
11
1508.908
21
832.658
31
0.0
0
LINE
5
20b0
8
0-0
6
CONTINUOUS
62
  7
10
1508.908
20
832.658
30
0.0
11
1508.735
21
831.671
31
0.0
0
LINE
5
20b1
8
0-0
6
CONTINUOUS
62
  7
10
1508.735
20
831.671
30
0.0
11
1508.506
21
831.078
31
0.0
0
LINE
5
20b2
8
0-0
6
CONTINUOUS
62
  7
10
1508.506
20
831.078
30
0.0
11
1508.144
21
830.474
31
0.0
0
LINE
5
20b3
8
0-0
6
CONTINUOUS
62
  7
10
1508.144
20
830.474
30
0.0
11
1507.377
21
829.665
31
0.0
0
LINE
5
20b4
8
0-0
6
CONTINUOUS
62
  7
10
1507.377
20
829.665
30
0.0
11
1506.442
21
829.028
31
0.0
0
LINE
5
20b5
8
0-0
6
CONTINUOUS
62
  7
10
1506.442
20
829.028
30
0.0
11
1505.436
21
828.547
31
0.0
0
LINE
5
20b6
8
0-0
6
CONTINUOUS
62
  7
10
1505.436
20
828.547
30
0.0
11
1504.817
21
828.315
31
0.0
0
LINE
5
20b7
8
0-0
6
CONTINUOUS
62
  7
10
1504.817
20
828.315
30
0.0
11
1504.104
21
828.094
31
0.0
0
LINE
5
20b8
8
0-0
6
CONTINUOUS
62
  7
10
1504.104
20
828.094
30
0.0
11
1502.874
21
827.837
31
0.0
0
LINE
5
20b9
8
0-0
6
CONTINUOUS
62
  7
10
1502.874
20
827.837
30
0.0
11
1501.614
21
827.767
31
0.0
0
LINE
5
20ba
8
0-0
6
CONTINUOUS
62
  7
10
1501.614
20
827.767
30
0.0
11
1500.400
21
827.952
31
0.0
0
LINE
5
20bb
8
0-0
6
CONTINUOUS
62
  7
10
1500.400
20
827.952
30
0.0
11
1499.672
21
828.228
31
0.0
0
LINE
5
20bc
8
0-0
6
CONTINUOUS
62
  7
10
1499.672
20
828.228
30
0.0
11
1498.857
21
828.746
31
0.0
0
LINE
5
20bd
8
0-0
6
CONTINUOUS
62
  7
10
1498.857
20
828.746
30
0.0
11
1497.796
21
829.896
31
0.0
0
LINE
5
20be
8
0-0
6
CONTINUOUS
62
  7
10
1497.796
20
829.896
30
0.0
11
1497.003
21
831.295
31
0.0
0
LINE
5
20bf
8
0-0
6
CONTINUOUS
62
  7
10
1497.003
20
831.295
30
0.0
11
1496.432
21
832.776
31
0.0
0
LINE
5
20c0
8
0-0
6
CONTINUOUS
62
  7
10
1496.432
20
832.776
30
0.0
11
1496.175
21
833.650
31
0.0
0
LINE
5
20c1
8
0-0
6
CONTINUOUS
62
  7
10
1496.175
20
833.650
30
0.0
11
1495.973
21
834.472
31
0.0
0
LINE
5
20c2
8
0-0
6
CONTINUOUS
62
  7
10
1495.973
20
834.472
30
0.0
11
1495.720
21
835.838
31
0.0
0
LINE
5
20c3
8
0-0
6
CONTINUOUS
62
  7
10
1495.720
20
835.838
30
0.0
11
1495.569
21
837.189
31
0.0
0
LINE
5
20c4
8
0-0
6
CONTINUOUS
62
  7
10
1495.569
20
837.189
30
0.0
11
1495.505
21
838.531
31
0.0
0
LINE
5
20c5
8
0-0
6
CONTINUOUS
62
  7
10
1495.505
20
838.531
30
0.0
11
1495.502
21
839.319
31
0.0
0
LINE
5
20c6
8
0-0
6
CONTINUOUS
62
  7
10
1495.502
20
839.319
30
0.0
11
1495.508
21
839.676
31
0.0
0
LINE
5
20c7
8
0-0
6
CONTINUOUS
62
  7
10
1495.508
20
839.676
30
0.0
11
1495.537
21
840.294
31
0.0
0
LINE
5
20c8
8
0-0
6
CONTINUOUS
62
  7
10
1495.537
20
840.294
30
0.0
11
1495.606
21
840.933
31
0.0
0
LINE
5
20c9
8
0-0
6
CONTINUOUS
62
  7
10
1495.606
20
840.933
30
0.0
11
1495.730
21
841.574
31
0.0
0
LINE
5
20ca
8
0-0
6
CONTINUOUS
62
  7
10
1495.730
20
841.574
30
0.0
11
1495.842
21
841.963
31
0.0
0
LINE
5
20cb
8
0-0
6
CONTINUOUS
62
  7
10
1495.842
20
841.963
30
0.0
11
1495.962
21
842.294
31
0.0
0
LINE
5
20cc
8
0-0
6
CONTINUOUS
62
  7
10
1495.962
20
842.294
30
0.0
11
1496.188
21
842.801
31
0.0
0
LINE
5
20cd
8
0-0
6
CONTINUOUS
62
  7
10
1496.188
20
842.801
30
0.0
11
1496.443
21
843.281
31
0.0
0
LINE
5
20ce
8
0-0
6
CONTINUOUS
62
  7
10
1496.443
20
843.281
30
0.0
11
1496.701
21
843.728
31
0.0
0
LINE
5
20cf
8
0-0
6
CONTINUOUS
62
  7
10
1496.701
20
843.728
30
0.0
11
1496.858
21
843.994
31
0.0
0
LINE
5
20d0
8
0-0
6
CONTINUOUS
62
  7
10
1496.858
20
843.994
30
0.0
11
1496.986
21
844.213
31
0.0
0
LINE
5
20d1
8
0-0
6
CONTINUOUS
62
  7
10
1496.986
20
844.213
30
0.0
11
1497.222
21
844.609
31
0.0
0
LINE
5
20d2
8
0-0
6
CONTINUOUS
62
  7
10
1497.222
20
844.609
30
0.0
11
1497.480
21
845.021
31
0.0
0
LINE
5
20d3
8
0-0
6
CONTINUOUS
62
  7
10
1497.480
20
845.021
30
0.0
11
1497.763
21
845.430
31
0.0
0
LINE
5
20d4
8
0-0
6
CONTINUOUS
62
  7
10
1497.763
20
845.430
30
0.0
11
1497.949
21
845.674
31
0.0
0
LINE
5
20d5
8
0-0
6
CONTINUOUS
62
  7
10
1497.949
20
845.674
30
0.0
11
1498.158
21
845.924
31
0.0
0
LINE
5
20d6
8
0-0
6
CONTINUOUS
62
  7
10
1498.158
20
845.924
30
0.0
11
1498.530
21
846.319
31
0.0
0
LINE
5
20d7
8
0-0
6
CONTINUOUS
62
  7
10
1498.530
20
846.319
30
0.0
11
1498.926
21
846.688
31
0.0
0
LINE
5
20d8
8
0-0
6
CONTINUOUS
62
  7
10
1498.926
20
846.688
30
0.0
11
1499.335
21
847.027
31
0.0
0
LINE
5
20d9
8
0-0
6
CONTINUOUS
62
  7
10
1499.335
20
847.027
30
0.0
11
1499.589
21
847.222
31
0.0
0
LINE
5
20da
8
0-0
6
CONTINUOUS
62
  7
10
1499.589
20
847.222
30
0.0
11
1500.143
21
847.611
31
0.0
0
LINE
5
20db
8
0-0
6
CONTINUOUS
62
  7
10
1500.143
20
847.611
30
0.0
11
1501.134
21
848.199
31
0.0
0
LINE
5
20dc
8
0-0
6
CONTINUOUS
62
  7
10
1501.134
20
848.199
30
0.0
11
1502.189
21
848.690
31
0.0
0
LINE
5
20dd
8
0-0
6
CONTINUOUS
62
  7
10
1502.189
20
848.690
30
0.0
11
1503.279
21
849.064
31
0.0
0
LINE
5
20de
8
0-0
6
CONTINUOUS
62
  7
10
1503.279
20
849.064
30
0.0
11
1503.938
21
849.228
31
0.0
0
LINE
5
20df
8
0-0
6
CONTINUOUS
62
  7
10
1503.938
20
849.228
30
0.0
11
1504.293
21
849.298
31
0.0
0
LINE
5
20e0
8
0-0
6
CONTINUOUS
62
  7
10
1504.293
20
849.298
30
0.0
11
1504.870
21
849.392
31
0.0
0
LINE
5
20e1
8
0-0
6
CONTINUOUS
62
  7
10
1504.870
20
849.392
30
0.0
11
1505.423
21
849.471
31
0.0
0
LINE
5
20e2
8
0-0
6
CONTINUOUS
62
  7
10
1505.423
20
849.471
30
0.0
11
1505.965
21
849.551
31
0.0
0
LINE
5
20e3
8
0-0
6
CONTINUOUS
62
  7
10
1505.965
20
849.551
30
0.0
11
1506.260
21
849.601
31
0.0
0
LINE
5
20e4
8
0-0
6
CONTINUOUS
62
  7
10
1506.260
20
849.601
30
0.0
11
1506.588
21
849.665
31
0.0
0
LINE
5
20e5
8
0-0
6
CONTINUOUS
62
  7
10
1506.588
20
849.665
30
0.0
11
1507.190
21
849.796
31
0.0
0
LINE
5
20e6
8
0-0
6
CONTINUOUS
62
  7
10
1507.190
20
849.796
30
0.0
11
1507.815
21
849.928
31
0.0
0
LINE
5
20e7
8
0-0
6
CONTINUOUS
62
  7
10
1507.815
20
849.928
30
0.0
11
1508.471
21
850.038
31
0.0
0
LINE
5
20e8
8
0-0
6
CONTINUOUS
62
  7
10
1508.471
20
850.038
30
0.0
11
1508.877
21
850.083
31
0.0
0
LINE
5
20e9
8
0-0
6
CONTINUOUS
62
  7
10
1508.877
20
850.083
30
0.0
11
1509.214
21
850.103
31
0.0
0
LINE
5
20ea
8
0-0
6
CONTINUOUS
62
  7
10
1509.214
20
850.103
30
0.0
11
1509.761
21
850.107
31
0.0
0
LINE
5
20eb
8
0-0
6
CONTINUOUS
62
  7
10
1509.761
20
850.107
30
0.0
11
1510.304
21
850.083
31
0.0
0
LINE
5
20ec
8
0-0
6
CONTINUOUS
62
  7
10
1510.304
20
850.083
30
0.0
11
1510.826
21
850.042
31
0.0
0
LINE
5
20ed
8
0-0
6
CONTINUOUS
62
  7
10
1510.826
20
850.042
30
0.0
11
1511.124
21
850.015
31
0.0
0
LINE
5
20ee
8
0-0
6
CONTINUOUS
62
  7
10
1511.124
20
850.015
30
0.0
11
1511.443
21
849.985
31
0.0
0
LINE
5
20ef
8
0-0
6
CONTINUOUS
62
  7
10
1511.443
20
849.985
30
0.0
11
1511.994
21
849.921
31
0.0
0
LINE
5
20f0
8
0-0
6
CONTINUOUS
62
  7
10
1511.994
20
849.921
30
0.0
11
1512.570
21
849.825
31
0.0
0
LINE
5
20f1
8
0-0
6
CONTINUOUS
62
  7
10
1512.570
20
849.825
30
0.0
11
1513.146
21
849.679
31
0.0
0
LINE
5
20f2
8
0-0
6
CONTINUOUS
62
  7
10
1513.146
20
849.679
30
0.0
11
1513.509
21
849.553
31
0.0
0
LINE
5
20f3
8
0-0
6
CONTINUOUS
62
  7
10
1513.509
20
849.553
30
0.0
11
1514.020
21
849.320
31
0.0
0
LINE
5
20f4
8
0-0
6
CONTINUOUS
62
  7
10
1514.020
20
849.320
30
0.0
11
1514.787
21
848.835
31
0.0
0
LINE
5
20f5
8
0-0
6
CONTINUOUS
62
  7
10
1514.787
20
848.835
30
0.0
11
1515.479
21
848.262
31
0.0
0
LINE
5
20f6
8
0-0
6
CONTINUOUS
62
  7
10
1515.479
20
848.262
30
0.0
11
1516.097
21
847.659
31
0.0
0
LINE
5
20f7
8
0-0
6
CONTINUOUS
62
  7
10
1516.097
20
847.659
30
0.0
11
1516.438
21
847.303
31
0.0
0
LINE
5
20f8
8
0-0
6
CONTINUOUS
62
  7
10
1516.438
20
847.303
30
0.0
11
1516.912
21
846.791
31
0.0
0
LINE
5
20f9
8
0-0
6
CONTINUOUS
62
  7
10
1516.912
20
846.791
30
0.0
11
1517.698
21
845.901
31
0.0
0
LINE
5
20fa
8
0-0
6
CONTINUOUS
62
  7
10
1517.698
20
845.901
30
0.0
11
1518.444
21
844.981
31
0.0
0
LINE
5
20fb
8
0-0
6
CONTINUOUS
62
  7
10
1518.444
20
844.981
30
0.0
11
1519.141
21
844.025
31
0.0
0
LINE
5
20fc
8
0-0
6
CONTINUOUS
62
  7
10
1519.141
20
844.025
30
0.0
11
1519.525
21
843.443
31
0.0
0
LINE
5
20fd
8
0-0
6
CONTINUOUS
62
  7
10
1519.525
20
843.443
30
0.0
11
1519.829
21
842.947
31
0.0
0
LINE
5
20fe
8
0-0
6
CONTINUOUS
62
  7
10
1519.829
20
842.947
30
0.0
11
1520.315
21
842.094
31
0.0
0
LINE
5
20ff
8
0-0
6
CONTINUOUS
62
  7
10
1520.315
20
842.094
30
0.0
11
1520.781
21
841.239
31
0.0
0
LINE
5
2100
8
0-0
6
CONTINUOUS
62
  7
10
1520.781
20
841.239
30
0.0
11
1521.232
21
840.416
31
0.0
0
LINE
5
2101
8
0-0
6
CONTINUOUS
62
  7
10
1521.232
20
840.416
30
0.0
11
1521.502
21
839.945
31
0.0
0
LINE
5
2102
8
0-0
6
CONTINUOUS
62
  7
10
1521.502
20
839.945
30
0.0
11
1521.827
21
839.400
31
0.0
0
LINE
5
2103
8
0-0
6
CONTINUOUS
62
  7
10
1521.827
20
839.400
30
0.0
11
1522.413
21
838.447
31
0.0
0
LINE
5
2104
8
0-0
6
CONTINUOUS
62
  7
10
1522.413
20
838.447
30
0.0
11
1522.995
21
837.456
31
0.0
0
LINE
5
2105
8
0-0
6
CONTINUOUS
62
  7
10
1522.995
20
837.456
30
0.0
11
1523.528
21
836.411
31
0.0
0
LINE
5
2106
8
0-0
6
CONTINUOUS
62
  7
10
1523.528
20
836.411
30
0.0
11
1523.542
21
836.376
31
0.0
0
LINE
5
2107
8
0-0
6
CONTINUOUS
62
  7
10
1524.222
20
834.354
30
0.0
11
1524.237
21
834.300
31
0.0
0
LINE
5
2108
8
0-0
6
CONTINUOUS
62
  7
10
1524.237
20
834.300
30
0.0
11
1524.408
21
833.361
31
0.0
0
LINE
5
2109
8
0-0
6
CONTINUOUS
62
  7
10
1524.408
20
833.361
30
0.0
11
1524.508
21
832.422
31
0.0
0
LINE
5
210a
8
0-0
6
CONTINUOUS
62
  7
10
1524.508
20
832.422
30
0.0
11
1524.536
21
831.869
31
0.0
0
LINE
5
210b
8
0-0
6
CONTINUOUS
62
  7
10
1524.536
20
831.869
30
0.0
11
1524.542
21
831.310
31
0.0
0
LINE
5
210c
8
0-0
6
CONTINUOUS
62
  7
10
1524.542
20
831.310
30
0.0
11
1524.507
21
830.373
31
0.0
0
LINE
5
210d
8
0-0
6
CONTINUOUS
62
  7
10
1524.507
20
830.373
30
0.0
11
1524.416
21
829.437
31
0.0
0
LINE
5
210e
8
0-0
6
CONTINUOUS
62
  7
10
1524.416
20
829.437
30
0.0
11
1524.278
21
828.514
31
0.0
0
LINE
5
210f
8
0-0
6
CONTINUOUS
62
  7
10
1524.278
20
828.514
30
0.0
11
1524.176
21
827.974
31
0.0
0
LINE
5
2110
8
0-0
6
CONTINUOUS
62
  7
10
1524.176
20
827.974
30
0.0
11
1524.093
21
827.580
31
0.0
0
LINE
5
2111
8
0-0
6
CONTINUOUS
62
  7
10
1524.093
20
827.580
30
0.0
11
1523.925
21
826.908
31
0.0
0
LINE
5
2112
8
0-0
6
CONTINUOUS
62
  7
10
1523.925
20
826.908
30
0.0
11
1523.701
21
826.224
31
0.0
0
LINE
5
2113
8
0-0
6
CONTINUOUS
62
  7
10
1523.701
20
826.224
30
0.0
11
1523.409
21
825.562
31
0.0
0
LINE
5
2114
8
0-0
6
CONTINUOUS
62
  7
10
1523.409
20
825.562
30
0.0
11
1523.187
21
825.167
31
0.0
0
LINE
5
2115
8
0-0
6
CONTINUOUS
62
  7
10
1523.187
20
825.167
30
0.0
11
1522.917
21
824.771
31
0.0
0
LINE
5
2116
8
0-0
6
CONTINUOUS
62
  7
10
1522.917
20
824.771
30
0.0
11
1522.417
21
824.181
31
0.0
0
LINE
5
2117
8
0-0
6
CONTINUOUS
62
  7
10
1522.417
20
824.181
30
0.0
11
1521.869
21
823.651
31
0.0
0
LINE
5
2118
8
0-0
6
CONTINUOUS
62
  7
10
1521.869
20
823.651
30
0.0
11
1521.307
21
823.177
31
0.0
0
LINE
5
2119
8
0-0
6
CONTINUOUS
62
  7
10
1521.307
20
823.177
30
0.0
11
1520.976
21
822.915
31
0.0
0
LINE
5
211a
8
0-0
6
CONTINUOUS
62
  7
10
1520.976
20
822.915
30
0.0
11
1520.539
21
822.579
31
0.0
0
LINE
5
211b
8
0-0
6
CONTINUOUS
62
  7
10
1520.539
20
822.579
30
0.0
11
1519.782
21
822.024
31
0.0
0
LINE
5
211c
8
0-0
6
CONTINUOUS
62
  7
10
1519.782
20
822.024
30
0.0
11
1518.999
21
821.494
31
0.0
0
LINE
5
211d
8
0-0
6
CONTINUOUS
62
  7
10
1518.999
20
821.494
30
0.0
11
1518.197
21
821.002
31
0.0
0
LINE
5
211e
8
0-0
6
CONTINUOUS
62
  7
10
1518.197
20
821.002
30
0.0
11
1517.711
21
820.731
31
0.0
0
LINE
5
211f
8
0-0
6
CONTINUOUS
62
  7
10
1517.711
20
820.731
30
0.0
11
1517.387
21
820.561
31
0.0
0
LINE
5
2120
8
0-0
6
CONTINUOUS
62
  7
10
1517.387
20
820.561
30
0.0
11
1516.838
21
820.292
31
0.0
0
LINE
5
2121
8
0-0
6
CONTINUOUS
62
  7
10
1516.838
20
820.292
30
0.0
11
1516.277
21
820.037
31
0.0
0
LINE
5
2122
8
0-0
6
CONTINUOUS
62
  7
10
1516.277
20
820.037
30
0.0
11
1515.715
21
819.797
31
0.0
0
LINE
5
2123
8
0-0
6
CONTINUOUS
62
  7
10
1515.715
20
819.797
30
0.0
11
1515.385
21
819.662
31
0.0
0
LINE
5
2124
8
0-0
6
CONTINUOUS
62
  7
10
1515.385
20
819.662
30
0.0
11
1515.103
21
819.549
31
0.0
0
LINE
5
2125
8
0-0
6
CONTINUOUS
62
  7
10
1515.103
20
819.549
30
0.0
11
1514.619
21
819.352
31
0.0
0
LINE
5
2126
8
0-0
6
CONTINUOUS
62
  7
10
1514.619
20
819.352
30
0.0
11
1514.175
21
819.157
31
0.0
0
LINE
5
2127
8
0-0
6
CONTINUOUS
62
  7
10
1514.175
20
819.157
30
0.0
11
1513.763
21
818.947
31
0.0
0
LINE
5
2128
8
0-0
6
CONTINUOUS
62
  7
10
1513.763
20
818.947
30
0.0
11
1513.561
21
818.827
31
0.0
0
LINE
5
2129
8
0-0
6
CONTINUOUS
62
  7
10
1513.561
20
818.827
30
0.0
11
1513.319
21
818.662
31
0.0
0
LINE
5
212a
8
0-0
6
CONTINUOUS
62
  7
10
1513.319
20
818.662
30
0.0
11
1512.890
21
818.313
31
0.0
0
LINE
5
212b
8
0-0
6
CONTINUOUS
62
  7
10
1512.890
20
818.313
30
0.0
11
1512.469
21
817.910
31
0.0
0
LINE
5
212c
8
0-0
6
CONTINUOUS
62
  7
10
1512.469
20
817.910
30
0.0
11
1512.029
21
817.448
31
0.0
0
LINE
5
212d
8
0-0
6
CONTINUOUS
62
  7
10
1512.029
20
817.448
30
0.0
11
1511.770
21
817.167
31
0.0
0
LINE
5
212e
8
0-0
6
CONTINUOUS
62
  7
10
1511.770
20
817.167
30
0.0
11
1511.534
21
816.909
31
0.0
0
LINE
5
212f
8
0-0
6
CONTINUOUS
62
  7
10
1511.534
20
816.909
30
0.0
11
1511.166
21
816.479
31
0.0
0
LINE
5
2130
8
0-0
6
CONTINUOUS
62
  7
10
1511.166
20
816.479
30
0.0
11
1510.901
21
816.096
31
0.0
0
LINE
5
2131
8
0-0
6
CONTINUOUS
62
  7
10
1510.901
20
816.096
30
0.0
11
1510.751
21
815.757
31
0.0
0
LINE
5
2132
8
0-0
6
CONTINUOUS
62
  7
10
1510.751
20
815.757
30
0.0
11
1510.725
21
815.629
31
0.0
0
LINE
5
2133
8
0-0
6
CONTINUOUS
62
  7
10
1510.725
20
815.629
30
0.0
11
1510.722
21
815.547
31
0.0
0
LINE
5
2134
8
0-0
6
CONTINUOUS
62
  7
10
1510.722
20
815.547
30
0.0
11
1510.757
21
815.250
31
0.0
0
LINE
5
2135
8
0-0
6
CONTINUOUS
62
  7
10
1510.757
20
815.250
30
0.0
11
1510.841
21
814.889
31
0.0
0
LINE
5
2136
8
0-0
6
CONTINUOUS
62
  7
10
1510.841
20
814.889
30
0.0
11
1510.957
21
814.456
31
0.0
0
LINE
5
2137
8
0-0
6
CONTINUOUS
62
  7
10
1510.957
20
814.456
30
0.0
11
1511.026
21
814.174
31
0.0
0
LINE
5
2138
8
0-0
6
CONTINUOUS
62
  7
10
1511.026
20
814.174
30
0.0
11
1511.070
21
813.962
31
0.0
0
LINE
5
2139
8
0-0
6
CONTINUOUS
62
  7
10
1511.070
20
813.962
30
0.0
11
1511.130
21
813.634
31
0.0
0
LINE
5
213a
8
0-0
6
CONTINUOUS
62
  7
10
1511.130
20
813.634
30
0.0
11
1511.185
21
813.344
31
0.0
0
LINE
5
213b
8
0-0
6
CONTINUOUS
62
  7
10
1511.185
20
813.344
30
0.0
11
1511.245
21
813.086
31
0.0
0
LINE
5
213c
8
0-0
6
CONTINUOUS
62
  7
10
1511.245
20
813.086
30
0.0
11
1511.278
21
812.974
31
0.0
0
LINE
5
213d
8
0-0
6
CONTINUOUS
62
  7
10
1511.278
20
812.974
30
0.0
11
1511.350
21
812.782
31
0.0
0
LINE
5
213e
8
0-0
6
CONTINUOUS
62
  7
10
1511.350
20
812.782
30
0.0
11
1511.536
21
812.411
31
0.0
0
LINE
5
213f
8
0-0
6
CONTINUOUS
62
  7
10
1511.536
20
812.411
30
0.0
11
1511.769
21
812.039
31
0.0
0
LINE
5
2140
8
0-0
6
CONTINUOUS
62
  7
10
1511.769
20
812.039
30
0.0
11
1512.038
21
811.659
31
0.0
0
LINE
5
2141
8
0-0
6
CONTINUOUS
62
  7
10
1512.038
20
811.659
30
0.0
11
1512.198
21
811.444
31
0.0
0
LINE
5
2142
8
0-0
6
CONTINUOUS
62
  7
10
1512.198
20
811.444
30
0.0
11
1512.340
21
811.256
31
0.0
0
LINE
5
2143
8
0-0
6
CONTINUOUS
62
  7
10
1512.340
20
811.256
30
0.0
11
1512.583
21
810.942
31
0.0
0
LINE
5
2144
8
0-0
6
CONTINUOUS
62
  7
10
1512.583
20
810.942
30
0.0
11
1512.841
21
810.624
31
0.0
0
LINE
5
2145
8
0-0
6
CONTINUOUS
62
  7
10
1512.841
20
810.624
30
0.0
11
1513.141
21
810.275
31
0.0
0
LINE
5
2146
8
0-0
6
CONTINUOUS
62
  7
10
1513.141
20
810.275
30
0.0
11
1513.343
21
810.050
31
0.0
0
LINE
5
2147
8
0-0
6
CONTINUOUS
62
  7
10
1513.343
20
810.050
30
0.0
11
1513.457
21
809.925
31
0.0
0
LINE
5
2148
8
0-0
6
CONTINUOUS
62
  7
10
1513.457
20
809.925
30
0.0
11
1513.676
21
809.679
31
0.0
0
LINE
5
2149
8
0-0
6
CONTINUOUS
62
  7
10
1513.676
20
809.679
30
0.0
11
1513.906
21
809.388
31
0.0
0
LINE
5
214a
8
0-0
6
CONTINUOUS
62
  7
10
1513.906
20
809.388
30
0.0
11
1514.138
21
808.965
31
0.0
0
LINE
5
214b
8
0-0
6
CONTINUOUS
62
  7
10
1514.138
20
808.965
30
0.0
11
1514.199
21
808.238
31
0.0
0
LINE
5
214c
8
0-0
6
CONTINUOUS
62
  7
10
1514.199
20
808.238
30
0.0
11
1513.570
21
807.578
31
0.0
0
LINE
5
214d
8
0-0
6
CONTINUOUS
62
  7
10
1513.570
20
807.578
30
0.0
11
1512.843
21
807.524
31
0.0
0
LINE
5
214e
8
0-0
6
CONTINUOUS
62
  7
10
1512.843
20
807.524
30
0.0
11
1512.347
21
807.604
31
0.0
0
LINE
5
214f
8
0-0
6
CONTINUOUS
62
  7
10
1512.347
20
807.604
30
0.0
11
1511.899
21
807.710
31
0.0
0
LINE
5
2150
8
0-0
6
CONTINUOUS
62
  7
10
1511.899
20
807.710
30
0.0
11
1511.764
21
807.746
31
0.0
0
LINE
5
2151
8
0-0
6
CONTINUOUS
62
  7
10
1511.764
20
807.746
30
0.0
11
1511.280
21
807.872
31
0.0
0
LINE
5
2152
8
0-0
6
CONTINUOUS
62
  7
10
1511.280
20
807.872
30
0.0
11
1510.727
21
808.007
31
0.0
0
LINE
5
2153
8
0-0
6
CONTINUOUS
62
  7
10
1510.727
20
808.007
30
0.0
11
1510.288
21
808.089
31
0.0
0
LINE
5
2154
8
0-0
6
CONTINUOUS
62
  7
10
1510.288
20
808.089
30
0.0
11
1509.894
21
808.123
31
0.0
0
LINE
5
2155
8
0-0
6
CONTINUOUS
62
  7
10
1509.894
20
808.123
30
0.0
11
1509.684
21
808.122
31
0.0
0
LINE
5
2156
8
0-0
6
CONTINUOUS
62
  7
10
1509.684
20
808.122
30
0.0
11
1509.491
21
808.108
31
0.0
0
LINE
5
2157
8
0-0
6
CONTINUOUS
62
  7
10
1509.491
20
808.108
30
0.0
11
1509.106
21
808.051
31
0.0
0
LINE
5
2158
8
0-0
6
CONTINUOUS
62
  7
10
1509.106
20
808.051
30
0.0
11
1508.725
21
807.956
31
0.0
0
LINE
5
2159
8
0-0
6
CONTINUOUS
62
  7
10
1508.725
20
807.956
30
0.0
11
1508.350
21
807.820
31
0.0
0
LINE
5
215a
8
0-0
6
CONTINUOUS
62
  7
10
1508.350
20
807.820
30
0.0
11
1508.172
21
807.736
31
0.0
0
LINE
5
215b
8
0-0
6
CONTINUOUS
62
  7
10
1508.172
20
807.736
30
0.0
11
1507.938
21
807.598
31
0.0
0
LINE
5
215c
8
0-0
6
CONTINUOUS
62
  7
10
1507.938
20
807.598
30
0.0
11
1507.533
21
807.284
31
0.0
0
LINE
5
215d
8
0-0
6
CONTINUOUS
62
  7
10
1507.533
20
807.284
30
0.0
11
1507.170
21
806.909
31
0.0
0
LINE
5
215e
8
0-0
6
CONTINUOUS
62
  7
10
1507.170
20
806.909
30
0.0
11
1506.831
21
806.463
31
0.0
0
LINE
5
215f
8
0-0
6
CONTINUOUS
62
  7
10
1506.831
20
806.463
30
0.0
11
1506.656
21
806.193
31
0.0
0
LINE
5
2160
8
0-0
6
CONTINUOUS
62
  7
10
1506.656
20
806.193
30
0.0
11
1506.522
21
805.966
31
0.0
0
LINE
5
2161
8
0-0
6
CONTINUOUS
62
  7
10
1506.522
20
805.966
30
0.0
11
1506.311
21
805.550
31
0.0
0
LINE
5
2162
8
0-0
6
CONTINUOUS
62
  7
10
1506.311
20
805.550
30
0.0
11
1506.145
21
805.141
31
0.0
0
LINE
5
2163
8
0-0
6
CONTINUOUS
62
  7
10
1506.145
20
805.141
30
0.0
11
1506.023
21
804.726
31
0.0
0
LINE
5
2164
8
0-0
6
CONTINUOUS
62
  7
10
1506.023
20
804.726
30
0.0
11
1505.980
21
804.507
31
0.0
0
LINE
5
2165
8
0-0
6
CONTINUOUS
62
  7
10
1505.980
20
804.507
30
0.0
11
1505.949
21
804.248
31
0.0
0
LINE
5
2166
8
0-0
6
CONTINUOUS
62
  7
10
1505.949
20
804.248
30
0.0
11
1505.935
21
803.740
31
0.0
0
LINE
5
2167
8
0-0
6
CONTINUOUS
62
  7
10
1505.935
20
803.740
30
0.0
11
1505.960
21
803.199
31
0.0
0
LINE
5
2168
8
0-0
6
CONTINUOUS
62
  7
10
1505.960
20
803.199
30
0.0
11
1506.008
21
802.632
31
0.0
0
LINE
5
2169
8
0-0
6
CONTINUOUS
62
  7
10
1506.008
20
802.632
30
0.0
11
1506.040
21
802.271
31
0.0
0
LINE
5
216a
8
0-0
6
CONTINUOUS
62
  7
10
1506.040
20
802.271
30
0.0
11
1506.071
21
801.846
31
0.0
0
LINE
5
216b
8
0-0
6
CONTINUOUS
62
  7
10
1506.071
20
801.846
30
0.0
11
1506.113
21
801.145
31
0.0
0
LINE
5
216c
8
0-0
6
CONTINUOUS
62
  7
10
1506.113
20
801.145
30
0.0
11
1506.148
21
800.440
31
0.0
0
LINE
5
216d
8
0-0
6
CONTINUOUS
62
  7
10
1506.148
20
800.440
30
0.0
11
1506.184
21
799.769
31
0.0
0
LINE
5
216e
8
0-0
6
CONTINUOUS
62
  7
10
1506.184
20
799.769
30
0.0
11
1506.210
21
799.376
31
0.0
0
LINE
5
216f
8
0-0
6
CONTINUOUS
62
  7
10
1506.210
20
799.376
30
0.0
11
1506.231
21
799.105
31
0.0
0
LINE
5
2170
8
0-0
6
CONTINUOUS
62
  7
10
1506.231
20
799.105
30
0.0
11
1506.275
21
798.635
31
0.0
0
LINE
5
2171
8
0-0
6
CONTINUOUS
62
  7
10
1506.275
20
798.635
30
0.0
11
1506.331
21
798.174
31
0.0
0
LINE
5
2172
8
0-0
6
CONTINUOUS
62
  7
10
1506.331
20
798.174
30
0.0
11
1506.404
21
797.717
31
0.0
0
LINE
5
2173
8
0-0
6
CONTINUOUS
62
  7
10
1506.404
20
797.717
30
0.0
11
1506.453
21
797.466
31
0.0
0
LINE
5
2174
8
0-0
6
CONTINUOUS
62
  7
10
1506.453
20
797.466
30
0.0
11
1506.518
21
797.175
31
0.0
0
LINE
5
2175
8
0-0
6
CONTINUOUS
62
  7
10
1506.518
20
797.175
30
0.0
11
1506.650
21
796.643
31
0.0
0
LINE
5
2176
8
0-0
6
CONTINUOUS
62
  7
10
1506.650
20
796.643
30
0.0
11
1506.791
21
796.092
31
0.0
0
LINE
5
2177
8
0-0
6
CONTINUOUS
62
  7
10
1506.791
20
796.092
30
0.0
11
1506.923
21
795.514
31
0.0
0
LINE
5
2178
8
0-0
6
CONTINUOUS
62
  7
10
1506.923
20
795.514
30
0.0
11
1506.990
21
795.157
31
0.0
0
LINE
5
2179
8
0-0
6
CONTINUOUS
62
  7
10
1506.990
20
795.157
30
0.0
11
1507.032
21
794.874
31
0.0
0
LINE
5
217a
8
0-0
6
CONTINUOUS
62
  7
10
1507.032
20
794.874
30
0.0
11
1507.084
21
794.406
31
0.0
0
LINE
5
217b
8
0-0
6
CONTINUOUS
62
  7
10
1507.084
20
794.406
30
0.0
11
1507.120
21
793.945
31
0.0
0
LINE
5
217c
8
0-0
6
CONTINUOUS
62
  7
10
1507.120
20
793.945
30
0.0
11
1507.146
21
793.498
31
0.0
0
LINE
5
217d
8
0-0
6
CONTINUOUS
62
  7
10
1507.146
20
793.498
30
0.0
11
1507.159
21
793.250
31
0.0
0
LINE
5
217e
8
0-0
6
CONTINUOUS
62
  7
10
1507.159
20
793.250
30
0.0
11
1507.179
21
792.897
31
0.0
0
LINE
5
217f
8
0-0
6
CONTINUOUS
62
  7
10
1507.179
20
792.897
30
0.0
11
1507.205
21
792.293
31
0.0
0
LINE
5
2180
8
0-0
6
CONTINUOUS
62
  7
10
1507.205
20
792.293
30
0.0
11
1507.208
21
791.658
31
0.0
0
LINE
5
2181
8
0-0
6
CONTINUOUS
62
  7
10
1507.208
20
791.658
30
0.0
11
1507.166
21
791.010
31
0.0
0
LINE
5
2182
8
0-0
6
CONTINUOUS
62
  7
10
1507.166
20
791.010
30
0.0
11
1507.107
21
790.604
31
0.0
0
LINE
5
2183
8
0-0
6
CONTINUOUS
62
  7
10
1507.107
20
790.604
30
0.0
11
1506.987
21
790.072
31
0.0
0
LINE
5
2184
8
0-0
6
CONTINUOUS
62
  7
10
1506.987
20
790.072
30
0.0
11
1506.691
21
789.223
31
0.0
0
LINE
5
2185
8
0-0
6
CONTINUOUS
62
  7
10
1506.691
20
789.223
30
0.0
11
1506.292
21
788.414
31
0.0
0
LINE
5
2186
8
0-0
6
CONTINUOUS
62
  7
10
1506.292
20
788.414
30
0.0
11
1505.826
21
787.668
31
0.0
0
LINE
5
2187
8
0-0
6
CONTINUOUS
62
  7
10
1505.826
20
787.668
30
0.0
11
1505.523
21
787.248
31
0.0
0
LINE
5
2188
8
0-0
6
CONTINUOUS
62
  7
10
1505.523
20
787.248
30
0.0
11
1505.184
21
786.819
31
0.0
0
LINE
5
2189
8
0-0
6
CONTINUOUS
62
  7
10
1505.184
20
786.819
30
0.0
11
1504.902
21
786.503
31
0.0
0
LINE
5
218a
8
0-0
6
CONTINUOUS
62
  7
10
1468.851
20
1039.865
30
0.0
11
1468.851
21
754.865
31
0.0
0
LINE
5
218b
8
0-0
6
CONTINUOUS
62
  7
10
1563.851
20
1202.973
30
0.0
11
1468.851
21
1202.973
31
0.0
0
LINE
5
218c
8
0-0
6
CONTINUOUS
62
  7
10
1563.851
20
1093.514
30
0.0
11
1563.851
21
1202.973
31
0.0
0
LINE
5
218d
8
0-0
6
CONTINUOUS
62
  7
10
1468.851
20
1093.514
30
0.0
11
1468.851
21
1202.973
31
0.0
0
LINE
5
218e
8
0-0
6
CONTINUOUS
62
  7
10
1588.851
20
615.135
30
0.0
11
1468.851
21
615.135
31
0.0
0
LINE
5
218f
8
0-0
6
CONTINUOUS
62
  7
10
1588.851
20
700.270
30
0.0
11
1588.851
21
615.135
31
0.0
0
LINE
5
2190
8
0-0
6
CONTINUOUS
62
  7
10
1468.851
20
700.270
30
0.0
11
1468.851
21
615.135
31
0.0
0
LINE
5
2191
8
0-0
6
CONTINUOUS
62
  7
10
1379.662
20
754.865
30
0.0
11
1379.662
21
1039.865
31
0.0
0
LINE
5
2192
8
0-0
6
CONTINUOUS
62
  7
10
1428.311
20
754.865
30
0.0
11
1379.662
21
754.865
31
0.0
0
LINE
5
2193
8
0-0
6
CONTINUOUS
62
  7
10
1428.311
20
1039.865
30
0.0
11
1379.662
21
1039.865
31
0.0
0
LINE
5
2194
8
0-0
6
CONTINUOUS
62
  7
10
1115.851
20
401.676
30
0.0
11
1133.851
21
401.676
31
0.0
0
LINE
5
2195
8
0-0
6
CONTINUOUS
62
  7
10
1115.851
20
430.676
30
0.0
11
1133.851
21
430.676
31
0.0
0
LINE
5
2196
8
0-0
6
CONTINUOUS
62
  7
10
1116.851
20
1039.865
30
0.0
11
1136.800
21
1039.865
31
0.0
0
LINE
5
2197
8
0-0
6
CONTINUOUS
62
  7
10
617.500
20
1044.865
30
0.0
11
603.500
21
1044.865
31
0.0
0
LINE
5
2198
8
0-0
6
CONTINUOUS
62
  7
10
567.500
20
763.687
30
0.0
11
567.500
21
749.610
31
0.0
0
LINE
5
2199
8
0-0
6
CONTINUOUS
62
  7
10
603.500
20
767.471
30
0.0
11
567.500
21
763.687
31
0.0
0
LINE
5
219a
8
0-0
6
CONTINUOUS
62
  7
10
603.500
20
1044.865
30
0.0
11
603.500
21
767.471
31
0.0
0
LINE
5
219b
8
0-0
6
CONTINUOUS
62
  7
10
617.500
20
754.865
30
0.0
11
567.500
21
749.610
31
0.0
0
LINE
5
219c
8
0-0
6
CONTINUOUS
62
  7
10
617.500
20
1044.865
30
0.0
11
617.500
21
754.865
31
0.0
0
LINE
5
219d
8
ADD_LINE
6
HIDDEN
62
  3
10
1001.351
20
425.676
30
0.0
11
972.703
21
425.676
31
0.0
0
LINE
5
219e
8
ADD_LINE
6
HIDDEN
62
  3
10
1001.351
20
425.676
30
0.0
11
1032.474
21
425.676
31
0.0
0
LINE
5
219f
8
0-0
6
CONTINUOUS
62
  7
10
1302.635
20
1044.865
30
0.0
11
1302.635
21
754.865
31
0.0
0
LINE
5
21a0
8
0-0
6
CONTINUOUS
62
  7
10
1176.959
20
1044.865
30
0.0
11
1302.635
21
1044.865
31
0.0
0
LINE
5
21a1
8
0-0
6
CONTINUOUS
62
  7
10
1176.959
20
754.865
30
0.0
11
1302.635
21
754.865
31
0.0
0
LINE
5
21a2
8
0-0
6
CONTINUOUS
62
  7
10
1302.635
20
505.676
30
0.0
11
1302.635
21
385.676
31
0.0
0
LINE
5
21a3
8
0-0
6
CONTINUOUS
62
  7
10
1176.959
20
505.676
30
0.0
11
1302.635
21
505.676
31
0.0
0
LINE
5
21a4
8
0-0
6
CONTINUOUS
62
  7
10
1176.959
20
385.676
30
0.0
11
1302.635
21
385.676
31
0.0
0
LINE
5
21a5
8
0-0
6
CONTINUOUS
62
  7
10
1249.932
20
1044.865
30
0.0
11
1249.932
21
1039.865
31
0.0
0
LINE
5
21a6
8
0-0
6
CONTINUOUS
62
  7
10
1176.959
20
1044.865
30
0.0
11
1249.932
21
1044.865
31
0.0
0
LINE
5
21a7
8
0-0
6
CONTINUOUS
62
  7
10
1176.959
20
1039.865
30
0.0
11
1249.932
21
1039.865
31
0.0
0
LINE
5
21a8
8
0-0
6
CONTINUOUS
62
  7
10
1249.932
20
1039.865
30
0.0
11
1249.932
21
754.865
31
0.0
0
LINE
5
21a9
8
0-0
6
CONTINUOUS
62
  7
10
1176.959
20
754.865
30
0.0
11
1249.932
21
754.865
31
0.0
0
LINE
5
21aa
8
0-0
6
CONTINUOUS
62
  7
10
1249.932
20
505.676
30
0.0
11
1249.932
21
455.676
31
0.0
0
LINE
5
21ab
8
0-0
6
CONTINUOUS
62
  7
10
1176.959
20
505.676
30
0.0
11
1249.932
21
505.676
31
0.0
0
LINE
5
21ac
8
0-0
6
CONTINUOUS
62
  7
10
1176.959
20
455.676
30
0.0
11
1249.932
21
455.676
31
0.0
0
LINE
5
21ad
8
0-0
6
CONTINUOUS
62
  7
10
603.500
20
1202.973
30
0.0
11
617.500
21
1202.973
31
0.0
0
LINE
5
21ae
8
0-0
6
CONTINUOUS
62
  7
10
603.500
20
1093.514
30
0.0
11
603.500
21
1202.973
31
0.0
0
LINE
5
21af
8
0-0
6
CONTINUOUS
62
  7
10
617.500
20
1093.514
30
0.0
11
617.500
21
1202.973
31
0.0
0
LINE
5
21b0
8
0-0
6
CONTINUOUS
62
  7
10
868.851
20
1202.973
30
0.0
11
1136.800
21
1202.973
31
0.0
0
LINE
5
21b1
8
0-0
6
CONTINUOUS
62
  7
10
868.851
20
1093.514
30
0.0
11
868.851
21
1202.973
31
0.0
0
LINE
5
21b2
8
0-0
6
CONTINUOUS
62
  7
10
1136.800
20
1093.514
30
0.0
11
1136.800
21
1202.973
31
0.0
0
LINE
5
21b3
8
0-0
6
CONTINUOUS
62
  7
10
868.851
20
1154.324
30
0.0
11
1116.851
21
1154.324
31
0.0
0
LINE
5
21b4
8
0-0
6
CONTINUOUS
62
  7
10
868.851
20
1093.514
30
0.0
11
868.851
21
1154.324
31
0.0
0
LINE
5
21b5
8
0-0
6
CONTINUOUS
62
  7
10
1116.851
20
1093.514
30
0.0
11
1116.851
21
1154.324
31
0.0
0
LINE
5
21b6
8
0-0
6
CONTINUOUS
62
  7
10
1136.799
20
1154.324
30
0.0
11
1116.851
21
1154.324
31
0.0
0
LINE
5
21b7
8
0-0
6
CONTINUOUS
62
  7
10
1136.799
20
1093.514
30
0.0
11
1136.799
21
1154.324
31
0.0
0
LINE
5
21b8
8
0-0
6
CONTINUOUS
62
  7
10
868.851
20
242.162
30
0.0
11
1133.851
21
242.162
31
0.0
0
LINE
5
21b9
8
0-0
6
CONTINUOUS
62
  7
10
868.851
20
331.351
30
0.0
11
868.851
21
242.162
31
0.0
0
LINE
5
21ba
8
0-0
6
CONTINUOUS
62
  7
10
1133.851
20
331.351
30
0.0
11
1133.851
21
242.162
31
0.0
0
LINE
5
21bb
8
0-0
6
CONTINUOUS
62
  7
10
1133.851
20
615.135
30
0.0
11
868.851
21
615.135
31
0.0
0
LINE
5
21bc
8
0-0
6
CONTINUOUS
62
  7
10
1133.851
20
700.270
30
0.0
11
1133.851
21
615.135
31
0.0
0
LINE
5
21bd
8
0-0
6
CONTINUOUS
62
  7
10
868.851
20
700.270
30
0.0
11
868.851
21
615.135
31
0.0
0
LINE
5
21be
8
0-0
6
CONTINUOUS
62
  7
10
617.500
20
615.135
30
0.0
11
567.500
21
615.135
31
0.0
0
LINE
5
21bf
8
0-0
6
CONTINUOUS
62
  7
10
617.500
20
700.270
30
0.0
11
617.500
21
615.135
31
0.0
0
LINE
5
21c0
8
0-0
6
CONTINUOUS
62
  7
10
567.500
20
700.270
30
0.0
11
567.500
21
615.135
31
0.0
0
LINE
5
21c1
8
ADD_LINE
6
HIDDEN
62
  3
10
1001.351
20
536.039
30
0.0
11
1001.351
21
392.394
31
0.0
0
CIRCLE
5
21c2
8
0-0
6
CONTINUOUS
62
  7
10
953.851
20
1024.865
30
0.0
40
3.000
0
CIRCLE
5
21c3
8
0-0
6
CONTINUOUS
62
  7
10
1053.851
20
1024.865
30
0.0
40
3.000
0
ARC
5
21c4
8
0-0
6
CONTINUOUS
62
  7
10
1001.351
20
783.280
30
0.0
40
307.604
50
244.484955
51
295.515045
0
ARC
5
21c5
8
0-0
6
CONTINUOUS
62
  7
10
1001.351
20
733.280
30
0.0
40
307.604
50
244.484955
51
295.515045
0
ARC
5
21c6
8
0-0
6
CONTINUOUS
62
  7
10
1529.851
20
754.865
30
0.0
40
20.000
50
450.000000
51
540.000000
0
ARC
5
21c7
8
0-0
6
CONTINUOUS
62
  7
10
1588.851
20
816.865
30
0.0
40
18.000
50
450.000000
51
540.000000
0
ARC
5
21c8
8
0-0
6
CONTINUOUS
62
  7
10
1545.851
20
826.365
30
0.0
40
26.744
50
624.208801
51
339.193176
0
ARC
5
21c9
8
0-0
6
CONTINUOUS
62
  7
10
1529.851
20
790.865
30
0.0
40
16.000
50
630.000000
51
393.763611
0
ARC
5
21ca
8
0-0
6
CONTINUOUS
62
  7
10
1614.569
20
864.063
30
0.0
40
68.824
50
500.751190
51
514.659668
0
ARC
5
21cb
8
0-0
6
CONTINUOUS
62
  7
10
1617.996
20
871.579
30
0.0
40
67.199
50
507.578613
51
521.551208
0
ARC
5
21cc
8
0-0
6
CONTINUOUS
62
  7
10
1504.380
20
833.321
30
0.0
40
4.610
50
392.561768
51
461.386047
0
ARC
5
21cd
8
0-0
6
CONTINUOUS
62
  7
10
1502.944
20
834.077
30
0.0
40
3.800
50
361.376404
51
442.051941
0
ARC
5
21ce
8
0-0
6
CONTINUOUS
62
  7
10
1489.195
20
798.812
30
0.0
40
17.973
50
298.563477
51
322.846375
0
ARC
5
21cf
8
0-0
6
CONTINUOUS
62
  7
10
1496.201
20
795.293
30
0.0
40
12.368
50
277.374084
51
314.708771
0
CIRCLE
5
21d0
8
ADD_LINE
6
HIDDEN
62
  3
10
1001.351
20
425.676
30
0.0
40
3.000
0
TEXT
5
21d1
100
AcDbEntity
8
0-0
62
7
100
AcDbText
10
1510.101
20
1205.473
30
0.0
40
9.750
41
0.800
50
0.000
1
95
100
AcDbText
0
TEXT
5
21d2
100
AcDbEntity
8
0-0
62
7
100
AcDbText
10
1519.476
20
617.635
30
0.0
40
9.750
41
0.800
50
360.000
1
120
100
AcDbText
0
TEXT
5
21d3
100
AcDbEntity
8
0-0
62
7
100
AcDbText
10
1394.662
20
887.990
30
0.0
40
9.750
41
0.800
50
90.000
1
285
100
AcDbText
0
TEXT
5
21d4
100
AcDbEntity
8
0-0
62
7
100
AcDbText
10
1300.135
20
890.490
30
0.0
40
9.750
41
0.800
50
90.000
1
290
100
AcDbText
0
TEXT
5
21d5
100
AcDbEntity
8
0-0
62
7
100
AcDbText
10
1300.135
20
436.301
30
0.0
40
9.750
41
0.800
50
90.000
1
120
100
AcDbText
0
TEXT
5
21d6
100
AcDbEntity
8
0-0
62
7
100
AcDbText
10
1247.432
20
1039.240
30
0.0
40
9.750
41
0.800
50
90.000
1
5
100
AcDbText
0
TEXT
5
21d7
100
AcDbEntity
8
0-0
62
7
100
AcDbText
10
1247.432
20
887.990
30
0.0
40
9.750
41
0.800
50
90.000
1
285
100
AcDbText
0
TEXT
5
21d8
100
AcDbEntity
8
0-0
62
7
100
AcDbText
10
1247.432
20
474.426
30
0.0
40
9.750
41
0.800
50
90.000
1
50
100
AcDbText
0
TEXT
5
21d9
100
AcDbEntity
8
0-0
62
7
100
AcDbText
10
604.250
20
1205.473
30
0.0
40
9.750
41
0.800
50
0.000
1
14
100
AcDbText
0
TEXT
5
21da
100
AcDbEntity
8
0-0
62
7
100
AcDbText
10
993.451
20
1205.473
30
0.0
40
9.750
41
0.800
50
0.000
1
268
100
AcDbText
0
TEXT
5
21db
100
AcDbEntity
8
0-0
62
7
100
AcDbText
10
983.476
20
1156.824
30
0.0
40
9.750
41
0.800
50
0.000
1
248
100
AcDbText
0
TEXT
5
21dc
100
AcDbEntity
8
0-0
62
7
100
AcDbText
10
1120.575
20
1156.824
30
0.0
40
9.750
41
0.800
50
0.000
1
20
100
AcDbText
0
TEXT
5
21dd
100
AcDbEntity
8
0-0
62
7
100
AcDbText
10
991.976
20
244.662
30
0.0
40
9.750
41
0.800
50
0.000
1
265
100
AcDbText
0
TEXT
5
21de
100
AcDbEntity
8
0-0
62
7
100
AcDbText
10
991.976
20
617.635
30
0.0
40
9.750
41
0.800
50
0.000
1
265
100
AcDbText
0
TEXT
5
21df
100
AcDbEntity
8
0-0
62
7
100
AcDbText
10
586.250
20
617.635
30
0.0
40
9.750
41
0.800
50
360.000
1
50
100
AcDbText
0
POINT
5
21e0
8
0-0
62
  7
10
1563.851
20
1202.973
30
0.0
0
POINT
5
21e1
8
0-0
62
  7
10
1468.851
20
1202.973
30
0.0
0
POINT
5
21e2
8
0-0
62
  7
10
1588.851
20
615.135
30
0.0
0
POINT
5
21e3
8
0-0
62
  7
10
1468.851
20
615.135
30
0.0
0
POINT
5
21e4
8
0-0
62
  7
10
1379.662
20
754.865
30
0.0
0
POINT
5
21e5
8
0-0
62
  7
10
1379.662
20
1039.865
30
0.0
0
POINT
5
21e6
8
0-0
62
  7
10
1302.635
20
1044.865
30
0.0
0
POINT
5
21e7
8
0-0
62
  7
10
1302.635
20
754.865
30
0.0
0
POINT
5
21e8
8
0-0
62
  7
10
1302.635
20
505.676
30
0.0
0
POINT
5
21e9
8
0-0
62
  7
10
1302.635
20
385.676
30
0.0
0
POINT
5
21ea
8
0-0
62
  7
10
1249.932
20
1044.865
30
0.0
0
POINT
5
21eb
8
0-0
62
  7
10
1249.932
20
1039.865
30
0.0
0
POINT
5
21ec
8
0-0
62
  7
10
1249.932
20
754.865
30
0.0
0
POINT
5
21ed
8
0-0
62
  7
10
1249.932
20
505.676
30
0.0
0
POINT
5
21ee
8
0-0
62
  7
10
1249.932
20
455.676
30
0.0
0
POINT
5
21ef
8
0-0
62
  7
10
603.500
20
1202.973
30
0.0
0
POINT
5
21f0
8
0-0
62
  7
10
617.500
20
1202.973
30
0.0
0
POINT
5
21f1
8
0-0
62
  7
10
868.851
20
1202.973
30
0.0
0
POINT
5
21f2
8
0-0
62
  7
10
1136.800
20
1202.973
30
0.0
0
POINT
5
21f3
8
0-0
62
  7
10
868.851
20
1154.324
30
0.0
0
POINT
5
21f4
8
0-0
62
  7
10
1116.851
20
1154.324
30
0.0
0
POINT
5
21f5
8
0-0
62
  7
10
1136.799
20
1154.324
30
0.0
0
POINT
5
21f6
8
0-0
62
  7
10
868.851
20
242.162
30
0.0
0
POINT
5
21f7
8
0-0
62
  7
10
1133.851
20
242.162
30
0.0
0
POINT
5
21f8
8
0-0
62
  7
10
1133.851
20
615.135
30
0.0
0
POINT
5
21f9
8
0-0
62
  7
10
868.851
20
615.135
30
0.0
0
POINT
5
21fa
8
0-0
62
  7
10
617.500
20
615.135
30
0.0
0
POINT
5
21fb
8
0-0
62
  7
10
567.500
20
615.135
30
0.0
0
ENDSEC
0
EOF
