0
SECTION
2
HEADER
  9
$EXTMIN
10
0
20
0
30
0
  9
$EXTMAX
10
2236.544
20
1288.405
30
0
  9
$LTSCALE
40
5.000
  9
$DIMSCALE
40
5.000
  9
$PDMODE
70
0
  9
$PDSIZE
40
40
0
ENDSEC
0
SECTION
2
TABLES
0
TABLE
2
LTYPE
70
9
0
LTYPE
5
1f4
2
CONTINUOUS
70
0
3
実線
72
65
73
0
40
0.0
0
LTYPE
5
1f5
2
DOT
70
0
3
--  --  --  --  --  --  --  --     
72
65
73
2
40
5.000
49
1.000
49
-4.000
0
LTYPE
5
1f6
2
DASHED
70
0
3
----    ----    ----    ----    
72
65
73
2
40
5.000
49
2.000
49
-3.000
0
LTYPE
5
1f7
2
DASHED2
70
0
3
------  ------  ------  ------ 
72
65
73
2
40
10.000
49
4.000
49
-6.000
0
LTYPE
5
1f8
2
CENTER
70
0
3
----- - ----- - ----- - ----- - 
72
65
73
4
40
9.000
49
6.000
49
-1.000
49
1.000
49
-1.000
0
LTYPE
5
1f9
2
CENTER2
70
0
3
----------  --  ----------  -- 
72
65
73
4
40
18.000
49
12.000
49
-2.000
49
2.000
49
-2.000
0
LTYPE
5
1fa
2
PHANTOM
70
0
3
--- - - --- - - --- - - --- - -
72
65
73
6
40
10.000
49
5.000
49
-1.000
49
1.000
49
-1.000
49
1.000
49
-1.000
0
LTYPE
5
1fb
2
PHANTOM2
70
0
3
--------  -  -  --------  -  -
72
65
73
6
40
16.000
49
6.000
49
-2.000
49
2.000
49
-2.000
49
2.000
49
-2.000
0
LTYPE
5
1fc
2
HIDDEN
70
0
3
-   -   -   -   -   -   -   -   
72
65
73
2
40
2.500
49
0.500
49
-2.000
0
ENDTAB
0
TABLE
2
STYLE
70
1
0
STYLE
5
1fd
100
AcDbSymbolTableRecord
100
AcDbTextStyleTableRecord
2
STANDARD
70
0
40
0.0
41
1.0
50
0.0
71
0
42
0.0
3
txt.shx
4
extfont.shx
0
STYLE
5
1fe
100
AcDbSymbolTableRecord
100
AcDbTextStyleTableRecord
2
TATEGAKI
70
4
40
0.0
41
1.0
50
0.0
71
0
42
0.0
3
txt.shx
4
extfont.shx
0
STYLE
5
1ff
100
AcDbSymbolTableRecord
100
AcDbTextStyleTableRecord
2
MT
70
0
40
0.0
41
1.0
50
0.0
71
0
42
0.0
3
MS Mincho
4

0
STYLE
5
200
100
AcDbSymbolTableRecord
100
AcDbTextStyleTableRecord
2
TMT
70
4
40
0.0
41
1.0
50
0.0
71
0
42
0.0
3
@MS Mincho
4

0
ENDTAB
0
TABLE
2
LAYER
5
21fc
100
AcDbSymbolTable
70
10
0
LAYER
5
21fd
100
AcDbSymbolTableRecord
100
AcDbLayerTableRecord
2
0
70
64
62
  7
  6
CONTINUOUS
0
LAYER
5
21fe
100
AcDbSymbolTableRecord
100
AcDbLayerTableRecord
2
0-0
70
64
62
  7
  6
CONTINUOUS
0
LAYER
5
21ff
100
AcDbSymbolTableRecord
100
AcDbLayerTableRecord
2
ADD_LINE
70
64
62
  -7
  6
CONTINUOUS
0
ENDTAB
0
ENDSEC
0
SECTION
2
ENTITIES
0
LINE
5
2200
8
0-0
6
CONTINUOUS
62
  7
10
851.081
20
773.987
30
0.0
11
1111.081
21
773.987
31
0.0
0
LINE
5
2201
8
0-0
6
CONTINUOUS
62
  7
10
1108.081
20
1066.986
30
0.0
11
1111.081
21
773.987
31
0.0
0
LINE
5
2202
8
0-0
6
CONTINUOUS
62
  7
10
851.081
20
1058.986
30
0.0
11
851.081
21
773.987
31
0.0
0
LINE
5
2203
8
0-0
6
CONTINUOUS
62
  7
10
881.081
20
1066.986
30
0.0
11
1108.081
21
1066.986
31
0.0
0
LINE
5
2204
8
0-0
6
CONTINUOUS
62
  7
10
881.081
20
1066.986
30
0.0
11
881.081
21
1058.986
31
0.0
0
LINE
5
2205
8
0-0
6
CONTINUOUS
62
  7
10
851.081
20
1058.986
30
0.0
11
1100.163
21
1058.986
31
0.0
0
LINE
5
2206
8
0-0
6
CONTINUOUS
62
  7
10
1100.163
20
1058.986
30
0.0
11
1102.640
21
816.986
31
0.0
0
LINE
5
2207
8
0-0
6
CONTINUOUS
62
  7
10
1102.640
20
816.986
30
0.0
11
1110.641
21
816.986
31
0.0
0
LINE
5
2208
8
0-0
6
CONTINUOUS
62
  7
10
1110.805
20
800.987
30
0.0
11
1093.080
21
773.987
31
0.0
0
LINE
5
2209
8
0-0
6
CONTINUOUS
62
  7
10
851.081
20
529.838
30
0.0
11
851.081
21
489.838
31
0.0
0
LINE
5
220a
8
0-0
6
CONTINUOUS
62
  7
10
1111.081
20
529.838
30
0.0
11
1111.081
21
497.838
31
0.0
0
LINE
5
220b
8
0-0
6
CONTINUOUS
62
  7
10
1096.081
20
523.279
30
0.0
11
1111.081
21
519.838
31
0.0
0
LINE
5
220c
8
0-0
6
CONTINUOUS
62
  7
10
851.081
20
489.838
30
0.0
11
851.081
21
442.838
31
0.0
0
LINE
5
220d
8
0-0
6
CONTINUOUS
62
  7
10
851.081
20
442.838
30
0.0
11
868.081
21
442.838
31
0.0
0
LINE
5
220e
8
0-0
6
CONTINUOUS
62
  7
10
868.081
20
483.270
30
0.0
11
868.081
21
442.838
31
0.0
0
LINE
5
220f
8
0-0
6
CONTINUOUS
62
  7
10
851.081
20
466.838
30
0.0
11
868.081
21
466.838
31
0.0
0
LINE
5
2210
8
ADD_LINE
6
HIDDEN
62
  3
10
1011.648
20
437.838
30
0.0
11
952.038
21
437.838
31
0.0
0
LINE
5
2211
8
ADD_LINE
6
HIDDEN
62
  3
10
981.081
20
449.491
30
0.0
11
981.081
21
426.458
31
0.0
0
LINE
5
2212
8
ADD_LINE
6
HIDDEN
62
  3
10
1076.081
20
522.881
30
0.0
11
1076.081
21
509.928
31
0.0
0
LINE
5
2213
8
ADD_LINE
6
HIDDEN
62
  3
10
1084.051
20
515.964
30
0.0
11
1069.372
21
515.964
31
0.0
0
LINE
5
2214
8
0-0
6
CONTINUOUS
62
  7
10
575.405
20
1058.986
30
0.0
11
510.405
21
1058.986
31
0.0
0
LINE
5
2215
8
0-0
6
CONTINUOUS
62
  7
10
575.405
20
1058.986
30
0.0
11
575.405
21
773.987
31
0.0
0
LINE
5
2216
8
0-0
6
CONTINUOUS
62
  7
10
575.405
20
773.987
30
0.0
11
530.652
21
769.283
31
0.0
0
LINE
5
2217
8
0-0
6
CONTINUOUS
62
  7
10
510.405
20
1058.986
30
0.0
11
489.405
21
836.986
31
0.0
0
LINE
5
2218
8
0-0
6
CONTINUOUS
62
  7
10
489.878
20
841.986
30
0.0
11
561.405
21
841.986
31
0.0
0
LINE
5
2219
8
0-0
6
CONTINUOUS
62
  7
10
561.405
20
777.543
30
0.0
11
561.405
21
841.986
31
0.0
0
LINE
5
221a
8
0-0
6
CONTINUOUS
62
  7
10
489.878
20
842.986
30
0.0
11
562.405
21
842.986
31
0.0
0
LINE
5
221b
8
0-0
6
CONTINUOUS
62
  7
10
562.405
20
777.543
30
0.0
11
562.405
21
842.986
31
0.0
0
LINE
5
221c
8
0-0
6
CONTINUOUS
62
  7
10
561.405
20
777.543
30
0.0
11
562.405
21
777.543
31
0.0
0
LINE
5
221d
8
0-0
6
CONTINUOUS
62
  7
10
1337.568
20
773.987
30
0.0
11
1400.568
21
767.365
31
0.0
0
LINE
5
221e
8
0-0
6
CONTINUOUS
62
  7
10
1400.568
20
767.365
30
0.0
11
1402.240
21
783.277
31
0.0
0
LINE
5
221f
8
0-0
6
CONTINUOUS
62
  7
10
1353.568
20
788.393
30
0.0
11
1402.240
21
783.277
31
0.0
0
LINE
5
2220
8
0-0
6
CONTINUOUS
62
  7
10
1353.568
20
1066.986
30
0.0
11
1353.568
21
788.393
31
0.0
0
LINE
5
2221
8
0-0
6
CONTINUOUS
62
  7
10
1337.568
20
1066.986
30
0.0
11
1353.568
21
1066.986
31
0.0
0
LINE
5
2222
8
0-0
6
CONTINUOUS
62
  7
10
1337.568
20
1058.986
30
0.0
11
1335.568
21
1058.986
31
0.0
0
LINE
5
2223
8
0-0
6
CONTINUOUS
62
  7
10
1335.568
20
1066.986
30
0.0
11
1335.568
21
1058.986
31
0.0
0
LINE
5
2224
8
0-0
6
CONTINUOUS
62
  7
10
1337.568
20
1058.986
30
0.0
11
1337.568
21
773.987
31
0.0
0
LINE
5
2225
8
0-0
6
CONTINUOUS
62
  7
10
1337.568
20
773.987
30
0.0
11
1308.568
21
777.034
31
0.0
0
LINE
5
2226
8
0-0
6
CONTINUOUS
62
  7
10
1314.670
20
1058.986
30
0.0
11
1308.568
21
1058.986
31
0.0
0
LINE
5
2227
8
0-0
6
CONTINUOUS
62
  7
10
1314.670
20
1066.986
30
0.0
11
1314.670
21
1058.986
31
0.0
0
LINE
5
2228
8
0-0
6
CONTINUOUS
62
  7
10
1337.568
20
1066.986
30
0.0
11
1314.670
21
1066.986
31
0.0
0
LINE
5
2229
8
0-0
6
CONTINUOUS
62
  7
10
1308.568
20
1058.986
30
0.0
11
1308.568
21
777.034
31
0.0
0
LINE
5
222a
8
0-0
6
CONTINUOUS
62
  7
10
1314.670
20
1058.986
30
0.0
11
1335.568
21
1058.986
31
0.0
0
LINE
5
222b
8
0-0
6
CONTINUOUS
62
  7
10
510.405
20
1285.905
30
0.0
11
575.405
21
1285.905
31
0.0
0
LINE
5
222c
8
0-0
6
CONTINUOUS
62
  7
10
510.405
20
1115.635
30
0.0
11
510.405
21
1285.905
31
0.0
0
LINE
5
222d
8
0-0
6
CONTINUOUS
62
  7
10
575.405
20
1115.635
30
0.0
11
575.405
21
1285.905
31
0.0
0
LINE
5
222e
8
0-0
6
CONTINUOUS
62
  7
10
851.081
20
1285.905
30
0.0
11
1108.081
21
1285.905
31
0.0
0
LINE
5
222f
8
0-0
6
CONTINUOUS
62
  7
10
851.081
20
1115.635
30
0.0
11
851.081
21
1285.905
31
0.0
0
LINE
5
2230
8
0-0
6
CONTINUOUS
62
  7
10
1108.081
20
1115.635
30
0.0
11
1108.081
21
1285.905
31
0.0
0
LINE
5
2231
8
0-0
6
CONTINUOUS
62
  7
10
1337.568
20
1285.905
30
0.0
11
1353.568
21
1285.905
31
0.0
0
LINE
5
2232
8
0-0
6
CONTINUOUS
62
  7
10
1337.568
20
1115.635
30
0.0
11
1337.568
21
1285.905
31
0.0
0
LINE
5
2233
8
0-0
6
CONTINUOUS
62
  7
10
1353.568
20
1115.635
30
0.0
11
1353.568
21
1285.905
31
0.0
0
LINE
5
2234
8
0-0
6
CONTINUOUS
62
  7
10
489.405
20
629.149
30
0.0
11
575.405
21
629.149
31
0.0
0
LINE
5
2235
8
0-0
6
CONTINUOUS
62
  7
10
489.405
20
714.284
30
0.0
11
489.405
21
629.149
31
0.0
0
LINE
5
2236
8
0-0
6
CONTINUOUS
62
  7
10
575.405
20
714.284
30
0.0
11
575.405
21
629.149
31
0.0
0
LINE
5
2237
8
0-0
6
CONTINUOUS
62
  7
10
851.081
20
629.149
30
0.0
11
1111.081
21
629.149
31
0.0
0
LINE
5
2238
8
0-0
6
CONTINUOUS
62
  7
10
851.081
20
714.284
30
0.0
11
851.081
21
629.149
31
0.0
0
LINE
5
2239
8
0-0
6
CONTINUOUS
62
  7
10
1111.081
20
714.284
30
0.0
11
1111.081
21
629.149
31
0.0
0
LINE
5
223a
8
0-0
6
CONTINUOUS
62
  7
10
1337.568
20
629.149
30
0.0
11
1400.568
21
629.149
31
0.0
0
LINE
5
223b
8
0-0
6
CONTINUOUS
62
  7
10
1337.568
20
714.284
30
0.0
11
1337.568
21
629.149
31
0.0
0
LINE
5
223c
8
0-0
6
CONTINUOUS
62
  7
10
1400.568
20
714.284
30
0.0
11
1400.568
21
629.149
31
0.0
0
LINE
5
223d
8
0-0
6
CONTINUOUS
62
  7
10
851.081
20
260.230
30
0.0
11
1111.081
21
260.230
31
0.0
0
LINE
5
223e
8
0-0
6
CONTINUOUS
62
  7
10
851.081
20
381.851
30
0.0
11
851.081
21
260.230
31
0.0
0
LINE
5
223f
8
0-0
6
CONTINUOUS
62
  7
10
1111.081
20
381.851
30
0.0
11
1111.081
21
260.230
31
0.0
0
LINE
5
2240
8
0-0
6
CONTINUOUS
62
  7
10
851.081
20
304.824
30
0.0
11
868.081
21
304.824
31
0.0
0
LINE
5
2241
8
0-0
6
CONTINUOUS
62
  7
10
851.081
20
381.851
30
0.0
11
851.081
21
304.824
31
0.0
0
LINE
5
2242
8
0-0
6
CONTINUOUS
62
  7
10
868.081
20
381.851
30
0.0
11
868.081
21
304.824
31
0.0
0
LINE
5
2243
8
0-0
6
CONTINUOUS
62
  7
10
676.757
20
1058.986
30
0.0
11
676.757
21
773.987
31
0.0
0
LINE
5
2244
8
0-0
6
CONTINUOUS
62
  7
10
611.892
20
1058.986
30
0.0
11
676.757
21
1058.986
31
0.0
0
LINE
5
2245
8
0-0
6
CONTINUOUS
62
  7
10
611.892
20
773.987
30
0.0
11
676.757
21
773.987
31
0.0
0
LINE
5
2246
8
0-0
6
CONTINUOUS
62
  7
10
751.816
20
1066.986
30
0.0
11
751.816
21
1058.986
31
0.0
0
LINE
5
2247
8
0-0
6
CONTINUOUS
62
  7
10
812.255
20
1066.986
30
0.0
11
751.816
21
1066.986
31
0.0
0
LINE
5
2248
8
0-0
6
CONTINUOUS
62
  7
10
812.255
20
1058.986
30
0.0
11
751.816
21
1058.986
31
0.0
0
LINE
5
2249
8
0-0
6
CONTINUOUS
62
  7
10
751.816
20
1058.986
30
0.0
11
751.816
21
773.987
31
0.0
0
LINE
5
224a
8
0-0
6
CONTINUOUS
62
  7
10
812.255
20
773.987
30
0.0
11
751.816
21
773.987
31
0.0
0
LINE
5
224b
8
0-0
6
CONTINUOUS
62
  7
10
751.816
20
529.838
30
0.0
11
751.816
21
442.838
31
0.0
0
LINE
5
224c
8
0-0
6
CONTINUOUS
62
  7
10
812.255
20
529.838
30
0.0
11
751.816
21
529.838
31
0.0
0
LINE
5
224d
8
0-0
6
CONTINUOUS
62
  7
10
812.255
20
442.838
30
0.0
11
751.816
21
442.838
31
0.0
0
LINE
5
224e
8
0-0
6
CONTINUOUS
62
  7
10
782.225
20
529.838
30
0.0
11
782.225
21
489.838
31
0.0
0
LINE
5
224f
8
0-0
6
CONTINUOUS
62
  7
10
812.255
20
529.838
30
0.0
11
782.225
21
529.838
31
0.0
0
LINE
5
2250
8
0-0
6
CONTINUOUS
62
  7
10
812.255
20
489.838
30
0.0
11
782.225
21
489.838
31
0.0
0
LINE
5
2251
8
0-0
6
CONTINUOUS
62
  7
10
1236.013
20
529.838
30
0.0
11
1236.013
21
437.838
31
0.0
0
LINE
5
2252
8
0-0
6
CONTINUOUS
62
  7
10
1156.466
20
529.838
30
0.0
11
1236.013
21
529.838
31
0.0
0
LINE
5
2253
8
0-0
6
CONTINUOUS
62
  7
10
1156.466
20
437.838
30
0.0
11
1236.013
21
437.838
31
0.0
0
LINE
5
2254
8
0-0
6
CONTINUOUS
62
  7
10
1200.027
20
529.838
30
0.0
11
1200.027
21
497.838
31
0.0
0
LINE
5
2255
8
0-0
6
CONTINUOUS
62
  7
10
1156.466
20
529.838
30
0.0
11
1200.027
21
529.838
31
0.0
0
LINE
5
2256
8
0-0
6
CONTINUOUS
62
  7
10
1156.466
20
497.838
30
0.0
11
1200.027
21
497.838
31
0.0
0
CIRCLE
5
2257
8
0-0
6
CONTINUOUS
62
  7
10
936.081
20
1043.986
30
0.0
40
3.000
0
CIRCLE
5
2258
8
0-0
6
CONTINUOUS
62
  7
10
1036.081
20
1043.986
30
0.0
40
3.000
0
ARC
5
2259
8
0-0
6
CONTINUOUS
62
  7
10
981.081
20
806.717
30
0.0
40
305.879
50
244.849060
51
295.150940
0
ARC
5
225a
8
0-0
6
CONTINUOUS
62
  7
10
981.081
20
522.838
30
0.0
40
85.000
50
241.927505
51
298.072510
0
ARC
5
225b
8
0-0
6
CONTINUOUS
62
  7
10
644.321
20
-70.648
30
0.0
40
597.406
50
60.214935
51
69.751266
0
ARC
5
225c
8
0-0
6
CONTINUOUS
62
  7
10
1448.145
20
-214.877
30
0.0
40
788.399
50
115.310852
51
122.798386
0
CIRCLE
5
225d
8
ADD_LINE
6
HIDDEN
62
  3
10
981.081
20
437.838
30
0.0
40
3.000
0
CIRCLE
5
225e
8
ADD_LINE
6
HIDDEN
62
  3
10
1076.081
20
515.964
30
0.0
40
3.000
0
ARC
5
225f
8
0-0
6
CONTINUOUS
62
  7
10
481.900
20
806.386
30
0.0
40
31.508
50
359.274078
51
76.219528
0
ARC
5
2260
8
0-0
6
CONTINUOUS
62
  7
10
484.838
20
770.159
30
0.0
40
45.823
50
358.904053
51
51.432083
0
TEXT
5
2261
100
AcDbEntity
8
0-0
62
7
100
AcDbText
10
536.655
20
1288.405
30
0.0
40
9.750
41
0.800
50
0.000
1
65
100
AcDbText
0
TEXT
5
2262
100
AcDbEntity
8
0-0
62
7
100
AcDbText
10
970.206
20
1288.405
30
0.0
40
9.750
41
0.800
50
0.000
1
257
100
AcDbText
0
TEXT
5
2263
100
AcDbEntity
8
0-0
62
7
100
AcDbText
10
1339.318
20
1288.405
30
0.0
40
9.750
41
0.800
50
0.000
1
16
100
AcDbText
0
TEXT
5
2264
100
AcDbEntity
8
0-0
62
7
100
AcDbText
10
526.155
20
631.649
30
0.0
40
9.750
41
0.800
50
0.000
1
86
100
AcDbText
0
TEXT
5
2265
100
AcDbEntity
8
0-0
62
7
100
AcDbText
10
971.706
20
631.649
30
0.0
40
9.750
41
0.800
50
0.000
1
260
100
AcDbText
0
TEXT
5
2266
100
AcDbEntity
8
0-0
62
7
100
AcDbText
10
1362.818
20
631.649
30
0.0
40
9.750
41
0.800
50
0.000
1
63
100
AcDbText
0
TEXT
5
2267
100
AcDbEntity
8
0-0
62
7
100
AcDbText
10
971.706
20
262.730
30
0.0
40
9.750
41
0.800
50
0.000
1
260
100
AcDbText
0
TEXT
5
2268
100
AcDbEntity
8
0-0
62
7
100
AcDbText
10
853.331
20
307.324
30
0.0
40
9.750
41
0.800
50
0.000
1
17
100
AcDbText
0
TEXT
5
2269
100
AcDbEntity
8
0-0
62
7
100
AcDbText
10
674.257
20
907.111
30
0.0
40
9.750
41
0.800
50
90.000
1
285
100
AcDbText
0
TEXT
5
226a
100
AcDbEntity
8
0-0
62
7
100
AcDbText
10
749.316
20
1059.861
30
0.0
40
9.750
41
0.800
50
90.000
1
8
100
AcDbText
0
TEXT
5
226b
100
AcDbEntity
8
0-0
62
7
100
AcDbText
10
749.316
20
907.111
30
0.0
40
9.750
41
0.800
50
90.000
1
285
100
AcDbText
0
TEXT
5
226c
100
AcDbEntity
8
0-0
62
7
100
AcDbText
10
749.316
20
480.088
30
0.0
40
9.750
41
0.800
50
90.000
1
87
100
AcDbText
0
TEXT
5
226d
100
AcDbEntity
8
0-0
62
7
100
AcDbText
10
779.725
20
503.588
30
0.0
40
9.750
41
0.800
50
90.000
1
40
100
AcDbText
0
TEXT
5
226e
100
AcDbEntity
8
0-0
62
7
100
AcDbText
10
1233.513
20
477.588
30
0.0
40
9.750
41
0.800
50
90.000
1
92
100
AcDbText
0
TEXT
5
226f
100
AcDbEntity
8
0-0
62
7
100
AcDbText
10
1197.527
20
507.588
30
0.0
40
9.750
41
0.800
50
90.000
1
32
100
AcDbText
0
POINT
5
2270
8
0-0
62
  7
10
510.405
20
1285.905
30
0.0
0
POINT
5
2271
8
0-0
62
  7
10
575.405
20
1285.905
30
0.0
0
POINT
5
2272
8
0-0
62
  7
10
851.081
20
1285.905
30
0.0
0
POINT
5
2273
8
0-0
62
  7
10
1108.081
20
1285.905
30
0.0
0
POINT
5
2274
8
0-0
62
  7
10
1337.568
20
1285.905
30
0.0
0
POINT
5
2275
8
0-0
62
  7
10
1353.568
20
1285.905
30
0.0
0
POINT
5
2276
8
0-0
62
  7
10
489.405
20
629.149
30
0.0
0
POINT
5
2277
8
0-0
62
  7
10
575.405
20
629.149
30
0.0
0
POINT
5
2278
8
0-0
62
  7
10
851.081
20
629.149
30
0.0
0
POINT
5
2279
8
0-0
62
  7
10
1111.081
20
629.149
30
0.0
0
POINT
5
227a
8
0-0
62
  7
10
1337.568
20
629.149
30
0.0
0
POINT
5
227b
8
0-0
62
  7
10
1400.568
20
629.149
30
0.0
0
POINT
5
227c
8
0-0
62
  7
10
851.081
20
260.230
30
0.0
0
POINT
5
227d
8
0-0
62
  7
10
1111.081
20
260.230
30
0.0
0
POINT
5
227e
8
0-0
62
  7
10
851.081
20
304.824
30
0.0
0
POINT
5
227f
8
0-0
62
  7
10
868.081
20
304.824
30
0.0
0
POINT
5
2280
8
0-0
62
  7
10
676.757
20
1058.986
30
0.0
0
POINT
5
2281
8
0-0
62
  7
10
676.757
20
773.987
30
0.0
0
POINT
5
2282
8
0-0
62
  7
10
751.816
20
1066.986
30
0.0
0
POINT
5
2283
8
0-0
62
  7
10
751.816
20
1058.986
30
0.0
0
POINT
5
2284
8
0-0
62
  7
10
751.816
20
773.987
30
0.0
0
POINT
5
2285
8
0-0
62
  7
10
751.816
20
529.838
30
0.0
0
POINT
5
2286
8
0-0
62
  7
10
751.816
20
442.838
30
0.0
0
POINT
5
2287
8
0-0
62
  7
10
782.225
20
529.838
30
0.0
0
POINT
5
2288
8
0-0
62
  7
10
782.225
20
489.838
30
0.0
0
POINT
5
2289
8
0-0
62
  7
10
1236.013
20
529.838
30
0.0
0
POINT
5
228a
8
0-0
62
  7
10
1236.013
20
437.838
30
0.0
0
POINT
5
228b
8
0-0
62
  7
10
1200.027
20
529.838
30
0.0
0
POINT
5
228c
8
0-0
62
  7
10
1200.027
20
497.838
30
0.0
0
ENDSEC
0
EOF
