0
SECTION
2
HEADER
  9
$EXTMIN
10
0
20
0
30
0
  9
$EXTMAX
10
1344.688
20
1288.393
30
0
  9
$LTSCALE
40
5.000
  9
$DIMSCALE
40
5.000
  9
$PDMODE
70
0
  9
$PDSIZE
40
40
0
ENDSEC
0
SECTION
2
TABLES
0
TABLE
2
LTYPE
70
9
0
LTYPE
5
1f4
2
CONTINUOUS
70
0
3
実線
72
65
73
0
40
0.0
0
LTYPE
5
1f5
2
DOT
70
0
3
--  --  --  --  --  --  --  --     
72
65
73
2
40
5.000
49
1.000
49
-4.000
0
LTYPE
5
1f6
2
DASHED
70
0
3
----    ----    ----    ----    
72
65
73
2
40
5.000
49
2.000
49
-3.000
0
LTYPE
5
1f7
2
DASHED2
70
0
3
------  ------  ------  ------ 
72
65
73
2
40
10.000
49
4.000
49
-6.000
0
LTYPE
5
1f8
2
CENTER
70
0
3
----- - ----- - ----- - ----- - 
72
65
73
4
40
9.000
49
6.000
49
-1.000
49
1.000
49
-1.000
0
LTYPE
5
1f9
2
CENTER2
70
0
3
----------  --  ----------  -- 
72
65
73
4
40
18.000
49
12.000
49
-2.000
49
2.000
49
-2.000
0
LTYPE
5
1fa
2
PHANTOM
70
0
3
--- - - --- - - --- - - --- - -
72
65
73
6
40
10.000
49
5.000
49
-1.000
49
1.000
49
-1.000
49
1.000
49
-1.000
0
LTYPE
5
1fb
2
PHANTOM2
70
0
3
--------  -  -  --------  -  -
72
65
73
6
40
16.000
49
6.000
49
-2.000
49
2.000
49
-2.000
49
2.000
49
-2.000
0
LTYPE
5
1fc
2
HIDDEN
70
0
3
-   -   -   -   -   -   -   -   
72
65
73
2
40
2.500
49
0.500
49
-2.000
0
ENDTAB
0
TABLE
2
STYLE
70
1
0
STYLE
5
1fd
100
AcDbSymbolTableRecord
100
AcDbTextStyleTableRecord
2
STANDARD
70
0
40
0.0
41
1.0
50
0.0
71
0
42
0.0
3
txt.shx
4
extfont.shx
0
STYLE
5
1fe
100
AcDbSymbolTableRecord
100
AcDbTextStyleTableRecord
2
TATEGAKI
70
4
40
0.0
41
1.0
50
0.0
71
0
42
0.0
3
txt.shx
4
extfont.shx
0
STYLE
5
1ff
100
AcDbSymbolTableRecord
100
AcDbTextStyleTableRecord
2
MT
70
0
40
0.0
41
1.0
50
0.0
71
0
42
0.0
3
MS Mincho
4

0
STYLE
5
200
100
AcDbSymbolTableRecord
100
AcDbTextStyleTableRecord
2
TMT
70
4
40
0.0
41
1.0
50
0.0
71
0
42
0.0
3
@MS Mincho
4

0
ENDTAB
0
TABLE
2
LAYER
5
26f4a
100
AcDbSymbolTable
70
10
0
LAYER
5
26f4b
100
AcDbSymbolTableRecord
100
AcDbLayerTableRecord
2
0
70
64
62
  7
  6
CONTINUOUS
0
LAYER
5
26f4c
100
AcDbSymbolTableRecord
100
AcDbLayerTableRecord
2
0-0
70
64
62
  7
  6
CONTINUOUS
0
LAYER
5
26f4d
100
AcDbSymbolTableRecord
100
AcDbLayerTableRecord
2
0-1
70
64
62
  7
  6
CONTINUOUS
0
LAYER
5
26f4e
100
AcDbSymbolTableRecord
100
AcDbLayerTableRecord
2
ADD_LINE
70
64
62
  -7
  6
CONTINUOUS
0
ENDTAB
0
ENDSEC
0
SECTION
2
ENTITIES
0
LINE
5
26f4f
8
0-0
6
CONTINUOUS
62
  7
10
954.092
20
496.779
30
0.0
11
961.040
21
496.779
31
0.0
0
LINE
5
26f50
8
0-0
6
CONTINUOUS
62
  7
10
961.040
20
496.779
30
0.0
11
961.040
21
480.873
31
0.0
0
LINE
5
26f51
8
0-0
6
CONTINUOUS
62
  7
10
656.040
20
621.834
30
0.0
11
961.040
21
621.834
31
0.0
0
LINE
5
26f52
8
0-0
6
CONTINUOUS
62
  7
10
656.040
20
549.831
30
0.0
11
656.040
21
621.834
31
0.0
0
LINE
5
26f53
8
0-0
6
CONTINUOUS
62
  7
10
961.040
20
549.831
30
0.0
11
961.040
21
621.834
31
0.0
0
LINE
5
26f54
8
0-0
6
CONTINUOUS
62
  7
10
656.040
20
585.833
30
0.0
11
921.040
21
585.833
31
0.0
0
LINE
5
26f55
8
0-0
6
CONTINUOUS
62
  7
10
656.040
20
549.831
30
0.0
11
656.040
21
585.833
31
0.0
0
LINE
5
26f56
8
0-0
6
CONTINUOUS
62
  7
10
921.040
20
549.831
30
0.0
11
921.040
21
585.833
31
0.0
0
LINE
5
26f57
8
0-0
6
CONTINUOUS
62
  7
10
701.040
20
1126.227
30
0.0
11
961.039
21
1126.227
31
0.0
0
LINE
5
26f58
8
0-0
6
CONTINUOUS
62
  7
10
701.040
20
1086.227
30
0.0
11
701.040
21
1126.227
31
0.0
0
LINE
5
26f59
8
0-0
6
CONTINUOUS
62
  7
10
656.040
20
1086.227
30
0.0
11
701.040
21
1086.227
31
0.0
0
LINE
5
26f5a
8
0-0
6
CONTINUOUS
62
  7
10
656.040
20
821.227
30
0.0
11
656.040
21
1086.227
31
0.0
0
LINE
5
26f5b
8
0-0
6
CONTINUOUS
62
  7
10
726.040
20
1118.227
30
0.0
11
726.040
21
1126.227
31
0.0
0
LINE
5
26f5c
8
0-0
6
CONTINUOUS
62
  7
10
726.040
20
1118.227
30
0.0
11
953.040
21
1118.227
31
0.0
0
LINE
5
26f5d
8
0-0
6
CONTINUOUS
62
  7
10
1154.148
20
1086.227
30
0.0
11
1160.148
21
1086.227
31
0.0
0
LINE
5
26f5e
8
0-0
6
CONTINUOUS
62
  7
10
1160.148
20
1126.227
30
0.0
11
1160.148
21
1086.227
31
0.0
0
LINE
5
26f5f
8
0-0
6
CONTINUOUS
62
  7
10
520.908
20
821.227
30
0.0
11
520.908
21
1126.227
31
0.0
0
LINE
5
26f60
8
0-0
6
CONTINUOUS
62
  7
10
606.778
20
821.227
30
0.0
11
520.908
21
821.227
31
0.0
0
LINE
5
26f61
8
0-0
6
CONTINUOUS
62
  7
10
606.778
20
1126.227
30
0.0
11
520.908
21
1126.227
31
0.0
0
LINE
5
26f62
8
0-0
6
CONTINUOUS
62
  7
10
554.302
20
821.227
30
0.0
11
554.302
21
1086.227
31
0.0
0
LINE
5
26f63
8
0-0
6
CONTINUOUS
62
  7
10
606.778
20
821.227
30
0.0
11
554.302
21
821.227
31
0.0
0
LINE
5
26f64
8
0-0
6
CONTINUOUS
62
  7
10
606.778
20
1086.227
30
0.0
11
554.302
21
1086.227
31
0.0
0
LINE
5
26f65
8
0-0
6
CONTINUOUS
62
  7
10
554.302
20
1086.227
30
0.0
11
554.302
21
1126.227
31
0.0
0
LINE
5
26f66
8
0-0
6
CONTINUOUS
62
  7
10
606.778
20
1126.227
30
0.0
11
554.302
21
1126.227
31
0.0
0
LINE
5
26f67
8
0-0
6
CONTINUOUS
62
  7
10
1344.688
20
821.227
30
0.0
11
1344.688
21
1126.227
31
0.0
0
LINE
5
26f68
8
0-0
6
CONTINUOUS
62
  7
10
1279.824
20
821.227
30
0.0
11
1344.688
21
821.227
31
0.0
0
LINE
5
26f69
8
0-0
6
CONTINUOUS
62
  7
10
1279.824
20
1126.227
30
0.0
11
1344.688
21
1126.227
31
0.0
0
LINE
5
26f6a
8
0-0
6
CONTINUOUS
62
  7
10
656.040
20
1285.893
30
0.0
11
961.039
21
1285.893
31
0.0
0
LINE
5
26f6b
8
0-0
6
CONTINUOUS
62
  7
10
656.040
20
1160.608
30
0.0
11
656.040
21
1285.893
31
0.0
0
LINE
5
26f6c
8
0-0
6
CONTINUOUS
62
  7
10
961.039
20
1160.608
30
0.0
11
961.039
21
1285.893
31
0.0
0
LINE
5
26f6d
8
0-0
6
CONTINUOUS
62
  7
10
961.039
20
1235.053
30
0.0
11
701.040
21
1235.053
31
0.0
0
LINE
5
26f6e
8
0-0
6
CONTINUOUS
62
  7
10
961.039
20
1160.608
30
0.0
11
961.039
21
1235.053
31
0.0
0
LINE
5
26f6f
8
0-0
6
CONTINUOUS
62
  7
10
701.040
20
1160.608
30
0.0
11
701.040
21
1235.053
31
0.0
0
LINE
5
26f70
8
0-0
6
CONTINUOUS
62
  7
10
701.040
20
1235.053
30
0.0
11
656.040
21
1235.053
31
0.0
0
LINE
5
26f71
8
0-0
6
CONTINUOUS
62
  7
10
656.040
20
1160.608
30
0.0
11
656.040
21
1235.053
31
0.0
0
LINE
5
26f72
8
0-0
6
CONTINUOUS
62
  7
10
961.039
20
821.227
30
0.0
11
961.039
21
1126.227
31
0.0
0
LINE
5
26f73
8
0-0
6
CONTINUOUS
62
  7
10
953.040
20
861.227
30
0.0
11
953.040
21
1118.227
31
0.0
0
LINE
5
26f74
8
0-0
6
CONTINUOUS
62
  7
10
953.040
20
861.227
30
0.0
11
961.039
21
861.227
31
0.0
0
LINE
5
26f75
8
0-0
6
CONTINUOUS
62
  7
10
936.040
20
821.227
30
0.0
11
961.039
21
846.227
31
0.0
0
LINE
5
26f76
8
ADD_LINE
6
HIDDEN
62
  7
10
696.040
20
889.193
30
0.0
11
696.040
21
746.972
31
0.0
0
LINE
5
26f77
8
0-0
6
CONTINUOUS
62
  7
10
741.039
20
821.227
30
0.0
11
741.039
21
807.227
31
0.0
0
LINE
5
26f78
8
0-0
6
CONTINUOUS
62
  7
10
741.039
20
821.227
30
0.0
11
961.039
21
821.227
31
0.0
0
LINE
5
26f79
8
0-0
6
CONTINUOUS
62
  7
10
961.040
20
496.779
30
0.0
11
961.040
21
460.855
31
0.0
0
LINE
5
26f7a
8
0-0
6
CONTINUOUS
62
  7
10
1203.148
20
821.227
30
0.0
11
1151.285
21
830.372
31
0.0
0
LINE
5
26f7b
8
0-0
6
CONTINUOUS
62
  7
10
1203.148
20
821.227
30
0.0
11
1235.212
21
815.573
31
0.0
0
LINE
5
26f7c
8
0-0
6
CONTINUOUS
62
  7
10
1144.148
20
817.415
30
0.0
11
1232.781
21
801.786
31
0.0
0
LINE
5
26f7d
8
0-0
6
CONTINUOUS
62
  7
10
1235.212
20
815.573
30
0.0
11
1232.781
21
801.786
31
0.0
0
LINE
5
26f7e
8
0-0
6
CONTINUOUS
62
  7
10
1204.148
20
835.267
30
0.0
11
1229.148
21
830.858
31
0.0
0
LINE
5
26f7f
8
0-0
6
CONTINUOUS
62
  7
10
1229.148
20
830.858
30
0.0
11
1226.717
21
817.071
31
0.0
0
LINE
5
26f80
8
0-0
6
CONTINUOUS
62
  7
10
1154.148
20
846.114
30
0.0
11
1154.148
21
1086.227
31
0.0
0
LINE
5
26f81
8
0-0
6
CONTINUOUS
62
  7
10
1160.148
20
1126.227
30
0.0
11
1204.148
21
1126.227
31
0.0
0
LINE
5
26f82
8
0-0
6
CONTINUOUS
62
  7
10
1204.148
20
835.267
30
0.0
11
1204.148
21
1097.850
31
0.0
0
LINE
5
26f83
8
0-0
6
CONTINUOUS
62
  7
10
1204.148
20
1097.850
30
0.0
11
1204.148
21
1101.938
31
0.0
0
LINE
5
26f84
8
0-0
6
CONTINUOUS
62
  7
10
1204.148
20
1101.938
30
0.0
11
1204.148
21
1126.227
31
0.0
0
LINE
5
26f85
8
0-0
6
CONTINUOUS
62
  7
10
1190.148
20
823.519
30
0.0
11
1190.148
21
1118.227
31
0.0
0
LINE
5
26f86
8
0-0
6
CONTINUOUS
62
  7
10
1186.148
20
1126.227
30
0.0
11
1186.148
21
1118.227
31
0.0
0
LINE
5
26f87
8
0-0
6
CONTINUOUS
62
  7
10
1160.148
20
1118.227
30
0.0
11
1190.148
21
1118.227
31
0.0
0
LINE
5
26f88
8
0-0
6
CONTINUOUS
62
  7
10
554.302
20
524.066
30
0.0
11
554.302
21
434.065
31
0.0
0
LINE
5
26f89
8
0-0
6
CONTINUOUS
62
  7
10
606.778
20
524.066
30
0.0
11
554.302
21
524.066
31
0.0
0
LINE
5
26f8a
8
0-0
6
CONTINUOUS
62
  7
10
606.778
20
434.065
30
0.0
11
554.302
21
434.065
31
0.0
0
LINE
5
26f8b
8
0-0
6
CONTINUOUS
62
  7
10
954.092
20
496.779
30
0.0
11
961.040
21
496.779
31
0.0
0
LINE
5
26f8c
8
0-0
6
CONTINUOUS
62
  7
10
961.040
20
496.779
30
0.0
11
961.040
21
480.873
31
0.0
0
LINE
5
26f8d
8
0-0
6
CONTINUOUS
62
  7
10
961.040
20
496.779
30
0.0
11
961.040
21
480.873
31
0.0
0
LINE
5
26f8e
8
ADD_LINE
6
HIDDEN
62
  3
10
843.241
20
457.739
30
0.0
11
843.241
21
455.715
31
0.0
0
LINE
5
26f8f
8
ADD_LINE
6
HIDDEN
62
  3
10
843.243
20
454.054
30
0.0
11
822.593
21
454.054
31
0.0
0
LINE
5
26f90
8
ADD_LINE
6
HIDDEN
62
  3
10
843.243
20
454.054
30
0.0
11
861.604
21
454.054
31
0.0
0
LINE
5
26f91
8
ADD_LINE
6
HIDDEN
62
  3
10
843.243
20
444.991
30
0.0
11
843.243
21
512.244
31
0.0
0
LINE
5
26f92
8
ADD_LINE
6
HIDDEN
62
  7
10
921.040
20
549.831
30
0.0
11
921.040
21
621.834
31
0.0
0
LINE
5
26f93
8
ADD_LINE
6
HIDDEN
62
  3
10
921.040
20
549.831
30
0.0
11
921.040
21
439.650
31
0.0
0
LINE
5
26f94
8
ADD_LINE
6
HIDDEN
62
  3
10
656.040
20
491.202
30
0.0
11
656.040
21
469.494
31
0.0
0
LINE
5
26f95
8
ADD_LINE
6
HIDDEN
62
  3
10
670.228
20
480.133
30
0.0
11
642.166
21
480.133
31
0.0
0
CIRCLE
5
26f96
8
0-0
6
CONTINUOUS
62
  7
10
761.040
20
1106.227
30
0.0
40
3.000
0
CIRCLE
5
26f97
8
0-0
6
CONTINUOUS
62
  7
10
896.040
20
1106.227
30
0.0
40
3.000
0
CIRCLE
5
26f98
8
0-0
6
CONTINUOUS
62
  7
10
706.040
20
911.227
30
0.0
40
3.000
0
CIRCLE
5
26f99
8
0-0
6
CONTINUOUS
62
  7
10
706.040
20
931.227
30
0.0
40
3.000
0
ARC
5
26f9a
8
0-0
6
CONTINUOUS
62
  7
10
696.040
20
903.477
30
0.0
40
106.250
50
244.942429
51
295.057556
0
ARC
5
26f9b
8
0-0
6
CONTINUOUS
62
  7
10
618.883
20
826.605
30
0.0
40
37.544
50
328.927185
51
351.765076
0
CIRCLE
5
26f9c
8
0-0
6
CONTINUOUS
62
  7
10
696.040
20
476.744
30
0.0
40
45.000
0
CIRCLE
5
26f9d
8
ADD_LINE
6
HIDDEN
62
  3
10
843.241
20
454.054
30
0.0
40
3.000
0
ARC
5
26f9e
8
0-0
6
CONTINUOUS
62
  7
10
1205.178
20
904.388
30
0.0
40
106.250
50
234.942276
51
285.057709
0
ARC
5
26f9f
8
0-0
6
CONTINUOUS
62
  7
10
1106.357
20
846.674
30
0.0
40
47.794
50
322.251129
51
359.328339
0
ARC
5
26fa0
8
0-0
6
CONTINUOUS
62
  7
10
947.288
20
497.000
30
0.0
40
6.808
50
318.432068
51
358.142212
0
ARC
5
26fa1
8
0-0
6
CONTINUOUS
62
  7
10
823.035
20
711.474
30
0.0
40
286.103
50
250.029709
51
298.839783
0
ARC
5
26fa2
8
0-0
6
CONTINUOUS
62
  7
10
843.692
20
722.383
30
0.0
40
254.299
50
245.643051
51
297.481079
0
CIRCLE
5
26fa3
8
ADD_LINE
6
HIDDEN
62
  3
10
656.040
20
480.133
30
0.0
40
3.000
0
TEXT
5
26fa4
100
AcDbEntity
8
0-0
62
4
100
AcDbText
10
827.290
20
624.334
30
0.0
40
9.750
41
0.800
50
0.001
1
305
100
AcDbText
0
TEXT
5
26fa5
100
AcDbEntity
8
0-0
62
4
100
AcDbText
10
807.290
20
588.332
30
0.0
40
9.750
41
0.800
50
359.999
1
265
100
AcDbText
0
TEXT
5
26fa6
100
AcDbEntity
8
0-0
62
4
100
AcDbText
10
518.408
20
992.477
30
0.0
40
9.750
41
0.800
50
90.000
1
305
100
AcDbText
0
TEXT
5
26fa7
100
AcDbEntity
8
0-0
62
4
100
AcDbText
10
551.802
20
972.477
30
0.0
40
9.750
41
0.800
50
90.000
1
265
100
AcDbText
0
TEXT
5
26fa8
100
AcDbEntity
8
0-0
62
4
100
AcDbText
10
551.802
20
1118.727
30
0.0
40
9.750
41
0.800
50
90.000
1
40
100
AcDbText
0
TEXT
5
26fa9
100
AcDbEntity
8
0-0
62
4
100
AcDbText
10
1342.188
20
992.477
30
0.0
40
9.750
41
0.800
50
90.000
1
305
100
AcDbText
0
TEXT
5
26faa
100
AcDbEntity
8
0-0
62
4
100
AcDbText
10
827.290
20
1288.393
30
0.0
40
9.750
41
0.800
50
0.000
1
305
100
AcDbText
0
TEXT
5
26fab
100
AcDbEntity
8
0-0
62
4
100
AcDbText
10
849.790
20
1237.552
30
0.0
40
9.750
41
0.800
50
0.000
1
260
100
AcDbText
0
TEXT
5
26fac
100
AcDbEntity
8
0-0
62
4
100
AcDbText
10
691.039
20
1237.552
30
0.0
40
9.750
41
0.800
50
0.000
1
45
100
AcDbText
0
TEXT
5
26fad
100
AcDbEntity
8
0-0
62
4
100
AcDbText
10
551.802
20
491.565
30
0.0
40
9.750
41
0.800
50
90.000
1
90
100
AcDbText
0
POINT
5
26fae
8
0-0
62
  7
10
656.040
20
621.834
30
0.0
0
POINT
5
26faf
8
0-0
62
  7
10
961.040
20
621.834
30
0.0
0
POINT
5
26fb0
8
0-0
62
  7
10
656.040
20
585.833
30
0.0
0
POINT
5
26fb1
8
0-0
62
  7
10
921.040
20
585.833
30
0.0
0
POINT
5
26fb2
8
0-0
62
  7
10
520.908
20
821.227
30
0.0
0
POINT
5
26fb3
8
0-0
62
  7
10
520.908
20
1126.227
30
0.0
0
POINT
5
26fb4
8
0-0
62
  7
10
554.302
20
821.227
30
0.0
0
POINT
5
26fb5
8
0-0
62
  7
10
554.302
20
1086.227
30
0.0
0
POINT
5
26fb6
8
0-0
62
  7
10
554.302
20
1126.227
30
0.0
0
POINT
5
26fb7
8
0-0
62
  7
10
1344.688
20
821.227
30
0.0
0
POINT
5
26fb8
8
0-0
62
  7
10
1344.688
20
1126.227
30
0.0
0
POINT
5
26fb9
8
0-0
62
  7
10
656.040
20
1285.893
30
0.0
0
POINT
5
26fba
8
0-0
62
  7
10
961.039
20
1285.893
30
0.0
0
POINT
5
26fbb
8
0-0
62
  7
10
961.039
20
1235.053
30
0.0
0
POINT
5
26fbc
8
0-0
62
  7
10
701.040
20
1235.053
30
0.0
0
POINT
5
26fbd
8
0-0
62
  7
10
656.040
20
1235.053
30
0.0
0
POINT
5
26fbe
8
0-0
62
  7
10
554.302
20
524.066
30
0.0
0
POINT
5
26fbf
8
0-0
62
  7
10
554.302
20
434.065
30
0.0
0
ENDSEC
0
EOF
