0
SECTION
2
HEADER
  9
$EXTMIN
10
0
20
0
30
0
  9
$EXTMAX
10
1654.054
20
1151.351
30
0
  9
$LTSCALE
40
5.000
  9
$DIMSCALE
40
5.000
  9
$PDMODE
70
0
  9
$PDSIZE
40
40
0
ENDSEC
0
SECTION
2
TABLES
0
TABLE
2
LTYPE
70
9
0
LTYPE
5
1f4
2
CONTINUOUS
70
0
3
実線
72
65
73
0
40
0.0
0
LTYPE
5
1f5
2
DOT
70
0
3
--  --  --  --  --  --  --  --     
72
65
73
2
40
5.000
49
1.000
49
-4.000
0
LTYPE
5
1f6
2
DASHED
70
0
3
----    ----    ----    ----    
72
65
73
2
40
5.000
49
2.000
49
-3.000
0
LTYPE
5
1f7
2
DASHED2
70
0
3
------  ------  ------  ------ 
72
65
73
2
40
10.000
49
4.000
49
-6.000
0
LTYPE
5
1f8
2
CENTER
70
0
3
----- - ----- - ----- - ----- - 
72
65
73
4
40
9.000
49
6.000
49
-1.000
49
1.000
49
-1.000
0
LTYPE
5
1f9
2
CENTER2
70
0
3
----------  --  ----------  -- 
72
65
73
4
40
18.000
49
12.000
49
-2.000
49
2.000
49
-2.000
0
LTYPE
5
1fa
2
PHANTOM
70
0
3
--- - - --- - - --- - - --- - -
72
65
73
6
40
10.000
49
5.000
49
-1.000
49
1.000
49
-1.000
49
1.000
49
-1.000
0
LTYPE
5
1fb
2
PHANTOM2
70
0
3
--------  -  -  --------  -  -
72
65
73
6
40
16.000
49
6.000
49
-2.000
49
2.000
49
-2.000
49
2.000
49
-2.000
0
LTYPE
5
1fc
2
HIDDEN
70
0
3
-   -   -   -   -   -   -   -   
72
65
73
2
40
2.500
49
0.500
49
-2.000
0
ENDTAB
0
TABLE
2
STYLE
70
1
0
STYLE
5
1fd
100
AcDbSymbolTableRecord
100
AcDbTextStyleTableRecord
2
STANDARD
70
0
40
0.0
41
1.0
50
0.0
71
0
42
0.0
3
txt.shx
4
extfont.shx
0
STYLE
5
1fe
100
AcDbSymbolTableRecord
100
AcDbTextStyleTableRecord
2
TATEGAKI
70
4
40
0.0
41
1.0
50
0.0
71
0
42
0.0
3
txt.shx
4
extfont.shx
0
STYLE
5
1ff
100
AcDbSymbolTableRecord
100
AcDbTextStyleTableRecord
2
MT
70
0
40
0.0
41
1.0
50
0.0
71
0
42
0.0
3
MS Mincho
4

0
STYLE
5
200
100
AcDbSymbolTableRecord
100
AcDbTextStyleTableRecord
2
TMT
70
4
40
0.0
41
1.0
50
0.0
71
0
42
0.0
3
@MS Mincho
4

0
ENDTAB
0
TABLE
2
LAYER
5
1780
100
AcDbSymbolTable
70
10
0
LAYER
5
1781
100
AcDbSymbolTableRecord
100
AcDbLayerTableRecord
2
0
70
64
62
  7
  6
CONTINUOUS
0
LAYER
5
1782
100
AcDbSymbolTableRecord
100
AcDbLayerTableRecord
2
0-0
70
64
62
  7
  6
CONTINUOUS
0
LAYER
5
1783
100
AcDbSymbolTableRecord
100
AcDbLayerTableRecord
2
ADD_LINE
70
64
62
  -7
  6
CONTINUOUS
0
ENDTAB
0
ENDSEC
0
SECTION
2
ENTITIES
0
LINE
5
1784
8
0-0
6
CONTINUOUS
62
  7
10
956.799
20
661.643
30
0.0
11
963.446
21
662.703
31
0.0
0
LINE
5
1785
8
0-0
6
CONTINUOUS
62
  7
10
963.446
20
662.703
30
0.0
11
965.864
21
666.627
31
0.0
0
LINE
5
1786
8
0-0
6
CONTINUOUS
62
  7
10
965.864
20
666.627
30
0.0
11
970.161
21
673.240
31
0.0
0
LINE
5
1787
8
0-0
6
CONTINUOUS
62
  7
10
970.161
20
673.240
30
0.0
11
974.815
21
679.431
31
0.0
0
LINE
5
1788
8
0-0
6
CONTINUOUS
62
  7
10
974.815
20
679.431
30
0.0
11
980.052
21
684.933
31
0.0
0
LINE
5
1789
8
0-0
6
CONTINUOUS
62
  7
10
980.052
20
684.933
30
0.0
11
983.446
21
687.703
31
0.0
0
LINE
5
178a
8
0-0
6
CONTINUOUS
62
  7
10
983.446
20
687.703
30
0.0
11
985.945
21
689.392
31
0.0
0
LINE
5
178b
8
0-0
6
CONTINUOUS
62
  7
10
985.945
20
689.392
30
0.0
11
990.543
21
691.930
31
0.0
0
LINE
5
178c
8
0-0
6
CONTINUOUS
62
  7
10
990.543
20
691.930
30
0.0
11
995.420
21
694.050
31
0.0
0
LINE
5
178d
8
0-0
6
CONTINUOUS
62
  7
10
995.420
20
694.050
30
0.0
11
1000.474
21
695.815
31
0.0
0
LINE
5
178e
8
0-0
6
CONTINUOUS
62
  7
10
1000.474
20
695.815
30
0.0
11
1003.446
21
696.703
31
0.0
0
LINE
5
178f
8
0-0
6
CONTINUOUS
62
  7
10
1003.446
20
696.703
30
0.0
11
1006.217
21
697.451
31
0.0
0
LINE
5
1790
8
0-0
6
CONTINUOUS
62
  7
10
1006.217
20
697.451
30
0.0
11
1011.007
21
698.582
31
0.0
0
LINE
5
1791
8
0-0
6
CONTINUOUS
62
  7
10
1011.007
20
698.582
30
0.0
11
1015.813
21
699.529
31
0.0
0
LINE
5
1792
8
0-0
6
CONTINUOUS
62
  7
10
1015.813
20
699.529
30
0.0
11
1020.638
21
700.314
31
0.0
0
LINE
5
1793
8
0-0
6
CONTINUOUS
62
  7
10
1020.638
20
700.314
30
0.0
11
1023.446
21
700.703
31
0.0
0
LINE
5
1794
8
0-0
6
CONTINUOUS
62
  7
10
1023.446
20
700.703
30
0.0
11
1026.565
21
701.083
31
0.0
0
LINE
5
1795
8
0-0
6
CONTINUOUS
62
  7
10
1026.565
20
701.083
30
0.0
11
1031.961
21
701.636
31
0.0
0
LINE
5
1796
8
0-0
6
CONTINUOUS
62
  7
10
1031.961
20
701.636
30
0.0
11
1037.374
21
702.091
31
0.0
0
LINE
5
1797
8
0-0
6
CONTINUOUS
62
  7
10
1037.374
20
702.091
30
0.0
11
1042.798
21
702.486
31
0.0
0
LINE
5
1798
8
0-0
6
CONTINUOUS
62
  7
10
1042.798
20
702.486
30
0.0
11
1045.946
21
702.703
31
0.0
0
LINE
5
1799
8
0-0
6
CONTINUOUS
62
  7
10
1128.446
20
662.703
30
0.0
11
1126.028
21
666.627
31
0.0
0
LINE
5
179a
8
0-0
6
CONTINUOUS
62
  7
10
1126.028
20
666.627
30
0.0
11
1121.731
21
673.240
31
0.0
0
LINE
5
179b
8
0-0
6
CONTINUOUS
62
  7
10
1121.731
20
673.240
30
0.0
11
1117.077
21
679.431
31
0.0
0
LINE
5
179c
8
0-0
6
CONTINUOUS
62
  7
10
1117.077
20
679.431
30
0.0
11
1111.840
21
684.933
31
0.0
0
LINE
5
179d
8
0-0
6
CONTINUOUS
62
  7
10
1111.840
20
684.933
30
0.0
11
1108.446
21
687.703
31
0.0
0
LINE
5
179e
8
0-0
6
CONTINUOUS
62
  7
10
1108.446
20
687.703
30
0.0
11
1105.947
21
689.392
31
0.0
0
LINE
5
179f
8
0-0
6
CONTINUOUS
62
  7
10
1105.947
20
689.392
30
0.0
11
1101.349
21
691.930
31
0.0
0
LINE
5
17a0
8
0-0
6
CONTINUOUS
62
  7
10
1101.349
20
691.930
30
0.0
11
1096.472
21
694.050
31
0.0
0
LINE
5
17a1
8
0-0
6
CONTINUOUS
62
  7
10
1096.472
20
694.050
30
0.0
11
1091.418
21
695.815
31
0.0
0
LINE
5
17a2
8
0-0
6
CONTINUOUS
62
  7
10
1091.418
20
695.815
30
0.0
11
1088.446
21
696.703
31
0.0
0
LINE
5
17a3
8
0-0
6
CONTINUOUS
62
  7
10
1088.446
20
696.703
30
0.0
11
1085.675
21
697.451
31
0.0
0
LINE
5
17a4
8
0-0
6
CONTINUOUS
62
  7
10
1085.675
20
697.451
30
0.0
11
1080.885
21
698.582
31
0.0
0
LINE
5
17a5
8
0-0
6
CONTINUOUS
62
  7
10
1080.885
20
698.582
30
0.0
11
1076.079
21
699.529
31
0.0
0
LINE
5
17a6
8
0-0
6
CONTINUOUS
62
  7
10
1076.079
20
699.529
30
0.0
11
1071.254
21
700.314
31
0.0
0
LINE
5
17a7
8
0-0
6
CONTINUOUS
62
  7
10
1071.254
20
700.314
30
0.0
11
1068.446
21
700.703
31
0.0
0
LINE
5
17a8
8
0-0
6
CONTINUOUS
62
  7
10
1068.446
20
700.703
30
0.0
11
1065.327
21
701.083
31
0.0
0
LINE
5
17a9
8
0-0
6
CONTINUOUS
62
  7
10
1065.327
20
701.083
30
0.0
11
1059.931
21
701.636
31
0.0
0
LINE
5
17aa
8
0-0
6
CONTINUOUS
62
  7
10
1059.931
20
701.636
30
0.0
11
1054.518
21
702.091
31
0.0
0
LINE
5
17ab
8
0-0
6
CONTINUOUS
62
  7
10
1054.518
20
702.091
30
0.0
11
1049.094
21
702.486
31
0.0
0
LINE
5
17ac
8
0-0
6
CONTINUOUS
62
  7
10
1049.094
20
702.486
30
0.0
11
1045.946
21
702.703
31
0.0
0
LINE
5
17ad
8
0-0
6
CONTINUOUS
62
  7
10
1135.093
20
661.643
30
0.0
11
1128.446
21
662.703
31
0.0
0
LINE
5
17ae
8
0-0
6
CONTINUOUS
62
  7
10
963.446
20
662.703
30
0.0
11
980.473
21
652.211
31
0.0
0
LINE
5
17af
8
0-0
6
CONTINUOUS
62
  7
10
980.473
20
652.211
30
0.0
11
977.201
21
651.853
31
0.0
0
LINE
5
17b0
8
0-0
6
CONTINUOUS
62
  7
10
977.201
20
651.853
30
0.0
11
971.822
21
651.000
31
0.0
0
LINE
5
17b1
8
0-0
6
CONTINUOUS
62
  7
10
971.822
20
651.000
30
0.0
11
967.172
21
649.494
31
0.0
0
LINE
5
17b2
8
0-0
6
CONTINUOUS
62
  7
10
967.172
20
649.494
30
0.0
11
963.715
21
646.921
31
0.0
0
LINE
5
17b3
8
0-0
6
CONTINUOUS
62
  7
10
963.715
20
646.921
30
0.0
11
962.438
21
644.777
31
0.0
0
LINE
5
17b4
8
0-0
6
CONTINUOUS
62
  7
10
962.438
20
644.777
30
0.0
11
962.289
21
644.378
31
0.0
0
LINE
5
17b5
8
0-0
6
CONTINUOUS
62
  7
10
962.289
20
644.378
30
0.0
11
962.067
21
643.663
31
0.0
0
LINE
5
17b6
8
0-0
6
CONTINUOUS
62
  7
10
962.067
20
643.663
30
0.0
11
961.878
21
642.921
31
0.0
0
LINE
5
17b7
8
0-0
6
CONTINUOUS
62
  7
10
961.878
20
642.921
30
0.0
11
961.714
21
642.167
31
0.0
0
LINE
5
17b8
8
0-0
6
CONTINUOUS
62
  7
10
961.714
20
642.167
30
0.0
11
961.625
21
641.729
31
0.0
0
LINE
5
17b9
8
0-0
6
CONTINUOUS
62
  7
10
961.625
20
641.729
30
0.0
11
961.535
21
641.271
31
0.0
0
LINE
5
17ba
8
0-0
6
CONTINUOUS
62
  7
10
961.535
20
641.271
30
0.0
11
961.384
21
640.486
31
0.0
0
LINE
5
17bb
8
0-0
6
CONTINUOUS
62
  7
10
961.384
20
640.486
30
0.0
11
961.239
21
639.705
31
0.0
0
LINE
5
17bc
8
0-0
6
CONTINUOUS
62
  7
10
961.239
20
639.705
30
0.0
11
961.097
21
638.927
31
0.0
0
LINE
5
17bd
8
0-0
6
CONTINUOUS
62
  7
10
961.097
20
638.927
30
0.0
11
961.015
21
638.477
31
0.0
0
LINE
5
17be
8
0-0
6
CONTINUOUS
62
  7
10
978.547
20
644.593
30
0.0
11
988.986
21
646.965
31
0.0
0
LINE
5
17bf
8
0-0
6
CONTINUOUS
62
  7
10
980.473
20
652.211
30
0.0
11
988.986
21
646.965
31
0.0
0
LINE
5
17c0
8
0-0
6
CONTINUOUS
62
  7
10
973.760
20
647.096
30
0.0
11
984.730
21
649.587
31
0.0
0
LINE
5
17c1
8
0-0
6
CONTINUOUS
62
  7
10
966.018
20
638.275
30
0.0
11
962.027
21
595.595
31
0.0
0
LINE
5
17c2
8
0-0
6
CONTINUOUS
62
  7
10
1005.946
20
637.632
30
0.0
11
1006.380
21
639.156
31
0.0
0
LINE
5
17c3
8
0-0
6
CONTINUOUS
62
  7
10
1006.380
20
639.156
30
0.0
11
1006.847
21
640.568
31
0.0
0
LINE
5
17c4
8
0-0
6
CONTINUOUS
62
  7
10
1006.847
20
640.568
30
0.0
11
1007.370
21
641.877
31
0.0
0
LINE
5
17c5
8
0-0
6
CONTINUOUS
62
  7
10
1007.370
20
641.877
30
0.0
11
1007.966
21
643.089
31
0.0
0
LINE
5
17c6
8
0-0
6
CONTINUOUS
62
  7
10
1007.966
20
643.089
30
0.0
11
1008.646
21
644.213
31
0.0
0
LINE
5
17c7
8
0-0
6
CONTINUOUS
62
  7
10
1008.646
20
644.213
30
0.0
11
1009.417
21
645.252
31
0.0
0
LINE
5
17c8
8
0-0
6
CONTINUOUS
62
  7
10
1009.417
20
645.252
30
0.0
11
1010.280
21
646.212
31
0.0
0
LINE
5
17c9
8
0-0
6
CONTINUOUS
62
  7
10
1010.280
20
646.212
30
0.0
11
1011.234
21
647.096
31
0.0
0
LINE
5
17ca
8
0-0
6
CONTINUOUS
62
  7
10
1011.234
20
647.096
30
0.0
11
1012.274
21
647.909
31
0.0
0
LINE
5
17cb
8
0-0
6
CONTINUOUS
62
  7
10
1012.274
20
647.909
30
0.0
11
1013.397
21
648.654
31
0.0
0
LINE
5
17cc
8
0-0
6
CONTINUOUS
62
  7
10
1013.397
20
648.654
30
0.0
11
1014.593
21
649.335
31
0.0
0
LINE
5
17cd
8
0-0
6
CONTINUOUS
62
  7
10
1014.593
20
649.335
30
0.0
11
1015.857
21
649.954
31
0.0
0
LINE
5
17ce
8
0-0
6
CONTINUOUS
62
  7
10
1015.857
20
649.954
30
0.0
11
1017.179
21
650.515
31
0.0
0
LINE
5
17cf
8
0-0
6
CONTINUOUS
62
  7
10
1017.179
20
650.515
30
0.0
11
1018.552
21
651.020
31
0.0
0
LINE
5
17d0
8
0-0
6
CONTINUOUS
62
  7
10
1018.552
20
651.020
30
0.0
11
1019.971
21
651.474
31
0.0
0
LINE
5
17d1
8
0-0
6
CONTINUOUS
62
  7
10
1019.971
20
651.474
30
0.0
11
1021.429
21
651.879
31
0.0
0
LINE
5
17d2
8
0-0
6
CONTINUOUS
62
  7
10
1021.429
20
651.879
30
0.0
11
1022.923
21
652.239
31
0.0
0
LINE
5
17d3
8
0-0
6
CONTINUOUS
62
  7
10
1022.923
20
652.239
30
0.0
11
1024.453
21
652.558
31
0.0
0
LINE
5
17d4
8
0-0
6
CONTINUOUS
62
  7
10
1024.453
20
652.558
30
0.0
11
1026.018
21
652.840
31
0.0
0
LINE
5
17d5
8
0-0
6
CONTINUOUS
62
  7
10
1026.018
20
652.840
30
0.0
11
1027.623
21
653.089
31
0.0
0
LINE
5
17d6
8
0-0
6
CONTINUOUS
62
  7
10
1027.623
20
653.089
30
0.0
11
1029.274
21
653.310
31
0.0
0
LINE
5
17d7
8
0-0
6
CONTINUOUS
62
  7
10
1029.274
20
653.310
30
0.0
11
1030.981
21
653.507
31
0.0
0
LINE
5
17d8
8
0-0
6
CONTINUOUS
62
  7
10
1030.981
20
653.507
30
0.0
11
1032.755
21
653.684
31
0.0
0
LINE
5
17d9
8
0-0
6
CONTINUOUS
62
  7
10
1032.755
20
653.684
30
0.0
11
1034.614
21
653.848
31
0.0
0
LINE
5
17da
8
0-0
6
CONTINUOUS
62
  7
10
1034.614
20
653.848
30
0.0
11
1036.575
21
654.003
31
0.0
0
LINE
5
17db
8
0-0
6
CONTINUOUS
62
  7
10
1036.575
20
654.003
30
0.0
11
1038.662
21
654.154
31
0.0
0
LINE
5
17dc
8
0-0
6
CONTINUOUS
62
  7
10
1038.662
20
654.154
30
0.0
11
1040.899
21
654.305
31
0.0
0
LINE
5
17dd
8
0-0
6
CONTINUOUS
62
  7
10
1040.899
20
654.305
30
0.0
11
1043.317
21
654.463
31
0.0
0
LINE
5
17de
8
0-0
6
CONTINUOUS
62
  7
10
1043.317
20
654.463
30
0.0
11
1045.946
21
654.632
31
0.0
0
LINE
5
17df
8
0-0
6
CONTINUOUS
62
  7
10
1019.552
20
637.081
30
0.0
11
1019.669
21
637.190
31
0.0
0
LINE
5
17e0
8
0-0
6
CONTINUOUS
62
  7
10
1019.669
20
637.190
30
0.0
11
1019.882
21
637.356
31
0.0
0
LINE
5
17e1
8
0-0
6
CONTINUOUS
62
  7
10
1019.882
20
637.356
30
0.0
11
1020.214
21
637.576
31
0.0
0
LINE
5
17e2
8
0-0
6
CONTINUOUS
62
  7
10
1020.214
20
637.576
30
0.0
11
1020.673
21
637.837
31
0.0
0
LINE
5
17e3
8
0-0
6
CONTINUOUS
62
  7
10
1020.673
20
637.837
30
0.0
11
1021.258
21
638.124
31
0.0
0
LINE
5
17e4
8
0-0
6
CONTINUOUS
62
  7
10
1021.258
20
638.124
30
0.0
11
1021.965
21
638.424
31
0.0
0
LINE
5
17e5
8
0-0
6
CONTINUOUS
62
  7
10
1021.965
20
638.424
30
0.0
11
1022.780
21
638.724
31
0.0
0
LINE
5
17e6
8
0-0
6
CONTINUOUS
62
  7
10
1022.780
20
638.724
30
0.0
11
1023.692
21
639.016
31
0.0
0
LINE
5
17e7
8
0-0
6
CONTINUOUS
62
  7
10
1023.692
20
639.016
30
0.0
11
1024.692
21
639.293
31
0.0
0
LINE
5
17e8
8
0-0
6
CONTINUOUS
62
  7
10
1024.692
20
639.293
30
0.0
11
1025.775
21
639.554
31
0.0
0
LINE
5
17e9
8
0-0
6
CONTINUOUS
62
  7
10
1025.775
20
639.554
30
0.0
11
1026.933
21
639.796
31
0.0
0
LINE
5
17ea
8
0-0
6
CONTINUOUS
62
  7
10
1026.933
20
639.796
30
0.0
11
1028.166
21
640.018
31
0.0
0
LINE
5
17eb
8
0-0
6
CONTINUOUS
62
  7
10
1028.166
20
640.018
30
0.0
11
1029.483
21
640.222
31
0.0
0
LINE
5
17ec
8
0-0
6
CONTINUOUS
62
  7
10
1029.483
20
640.222
30
0.0
11
1030.878
21
640.409
31
0.0
0
LINE
5
17ed
8
0-0
6
CONTINUOUS
62
  7
10
1030.878
20
640.409
30
0.0
11
1032.376
21
640.581
31
0.0
0
LINE
5
17ee
8
0-0
6
CONTINUOUS
62
  7
10
1032.376
20
640.581
30
0.0
11
1033.971
21
640.741
31
0.0
0
LINE
5
17ef
8
0-0
6
CONTINUOUS
62
  7
10
1033.971
20
640.741
30
0.0
11
1035.699
21
640.893
31
0.0
0
LINE
5
17f0
8
0-0
6
CONTINUOUS
62
  7
10
1035.699
20
640.893
30
0.0
11
1037.554
21
641.040
31
0.0
0
LINE
5
17f1
8
0-0
6
CONTINUOUS
62
  7
10
1037.554
20
641.040
30
0.0
11
1039.572
21
641.185
31
0.0
0
LINE
5
17f2
8
0-0
6
CONTINUOUS
62
  7
10
1039.572
20
641.185
30
0.0
11
1041.764
21
641.334
31
0.0
0
LINE
5
17f3
8
0-0
6
CONTINUOUS
62
  7
10
1041.764
20
641.334
30
0.0
11
1044.121
21
641.488
31
0.0
0
LINE
5
17f4
8
0-0
6
CONTINUOUS
62
  7
10
1044.121
20
641.488
30
0.0
11
1046.777
21
641.659
31
0.0
0
LINE
5
17f5
8
0-0
6
CONTINUOUS
62
  7
10
1019.382
20
636.844
30
0.0
11
1019.451
21
636.959
31
0.0
0
LINE
5
17f6
8
0-0
6
CONTINUOUS
62
  7
10
1019.451
20
636.959
30
0.0
11
1019.495
21
637.017
31
0.0
0
LINE
5
17f7
8
0-0
6
CONTINUOUS
62
  7
10
1019.495
20
637.017
30
0.0
11
1019.552
21
637.081
31
0.0
0
LINE
5
17f8
8
0-0
6
CONTINUOUS
62
  7
10
1019.552
20
637.081
30
0.0
11
1019.669
21
637.190
31
0.0
0
LINE
5
17f9
8
0-0
6
CONTINUOUS
62
  7
10
1019.669
20
637.190
30
0.0
11
1019.882
21
637.356
31
0.0
0
LINE
5
17fa
8
0-0
6
CONTINUOUS
62
  7
10
1019.882
20
637.356
30
0.0
11
1020.214
21
637.576
31
0.0
0
LINE
5
17fb
8
0-0
6
CONTINUOUS
62
  7
10
1020.214
20
637.576
30
0.0
11
1020.673
21
637.837
31
0.0
0
LINE
5
17fc
8
0-0
6
CONTINUOUS
62
  7
10
1020.673
20
637.837
30
0.0
11
1021.258
21
638.124
31
0.0
0
LINE
5
17fd
8
0-0
6
CONTINUOUS
62
  7
10
1021.258
20
638.124
30
0.0
11
1021.965
21
638.424
31
0.0
0
LINE
5
17fe
8
0-0
6
CONTINUOUS
62
  7
10
1021.965
20
638.424
30
0.0
11
1022.780
21
638.724
31
0.0
0
LINE
5
17ff
8
0-0
6
CONTINUOUS
62
  7
10
1022.780
20
638.724
30
0.0
11
1023.692
21
639.016
31
0.0
0
LINE
5
1800
8
0-0
6
CONTINUOUS
62
  7
10
1023.692
20
639.016
30
0.0
11
1024.692
21
639.293
31
0.0
0
LINE
5
1801
8
0-0
6
CONTINUOUS
62
  7
10
1024.692
20
639.293
30
0.0
11
1025.775
21
639.554
31
0.0
0
LINE
5
1802
8
0-0
6
CONTINUOUS
62
  7
10
1025.775
20
639.554
30
0.0
11
1026.933
21
639.796
31
0.0
0
LINE
5
1803
8
0-0
6
CONTINUOUS
62
  7
10
1026.933
20
639.796
30
0.0
11
1028.166
21
640.018
31
0.0
0
LINE
5
1804
8
0-0
6
CONTINUOUS
62
  7
10
1028.166
20
640.018
30
0.0
11
1029.483
21
640.222
31
0.0
0
LINE
5
1805
8
0-0
6
CONTINUOUS
62
  7
10
1029.483
20
640.222
30
0.0
11
1030.878
21
640.409
31
0.0
0
LINE
5
1806
8
0-0
6
CONTINUOUS
62
  7
10
1030.878
20
640.409
30
0.0
11
1032.376
21
640.581
31
0.0
0
LINE
5
1807
8
0-0
6
CONTINUOUS
62
  7
10
1032.376
20
640.581
30
0.0
11
1033.971
21
640.741
31
0.0
0
LINE
5
1808
8
0-0
6
CONTINUOUS
62
  7
10
1033.971
20
640.741
30
0.0
11
1035.699
21
640.893
31
0.0
0
LINE
5
1809
8
0-0
6
CONTINUOUS
62
  7
10
1035.699
20
640.893
30
0.0
11
1037.554
21
641.040
31
0.0
0
LINE
5
180a
8
0-0
6
CONTINUOUS
62
  7
10
1037.554
20
641.040
30
0.0
11
1039.572
21
641.185
31
0.0
0
LINE
5
180b
8
0-0
6
CONTINUOUS
62
  7
10
1039.572
20
641.185
30
0.0
11
1041.764
21
641.334
31
0.0
0
LINE
5
180c
8
0-0
6
CONTINUOUS
62
  7
10
1041.764
20
641.334
30
0.0
11
1044.121
21
641.488
31
0.0
0
LINE
5
180d
8
0-0
6
CONTINUOUS
62
  7
10
1044.121
20
641.488
30
0.0
11
1046.777
21
641.659
31
0.0
0
LINE
5
180e
8
0-0
6
CONTINUOUS
62
  7
10
984.730
20
649.588
30
0.0
11
986.990
21
653.257
31
0.0
0
LINE
5
180f
8
0-0
6
CONTINUOUS
62
  7
10
986.990
20
653.257
30
0.0
11
990.658
21
658.901
31
0.0
0
LINE
5
1810
8
0-0
6
CONTINUOUS
62
  7
10
990.658
20
658.901
30
0.0
11
993.925
21
663.247
31
0.0
0
LINE
5
1811
8
0-0
6
CONTINUOUS
62
  7
10
993.925
20
663.247
30
0.0
11
997.077
21
666.558
31
0.0
0
LINE
5
1812
8
0-0
6
CONTINUOUS
62
  7
10
997.077
20
666.558
30
0.0
11
998.382
21
667.623
31
0.0
0
LINE
5
1813
8
0-0
6
CONTINUOUS
62
  7
10
998.382
20
667.623
30
0.0
11
999.014
21
668.051
31
0.0
0
LINE
5
1814
8
0-0
6
CONTINUOUS
62
  7
10
999.014
20
668.051
30
0.0
11
1001.589
21
669.472
31
0.0
0
LINE
5
1815
8
0-0
6
CONTINUOUS
62
  7
10
1001.589
20
669.472
30
0.0
11
1004.537
21
670.753
31
0.0
0
LINE
5
1816
8
0-0
6
CONTINUOUS
62
  7
10
1004.537
20
670.753
30
0.0
11
1008.178
21
672.025
31
0.0
0
LINE
5
1817
8
0-0
6
CONTINUOUS
62
  7
10
1008.178
20
672.025
30
0.0
11
1010.281
21
672.653
31
0.0
0
LINE
5
1818
8
0-0
6
CONTINUOUS
62
  7
10
1010.281
20
672.653
30
0.0
11
1012.352
21
673.212
31
0.0
0
LINE
5
1819
8
0-0
6
CONTINUOUS
62
  7
10
1012.352
20
673.212
30
0.0
11
1016.297
21
674.143
31
0.0
0
LINE
5
181a
8
0-0
6
CONTINUOUS
62
  7
10
1016.297
20
674.143
30
0.0
11
1020.239
21
674.920
31
0.0
0
LINE
5
181b
8
0-0
6
CONTINUOUS
62
  7
10
1020.239
20
674.920
30
0.0
11
1024.359
21
675.590
31
0.0
0
LINE
5
181c
8
0-0
6
CONTINUOUS
62
  7
10
1024.359
20
675.590
30
0.0
11
1026.675
21
675.911
31
0.0
0
LINE
5
181d
8
0-0
6
CONTINUOUS
62
  7
10
1026.675
20
675.911
30
0.0
11
1029.350
21
676.238
31
0.0
0
LINE
5
181e
8
0-0
6
CONTINUOUS
62
  7
10
1029.350
20
676.238
30
0.0
11
1034.285
21
676.744
31
0.0
0
LINE
5
181f
8
0-0
6
CONTINUOUS
62
  7
10
1034.285
20
676.744
30
0.0
11
1039.323
21
677.167
31
0.0
0
LINE
5
1820
8
0-0
6
CONTINUOUS
62
  7
10
1039.323
20
677.167
30
0.0
11
1044.574
21
677.549
31
0.0
0
LINE
5
1821
8
0-0
6
CONTINUOUS
62
  7
10
1044.574
20
677.549
30
0.0
11
1045.946
21
677.644
31
0.0
0
LINE
5
1822
8
0-0
6
CONTINUOUS
62
  7
10
980.473
20
652.211
30
0.0
11
982.765
21
655.931
31
0.0
0
LINE
5
1823
8
0-0
6
CONTINUOUS
62
  7
10
982.765
20
655.931
30
0.0
11
986.559
21
661.768
31
0.0
0
LINE
5
1824
8
0-0
6
CONTINUOUS
62
  7
10
986.559
20
661.768
30
0.0
11
990.103
21
666.484
31
0.0
0
LINE
5
1825
8
0-0
6
CONTINUOUS
62
  7
10
990.103
20
666.484
30
0.0
11
993.672
21
670.233
31
0.0
0
LINE
5
1826
8
0-0
6
CONTINUOUS
62
  7
10
993.672
20
670.233
30
0.0
11
995.395
21
671.639
31
0.0
0
LINE
5
1827
8
0-0
6
CONTINUOUS
62
  7
10
995.395
20
671.639
30
0.0
11
996.400
21
672.319
31
0.0
0
LINE
5
1828
8
0-0
6
CONTINUOUS
62
  7
10
996.400
20
672.319
30
0.0
11
999.380
21
673.964
31
0.0
0
LINE
5
1829
8
0-0
6
CONTINUOUS
62
  7
10
999.380
20
673.964
30
0.0
11
1002.714
21
675.412
31
0.0
0
LINE
5
182a
8
0-0
6
CONTINUOUS
62
  7
10
1002.714
20
675.412
30
0.0
11
1006.636
21
676.783
31
0.0
0
LINE
5
182b
8
0-0
6
CONTINUOUS
62
  7
10
1006.636
20
676.783
30
0.0
11
1008.915
21
677.463
31
0.0
0
LINE
5
182c
8
0-0
6
CONTINUOUS
62
  7
10
1008.915
20
677.463
30
0.0
11
1011.125
21
678.060
31
0.0
0
LINE
5
182d
8
0-0
6
CONTINUOUS
62
  7
10
1011.125
20
678.060
30
0.0
11
1015.238
21
679.031
31
0.0
0
LINE
5
182e
8
0-0
6
CONTINUOUS
62
  7
10
1015.238
20
679.031
30
0.0
11
1019.353
21
679.842
31
0.0
0
LINE
5
182f
8
0-0
6
CONTINUOUS
62
  7
10
1019.353
20
679.842
30
0.0
11
1023.616
21
680.535
31
0.0
0
LINE
5
1830
8
0-0
6
CONTINUOUS
62
  7
10
1023.616
20
680.535
30
0.0
11
1026.029
21
680.870
31
0.0
0
LINE
5
1831
8
0-0
6
CONTINUOUS
62
  7
10
1026.029
20
680.870
30
0.0
11
1028.795
21
681.207
31
0.0
0
LINE
5
1832
8
0-0
6
CONTINUOUS
62
  7
10
1028.795
20
681.207
30
0.0
11
1033.820
21
681.722
31
0.0
0
LINE
5
1833
8
0-0
6
CONTINUOUS
62
  7
10
1033.820
20
681.722
30
0.0
11
1038.934
21
682.152
31
0.0
0
LINE
5
1834
8
0-0
6
CONTINUOUS
62
  7
10
1038.934
20
682.152
30
0.0
11
1044.223
21
682.537
31
0.0
0
LINE
5
1835
8
0-0
6
CONTINUOUS
62
  7
10
1044.223
20
682.537
30
0.0
11
1045.946
21
682.655
31
0.0
0
LINE
5
1836
8
0-0
6
CONTINUOUS
62
  7
10
988.986
20
646.965
30
0.0
11
991.216
21
650.582
31
0.0
0
LINE
5
1837
8
0-0
6
CONTINUOUS
62
  7
10
991.216
20
650.582
30
0.0
11
994.757
21
656.033
31
0.0
0
LINE
5
1838
8
0-0
6
CONTINUOUS
62
  7
10
994.757
20
656.033
30
0.0
11
997.747
21
660.010
31
0.0
0
LINE
5
1839
8
0-0
6
CONTINUOUS
62
  7
10
997.747
20
660.010
30
0.0
11
1000.482
21
662.884
31
0.0
0
LINE
5
183a
8
0-0
6
CONTINUOUS
62
  7
10
1000.482
20
662.884
30
0.0
11
1001.369
21
663.607
31
0.0
0
LINE
5
183b
8
0-0
6
CONTINUOUS
62
  7
10
1001.369
20
663.607
30
0.0
11
1001.628
21
663.782
31
0.0
0
LINE
5
183c
8
0-0
6
CONTINUOUS
62
  7
10
1001.628
20
663.782
30
0.0
11
1003.798
21
664.980
31
0.0
0
LINE
5
183d
8
0-0
6
CONTINUOUS
62
  7
10
1003.798
20
664.980
30
0.0
11
1006.360
21
666.093
31
0.0
0
LINE
5
183e
8
0-0
6
CONTINUOUS
62
  7
10
1006.360
20
666.093
30
0.0
11
1009.719
21
667.267
31
0.0
0
LINE
5
183f
8
0-0
6
CONTINUOUS
62
  7
10
1009.719
20
667.267
30
0.0
11
1011.648
21
667.843
31
0.0
0
LINE
5
1840
8
0-0
6
CONTINUOUS
62
  7
10
1011.648
20
667.843
30
0.0
11
1013.578
21
668.364
31
0.0
0
LINE
5
1841
8
0-0
6
CONTINUOUS
62
  7
10
1013.578
20
668.364
30
0.0
11
1017.355
21
669.256
31
0.0
0
LINE
5
1842
8
0-0
6
CONTINUOUS
62
  7
10
1017.355
20
669.256
30
0.0
11
1021.123
21
669.999
31
0.0
0
LINE
5
1843
8
0-0
6
CONTINUOUS
62
  7
10
1021.123
20
669.999
30
0.0
11
1025.105
21
670.646
31
0.0
0
LINE
5
1844
8
0-0
6
CONTINUOUS
62
  7
10
1025.105
20
670.646
30
0.0
11
1027.321
21
670.953
31
0.0
0
LINE
5
1845
8
0-0
6
CONTINUOUS
62
  7
10
1027.321
20
670.953
30
0.0
11
1029.908
21
671.269
31
0.0
0
LINE
5
1846
8
0-0
6
CONTINUOUS
62
  7
10
1029.908
20
671.269
30
0.0
11
1034.748
21
671.765
31
0.0
0
LINE
5
1847
8
0-0
6
CONTINUOUS
62
  7
10
1034.748
20
671.765
30
0.0
11
1039.717
21
672.182
31
0.0
0
LINE
5
1848
8
0-0
6
CONTINUOUS
62
  7
10
1039.717
20
672.182
30
0.0
11
1044.926
21
672.562
31
0.0
0
LINE
5
1849
8
0-0
6
CONTINUOUS
62
  7
10
1044.926
20
672.562
30
0.0
11
1045.946
21
672.632
31
0.0
0
LINE
5
184a
8
0-0
6
CONTINUOUS
62
  7
10
1135.093
20
661.643
30
0.0
11
1128.446
21
662.703
31
0.0
0
LINE
5
184b
8
0-0
6
CONTINUOUS
62
  7
10
1128.446
20
662.703
30
0.0
11
1126.028
21
666.627
31
0.0
0
LINE
5
184c
8
0-0
6
CONTINUOUS
62
  7
10
1126.028
20
666.627
30
0.0
11
1121.731
21
673.240
31
0.0
0
LINE
5
184d
8
0-0
6
CONTINUOUS
62
  7
10
1121.731
20
673.240
30
0.0
11
1117.077
21
679.431
31
0.0
0
LINE
5
184e
8
0-0
6
CONTINUOUS
62
  7
10
1117.077
20
679.431
30
0.0
11
1111.840
21
684.933
31
0.0
0
LINE
5
184f
8
0-0
6
CONTINUOUS
62
  7
10
1111.840
20
684.933
30
0.0
11
1108.446
21
687.703
31
0.0
0
LINE
5
1850
8
0-0
6
CONTINUOUS
62
  7
10
1108.446
20
687.703
30
0.0
11
1105.947
21
689.392
31
0.0
0
LINE
5
1851
8
0-0
6
CONTINUOUS
62
  7
10
1105.947
20
689.392
30
0.0
11
1101.349
21
691.930
31
0.0
0
LINE
5
1852
8
0-0
6
CONTINUOUS
62
  7
10
1101.349
20
691.930
30
0.0
11
1096.472
21
694.050
31
0.0
0
LINE
5
1853
8
0-0
6
CONTINUOUS
62
  7
10
1096.472
20
694.050
30
0.0
11
1091.418
21
695.815
31
0.0
0
LINE
5
1854
8
0-0
6
CONTINUOUS
62
  7
10
1091.418
20
695.815
30
0.0
11
1088.446
21
696.703
31
0.0
0
LINE
5
1855
8
0-0
6
CONTINUOUS
62
  7
10
1088.446
20
696.703
30
0.0
11
1085.675
21
697.451
31
0.0
0
LINE
5
1856
8
0-0
6
CONTINUOUS
62
  7
10
1085.675
20
697.451
30
0.0
11
1080.885
21
698.582
31
0.0
0
LINE
5
1857
8
0-0
6
CONTINUOUS
62
  7
10
1080.885
20
698.582
30
0.0
11
1076.079
21
699.529
31
0.0
0
LINE
5
1858
8
0-0
6
CONTINUOUS
62
  7
10
1076.079
20
699.529
30
0.0
11
1071.254
21
700.314
31
0.0
0
LINE
5
1859
8
0-0
6
CONTINUOUS
62
  7
10
1071.254
20
700.314
30
0.0
11
1068.446
21
700.703
31
0.0
0
LINE
5
185a
8
0-0
6
CONTINUOUS
62
  7
10
1068.446
20
700.703
30
0.0
11
1065.327
21
701.083
31
0.0
0
LINE
5
185b
8
0-0
6
CONTINUOUS
62
  7
10
1065.327
20
701.083
30
0.0
11
1059.931
21
701.636
31
0.0
0
LINE
5
185c
8
0-0
6
CONTINUOUS
62
  7
10
1059.931
20
701.636
30
0.0
11
1054.518
21
702.091
31
0.0
0
LINE
5
185d
8
0-0
6
CONTINUOUS
62
  7
10
1054.518
20
702.091
30
0.0
11
1049.094
21
702.486
31
0.0
0
LINE
5
185e
8
0-0
6
CONTINUOUS
62
  7
10
1049.094
20
702.486
30
0.0
11
1045.946
21
702.703
31
0.0
0
LINE
5
185f
8
0-0
6
CONTINUOUS
62
  7
10
1128.446
20
662.703
30
0.0
11
1111.419
21
652.211
31
0.0
0
LINE
5
1860
8
0-0
6
CONTINUOUS
62
  7
10
1111.419
20
652.211
30
0.0
11
1114.691
21
651.853
31
0.0
0
LINE
5
1861
8
0-0
6
CONTINUOUS
62
  7
10
1114.691
20
651.853
30
0.0
11
1120.070
21
651.000
31
0.0
0
LINE
5
1862
8
0-0
6
CONTINUOUS
62
  7
10
1120.070
20
651.000
30
0.0
11
1124.720
21
649.494
31
0.0
0
LINE
5
1863
8
0-0
6
CONTINUOUS
62
  7
10
1124.720
20
649.494
30
0.0
11
1128.177
21
646.921
31
0.0
0
LINE
5
1864
8
0-0
6
CONTINUOUS
62
  7
10
1128.177
20
646.921
30
0.0
11
1129.454
21
644.777
31
0.0
0
LINE
5
1865
8
0-0
6
CONTINUOUS
62
  7
10
1129.454
20
644.777
30
0.0
11
1129.603
21
644.378
31
0.0
0
LINE
5
1866
8
0-0
6
CONTINUOUS
62
  7
10
1129.603
20
644.378
30
0.0
11
1129.825
21
643.663
31
0.0
0
LINE
5
1867
8
0-0
6
CONTINUOUS
62
  7
10
1129.825
20
643.663
30
0.0
11
1130.013
21
642.921
31
0.0
0
LINE
5
1868
8
0-0
6
CONTINUOUS
62
  7
10
1130.013
20
642.921
30
0.0
11
1130.178
21
642.167
31
0.0
0
LINE
5
1869
8
0-0
6
CONTINUOUS
62
  7
10
1130.178
20
642.167
30
0.0
11
1130.267
21
641.729
31
0.0
0
LINE
5
186a
8
0-0
6
CONTINUOUS
62
  7
10
1130.267
20
641.729
30
0.0
11
1130.357
21
641.271
31
0.0
0
LINE
5
186b
8
0-0
6
CONTINUOUS
62
  7
10
1130.357
20
641.271
30
0.0
11
1130.508
21
640.486
31
0.0
0
LINE
5
186c
8
0-0
6
CONTINUOUS
62
  7
10
1130.508
20
640.486
30
0.0
11
1130.653
21
639.705
31
0.0
0
LINE
5
186d
8
0-0
6
CONTINUOUS
62
  7
10
1130.653
20
639.705
30
0.0
11
1130.795
21
638.927
31
0.0
0
LINE
5
186e
8
0-0
6
CONTINUOUS
62
  7
10
1130.795
20
638.927
30
0.0
11
1130.877
21
638.477
31
0.0
0
LINE
5
186f
8
0-0
6
CONTINUOUS
62
  7
10
1113.345
20
644.593
30
0.0
11
1102.906
21
646.965
31
0.0
0
LINE
5
1870
8
0-0
6
CONTINUOUS
62
  7
10
1111.419
20
652.211
30
0.0
11
1102.906
21
646.965
31
0.0
0
LINE
5
1871
8
0-0
6
CONTINUOUS
62
  7
10
1118.132
20
647.096
30
0.0
11
1107.162
21
649.587
31
0.0
0
LINE
5
1872
8
0-0
6
CONTINUOUS
62
  7
10
1125.874
20
638.275
30
0.0
11
1129.865
21
595.595
31
0.0
0
LINE
5
1873
8
0-0
6
CONTINUOUS
62
  7
10
1130.877
20
638.477
30
0.0
11
1134.456
21
600.206
31
0.0
0
LINE
5
1874
8
0-0
6
CONTINUOUS
62
  7
10
1085.946
20
637.632
30
0.0
11
1085.512
21
639.156
31
0.0
0
LINE
5
1875
8
0-0
6
CONTINUOUS
62
  7
10
1085.512
20
639.156
30
0.0
11
1085.045
21
640.568
31
0.0
0
LINE
5
1876
8
0-0
6
CONTINUOUS
62
  7
10
1085.045
20
640.568
30
0.0
11
1084.522
21
641.877
31
0.0
0
LINE
5
1877
8
0-0
6
CONTINUOUS
62
  7
10
1084.522
20
641.877
30
0.0
11
1083.926
21
643.089
31
0.0
0
LINE
5
1878
8
0-0
6
CONTINUOUS
62
  7
10
1083.926
20
643.089
30
0.0
11
1083.246
21
644.213
31
0.0
0
LINE
5
1879
8
0-0
6
CONTINUOUS
62
  7
10
1083.246
20
644.213
30
0.0
11
1082.475
21
645.252
31
0.0
0
LINE
5
187a
8
0-0
6
CONTINUOUS
62
  7
10
1082.475
20
645.252
30
0.0
11
1081.612
21
646.212
31
0.0
0
LINE
5
187b
8
0-0
6
CONTINUOUS
62
  7
10
1081.612
20
646.212
30
0.0
11
1080.658
21
647.096
31
0.0
0
LINE
5
187c
8
0-0
6
CONTINUOUS
62
  7
10
1080.658
20
647.096
30
0.0
11
1079.618
21
647.909
31
0.0
0
LINE
5
187d
8
0-0
6
CONTINUOUS
62
  7
10
1079.618
20
647.909
30
0.0
11
1078.495
21
648.654
31
0.0
0
LINE
5
187e
8
0-0
6
CONTINUOUS
62
  7
10
1078.495
20
648.654
30
0.0
11
1077.299
21
649.335
31
0.0
0
LINE
5
187f
8
0-0
6
CONTINUOUS
62
  7
10
1077.299
20
649.335
30
0.0
11
1076.035
21
649.954
31
0.0
0
LINE
5
1880
8
0-0
6
CONTINUOUS
62
  7
10
1076.035
20
649.954
30
0.0
11
1074.713
21
650.515
31
0.0
0
LINE
5
1881
8
0-0
6
CONTINUOUS
62
  7
10
1074.713
20
650.515
30
0.0
11
1073.340
21
651.020
31
0.0
0
LINE
5
1882
8
0-0
6
CONTINUOUS
62
  7
10
1073.340
20
651.020
30
0.0
11
1071.922
21
651.474
31
0.0
0
LINE
5
1883
8
0-0
6
CONTINUOUS
62
  7
10
1071.922
20
651.474
30
0.0
11
1070.463
21
651.879
31
0.0
0
LINE
5
1884
8
0-0
6
CONTINUOUS
62
  7
10
1070.463
20
651.879
30
0.0
11
1068.969
21
652.239
31
0.0
0
LINE
5
1885
8
0-0
6
CONTINUOUS
62
  7
10
1068.969
20
652.239
30
0.0
11
1067.439
21
652.558
31
0.0
0
LINE
5
1886
8
0-0
6
CONTINUOUS
62
  7
10
1067.439
20
652.558
30
0.0
11
1065.874
21
652.840
31
0.0
0
LINE
5
1887
8
0-0
6
CONTINUOUS
62
  7
10
1065.874
20
652.840
30
0.0
11
1064.269
21
653.089
31
0.0
0
LINE
5
1888
8
0-0
6
CONTINUOUS
62
  7
10
1064.269
20
653.089
30
0.0
11
1062.618
21
653.310
31
0.0
0
LINE
5
1889
8
0-0
6
CONTINUOUS
62
  7
10
1062.618
20
653.310
30
0.0
11
1060.911
21
653.507
31
0.0
0
LINE
5
188a
8
0-0
6
CONTINUOUS
62
  7
10
1060.911
20
653.507
30
0.0
11
1059.137
21
653.684
31
0.0
0
LINE
5
188b
8
0-0
6
CONTINUOUS
62
  7
10
1059.137
20
653.684
30
0.0
11
1057.278
21
653.848
31
0.0
0
LINE
5
188c
8
0-0
6
CONTINUOUS
62
  7
10
1057.278
20
653.848
30
0.0
11
1055.317
21
654.003
31
0.0
0
LINE
5
188d
8
0-0
6
CONTINUOUS
62
  7
10
1055.317
20
654.003
30
0.0
11
1053.230
21
654.154
31
0.0
0
LINE
5
188e
8
0-0
6
CONTINUOUS
62
  7
10
1053.230
20
654.154
30
0.0
11
1050.993
21
654.305
31
0.0
0
LINE
5
188f
8
0-0
6
CONTINUOUS
62
  7
10
1050.993
20
654.305
30
0.0
11
1048.575
21
654.463
31
0.0
0
LINE
5
1890
8
0-0
6
CONTINUOUS
62
  7
10
1048.575
20
654.463
30
0.0
11
1045.946
21
654.632
31
0.0
0
LINE
5
1891
8
0-0
6
CONTINUOUS
62
  7
10
1072.340
20
637.081
30
0.0
11
1072.223
21
637.190
31
0.0
0
LINE
5
1892
8
0-0
6
CONTINUOUS
62
  7
10
1072.223
20
637.190
30
0.0
11
1072.010
21
637.356
31
0.0
0
LINE
5
1893
8
0-0
6
CONTINUOUS
62
  7
10
1072.010
20
637.356
30
0.0
11
1071.678
21
637.576
31
0.0
0
LINE
5
1894
8
0-0
6
CONTINUOUS
62
  7
10
1071.678
20
637.576
30
0.0
11
1071.219
21
637.837
31
0.0
0
LINE
5
1895
8
0-0
6
CONTINUOUS
62
  7
10
1071.219
20
637.837
30
0.0
11
1070.634
21
638.124
31
0.0
0
LINE
5
1896
8
0-0
6
CONTINUOUS
62
  7
10
1070.634
20
638.124
30
0.0
11
1069.927
21
638.424
31
0.0
0
LINE
5
1897
8
0-0
6
CONTINUOUS
62
  7
10
1069.927
20
638.424
30
0.0
11
1069.112
21
638.724
31
0.0
0
LINE
5
1898
8
0-0
6
CONTINUOUS
62
  7
10
1069.112
20
638.724
30
0.0
11
1068.200
21
639.016
31
0.0
0
LINE
5
1899
8
0-0
6
CONTINUOUS
62
  7
10
1068.200
20
639.016
30
0.0
11
1067.200
21
639.293
31
0.0
0
LINE
5
189a
8
0-0
6
CONTINUOUS
62
  7
10
1067.200
20
639.293
30
0.0
11
1066.117
21
639.554
31
0.0
0
LINE
5
189b
8
0-0
6
CONTINUOUS
62
  7
10
1066.117
20
639.554
30
0.0
11
1064.959
21
639.796
31
0.0
0
LINE
5
189c
8
0-0
6
CONTINUOUS
62
  7
10
1064.959
20
639.796
30
0.0
11
1063.726
21
640.018
31
0.0
0
LINE
5
189d
8
0-0
6
CONTINUOUS
62
  7
10
1063.726
20
640.018
30
0.0
11
1062.409
21
640.222
31
0.0
0
LINE
5
189e
8
0-0
6
CONTINUOUS
62
  7
10
1062.409
20
640.222
30
0.0
11
1061.014
21
640.409
31
0.0
0
LINE
5
189f
8
0-0
6
CONTINUOUS
62
  7
10
1061.014
20
640.409
30
0.0
11
1059.516
21
640.581
31
0.0
0
LINE
5
18a0
8
0-0
6
CONTINUOUS
62
  7
10
1059.516
20
640.581
30
0.0
11
1057.921
21
640.741
31
0.0
0
LINE
5
18a1
8
0-0
6
CONTINUOUS
62
  7
10
1057.921
20
640.741
30
0.0
11
1056.193
21
640.893
31
0.0
0
LINE
5
18a2
8
0-0
6
CONTINUOUS
62
  7
10
1056.193
20
640.893
30
0.0
11
1054.338
21
641.040
31
0.0
0
LINE
5
18a3
8
0-0
6
CONTINUOUS
62
  7
10
1054.338
20
641.040
30
0.0
11
1052.320
21
641.185
31
0.0
0
LINE
5
18a4
8
0-0
6
CONTINUOUS
62
  7
10
1052.320
20
641.185
30
0.0
11
1050.128
21
641.334
31
0.0
0
LINE
5
18a5
8
0-0
6
CONTINUOUS
62
  7
10
1050.128
20
641.334
30
0.0
11
1047.771
21
641.488
31
0.0
0
LINE
5
18a6
8
0-0
6
CONTINUOUS
62
  7
10
1047.771
20
641.488
30
0.0
11
1045.115
21
641.659
31
0.0
0
LINE
5
18a7
8
0-0
6
CONTINUOUS
62
  7
10
1072.510
20
636.844
30
0.0
11
1072.441
21
636.959
31
0.0
0
LINE
5
18a8
8
0-0
6
CONTINUOUS
62
  7
10
1072.441
20
636.959
30
0.0
11
1072.397
21
637.017
31
0.0
0
LINE
5
18a9
8
0-0
6
CONTINUOUS
62
  7
10
1072.397
20
637.017
30
0.0
11
1072.340
21
637.081
31
0.0
0
LINE
5
18aa
8
0-0
6
CONTINUOUS
62
  7
10
1072.340
20
637.081
30
0.0
11
1072.223
21
637.190
31
0.0
0
LINE
5
18ab
8
0-0
6
CONTINUOUS
62
  7
10
1072.223
20
637.190
30
0.0
11
1072.010
21
637.356
31
0.0
0
LINE
5
18ac
8
0-0
6
CONTINUOUS
62
  7
10
1072.010
20
637.356
30
0.0
11
1071.678
21
637.576
31
0.0
0
LINE
5
18ad
8
0-0
6
CONTINUOUS
62
  7
10
1071.678
20
637.576
30
0.0
11
1071.219
21
637.837
31
0.0
0
LINE
5
18ae
8
0-0
6
CONTINUOUS
62
  7
10
1071.219
20
637.837
30
0.0
11
1070.634
21
638.124
31
0.0
0
LINE
5
18af
8
0-0
6
CONTINUOUS
62
  7
10
1070.634
20
638.124
30
0.0
11
1069.927
21
638.424
31
0.0
0
LINE
5
18b0
8
0-0
6
CONTINUOUS
62
  7
10
1069.927
20
638.424
30
0.0
11
1069.112
21
638.724
31
0.0
0
LINE
5
18b1
8
0-0
6
CONTINUOUS
62
  7
10
1069.112
20
638.724
30
0.0
11
1068.200
21
639.016
31
0.0
0
LINE
5
18b2
8
0-0
6
CONTINUOUS
62
  7
10
1068.200
20
639.016
30
0.0
11
1067.200
21
639.293
31
0.0
0
LINE
5
18b3
8
0-0
6
CONTINUOUS
62
  7
10
1067.200
20
639.293
30
0.0
11
1066.117
21
639.554
31
0.0
0
LINE
5
18b4
8
0-0
6
CONTINUOUS
62
  7
10
1066.117
20
639.554
30
0.0
11
1064.959
21
639.796
31
0.0
0
LINE
5
18b5
8
0-0
6
CONTINUOUS
62
  7
10
1064.959
20
639.796
30
0.0
11
1063.726
21
640.018
31
0.0
0
LINE
5
18b6
8
0-0
6
CONTINUOUS
62
  7
10
1063.726
20
640.018
30
0.0
11
1062.409
21
640.222
31
0.0
0
LINE
5
18b7
8
0-0
6
CONTINUOUS
62
  7
10
1062.409
20
640.222
30
0.0
11
1061.014
21
640.409
31
0.0
0
LINE
5
18b8
8
0-0
6
CONTINUOUS
62
  7
10
1061.014
20
640.409
30
0.0
11
1059.516
21
640.581
31
0.0
0
LINE
5
18b9
8
0-0
6
CONTINUOUS
62
  7
10
1059.516
20
640.581
30
0.0
11
1057.921
21
640.741
31
0.0
0
LINE
5
18ba
8
0-0
6
CONTINUOUS
62
  7
10
1057.921
20
640.741
30
0.0
11
1056.193
21
640.893
31
0.0
0
LINE
5
18bb
8
0-0
6
CONTINUOUS
62
  7
10
1056.193
20
640.893
30
0.0
11
1054.338
21
641.040
31
0.0
0
LINE
5
18bc
8
0-0
6
CONTINUOUS
62
  7
10
1054.338
20
641.040
30
0.0
11
1052.320
21
641.185
31
0.0
0
LINE
5
18bd
8
0-0
6
CONTINUOUS
62
  7
10
1052.320
20
641.185
30
0.0
11
1050.128
21
641.334
31
0.0
0
LINE
5
18be
8
0-0
6
CONTINUOUS
62
  7
10
1050.128
20
641.334
30
0.0
11
1047.771
21
641.488
31
0.0
0
LINE
5
18bf
8
0-0
6
CONTINUOUS
62
  7
10
1047.771
20
641.488
30
0.0
11
1045.115
21
641.659
31
0.0
0
LINE
5
18c0
8
0-0
6
CONTINUOUS
62
  7
10
1107.162
20
649.588
30
0.0
11
1104.902
21
653.257
31
0.0
0
LINE
5
18c1
8
0-0
6
CONTINUOUS
62
  7
10
1104.902
20
653.257
30
0.0
11
1101.234
21
658.901
31
0.0
0
LINE
5
18c2
8
0-0
6
CONTINUOUS
62
  7
10
1101.234
20
658.901
30
0.0
11
1097.967
21
663.247
31
0.0
0
LINE
5
18c3
8
0-0
6
CONTINUOUS
62
  7
10
1097.967
20
663.247
30
0.0
11
1094.815
21
666.558
31
0.0
0
LINE
5
18c4
8
0-0
6
CONTINUOUS
62
  7
10
1094.815
20
666.558
30
0.0
11
1093.510
21
667.623
31
0.0
0
LINE
5
18c5
8
0-0
6
CONTINUOUS
62
  7
10
1093.510
20
667.623
30
0.0
11
1092.878
21
668.051
31
0.0
0
LINE
5
18c6
8
0-0
6
CONTINUOUS
62
  7
10
1092.878
20
668.051
30
0.0
11
1090.303
21
669.472
31
0.0
0
LINE
5
18c7
8
0-0
6
CONTINUOUS
62
  7
10
1090.303
20
669.472
30
0.0
11
1087.355
21
670.753
31
0.0
0
LINE
5
18c8
8
0-0
6
CONTINUOUS
62
  7
10
1087.355
20
670.753
30
0.0
11
1083.714
21
672.025
31
0.0
0
LINE
5
18c9
8
0-0
6
CONTINUOUS
62
  7
10
1083.714
20
672.025
30
0.0
11
1081.611
21
672.653
31
0.0
0
LINE
5
18ca
8
0-0
6
CONTINUOUS
62
  7
10
1081.611
20
672.653
30
0.0
11
1079.540
21
673.212
31
0.0
0
LINE
5
18cb
8
0-0
6
CONTINUOUS
62
  7
10
1079.540
20
673.212
30
0.0
11
1075.595
21
674.143
31
0.0
0
LINE
5
18cc
8
0-0
6
CONTINUOUS
62
  7
10
1075.595
20
674.143
30
0.0
11
1071.653
21
674.920
31
0.0
0
LINE
5
18cd
8
0-0
6
CONTINUOUS
62
  7
10
1071.653
20
674.920
30
0.0
11
1067.533
21
675.590
31
0.0
0
LINE
5
18ce
8
0-0
6
CONTINUOUS
62
  7
10
1067.533
20
675.590
30
0.0
11
1065.217
21
675.911
31
0.0
0
LINE
5
18cf
8
0-0
6
CONTINUOUS
62
  7
10
1065.217
20
675.911
30
0.0
11
1062.542
21
676.238
31
0.0
0
LINE
5
18d0
8
0-0
6
CONTINUOUS
62
  7
10
1062.542
20
676.238
30
0.0
11
1057.607
21
676.744
31
0.0
0
LINE
5
18d1
8
0-0
6
CONTINUOUS
62
  7
10
1057.607
20
676.744
30
0.0
11
1052.569
21
677.167
31
0.0
0
LINE
5
18d2
8
0-0
6
CONTINUOUS
62
  7
10
1052.569
20
677.167
30
0.0
11
1047.318
21
677.549
31
0.0
0
LINE
5
18d3
8
0-0
6
CONTINUOUS
62
  7
10
1047.318
20
677.549
30
0.0
11
1045.946
21
677.644
31
0.0
0
LINE
5
18d4
8
0-0
6
CONTINUOUS
62
  7
10
1111.419
20
652.211
30
0.0
11
1109.127
21
655.931
31
0.0
0
LINE
5
18d5
8
0-0
6
CONTINUOUS
62
  7
10
1109.127
20
655.931
30
0.0
11
1105.333
21
661.768
31
0.0
0
LINE
5
18d6
8
0-0
6
CONTINUOUS
62
  7
10
1105.333
20
661.768
30
0.0
11
1101.789
21
666.484
31
0.0
0
LINE
5
18d7
8
0-0
6
CONTINUOUS
62
  7
10
1101.789
20
666.484
30
0.0
11
1098.220
21
670.233
31
0.0
0
LINE
5
18d8
8
0-0
6
CONTINUOUS
62
  7
10
1098.220
20
670.233
30
0.0
11
1096.497
21
671.639
31
0.0
0
LINE
5
18d9
8
0-0
6
CONTINUOUS
62
  7
10
1096.497
20
671.639
30
0.0
11
1095.492
21
672.319
31
0.0
0
LINE
5
18da
8
0-0
6
CONTINUOUS
62
  7
10
1095.492
20
672.319
30
0.0
11
1092.512
21
673.964
31
0.0
0
LINE
5
18db
8
0-0
6
CONTINUOUS
62
  7
10
1092.512
20
673.964
30
0.0
11
1089.178
21
675.412
31
0.0
0
LINE
5
18dc
8
0-0
6
CONTINUOUS
62
  7
10
1089.178
20
675.412
30
0.0
11
1085.256
21
676.783
31
0.0
0
LINE
5
18dd
8
0-0
6
CONTINUOUS
62
  7
10
1085.256
20
676.783
30
0.0
11
1082.977
21
677.463
31
0.0
0
LINE
5
18de
8
0-0
6
CONTINUOUS
62
  7
10
1082.977
20
677.463
30
0.0
11
1080.767
21
678.060
31
0.0
0
LINE
5
18df
8
0-0
6
CONTINUOUS
62
  7
10
1080.767
20
678.060
30
0.0
11
1076.654
21
679.031
31
0.0
0
LINE
5
18e0
8
0-0
6
CONTINUOUS
62
  7
10
1076.654
20
679.031
30
0.0
11
1072.539
21
679.842
31
0.0
0
LINE
5
18e1
8
0-0
6
CONTINUOUS
62
  7
10
1072.539
20
679.842
30
0.0
11
1068.276
21
680.535
31
0.0
0
LINE
5
18e2
8
0-0
6
CONTINUOUS
62
  7
10
1068.276
20
680.535
30
0.0
11
1065.863
21
680.870
31
0.0
0
LINE
5
18e3
8
0-0
6
CONTINUOUS
62
  7
10
1065.863
20
680.870
30
0.0
11
1063.097
21
681.207
31
0.0
0
LINE
5
18e4
8
0-0
6
CONTINUOUS
62
  7
10
1063.097
20
681.207
30
0.0
11
1058.072
21
681.722
31
0.0
0
LINE
5
18e5
8
0-0
6
CONTINUOUS
62
  7
10
1058.072
20
681.722
30
0.0
11
1052.958
21
682.152
31
0.0
0
LINE
5
18e6
8
0-0
6
CONTINUOUS
62
  7
10
1052.958
20
682.152
30
0.0
11
1047.669
21
682.537
31
0.0
0
LINE
5
18e7
8
0-0
6
CONTINUOUS
62
  7
10
1047.669
20
682.537
30
0.0
11
1045.946
21
682.655
31
0.0
0
LINE
5
18e8
8
0-0
6
CONTINUOUS
62
  7
10
1102.906
20
646.965
30
0.0
11
1100.676
21
650.582
31
0.0
0
LINE
5
18e9
8
0-0
6
CONTINUOUS
62
  7
10
1100.676
20
650.582
30
0.0
11
1097.135
21
656.033
31
0.0
0
LINE
5
18ea
8
0-0
6
CONTINUOUS
62
  7
10
1097.135
20
656.033
30
0.0
11
1094.145
21
660.010
31
0.0
0
LINE
5
18eb
8
0-0
6
CONTINUOUS
62
  7
10
1094.145
20
660.010
30
0.0
11
1091.410
21
662.884
31
0.0
0
LINE
5
18ec
8
0-0
6
CONTINUOUS
62
  7
10
1091.410
20
662.884
30
0.0
11
1090.523
21
663.607
31
0.0
0
LINE
5
18ed
8
0-0
6
CONTINUOUS
62
  7
10
1090.523
20
663.607
30
0.0
11
1090.264
21
663.782
31
0.0
0
LINE
5
18ee
8
0-0
6
CONTINUOUS
62
  7
10
1090.264
20
663.782
30
0.0
11
1088.094
21
664.980
31
0.0
0
LINE
5
18ef
8
0-0
6
CONTINUOUS
62
  7
10
1088.094
20
664.980
30
0.0
11
1085.532
21
666.093
31
0.0
0
LINE
5
18f0
8
0-0
6
CONTINUOUS
62
  7
10
1085.532
20
666.093
30
0.0
11
1082.173
21
667.267
31
0.0
0
LINE
5
18f1
8
0-0
6
CONTINUOUS
62
  7
10
1082.173
20
667.267
30
0.0
11
1080.244
21
667.843
31
0.0
0
LINE
5
18f2
8
0-0
6
CONTINUOUS
62
  7
10
1080.244
20
667.843
30
0.0
11
1078.314
21
668.364
31
0.0
0
LINE
5
18f3
8
0-0
6
CONTINUOUS
62
  7
10
1078.314
20
668.364
30
0.0
11
1074.537
21
669.256
31
0.0
0
LINE
5
18f4
8
0-0
6
CONTINUOUS
62
  7
10
1074.537
20
669.256
30
0.0
11
1070.769
21
669.999
31
0.0
0
LINE
5
18f5
8
0-0
6
CONTINUOUS
62
  7
10
1070.769
20
669.999
30
0.0
11
1066.787
21
670.646
31
0.0
0
LINE
5
18f6
8
0-0
6
CONTINUOUS
62
  7
10
1066.787
20
670.646
30
0.0
11
1064.571
21
670.953
31
0.0
0
LINE
5
18f7
8
0-0
6
CONTINUOUS
62
  7
10
1064.571
20
670.953
30
0.0
11
1061.984
21
671.269
31
0.0
0
LINE
5
18f8
8
0-0
6
CONTINUOUS
62
  7
10
1061.984
20
671.269
30
0.0
11
1057.144
21
671.765
31
0.0
0
LINE
5
18f9
8
0-0
6
CONTINUOUS
62
  7
10
1057.144
20
671.765
30
0.0
11
1052.175
21
672.182
31
0.0
0
LINE
5
18fa
8
0-0
6
CONTINUOUS
62
  7
10
1052.175
20
672.182
30
0.0
11
1046.966
21
672.562
31
0.0
0
LINE
5
18fb
8
0-0
6
CONTINUOUS
62
  7
10
1046.966
20
672.562
30
0.0
11
1045.946
21
672.632
31
0.0
0
LINE
5
18fc
8
0-0
6
CONTINUOUS
62
  7
10
938.446
20
610.643
30
0.0
11
936.039
21
610.494
31
0.0
0
LINE
5
18fd
8
0-0
6
CONTINUOUS
62
  7
10
936.039
20
610.494
30
0.0
11
933.821
21
610.293
31
0.0
0
LINE
5
18fe
8
0-0
6
CONTINUOUS
62
  7
10
933.821
20
610.293
30
0.0
11
931.769
21
610.046
31
0.0
0
LINE
5
18ff
8
0-0
6
CONTINUOUS
62
  7
10
931.769
20
610.046
30
0.0
11
929.865
21
609.759
31
0.0
0
LINE
5
1900
8
0-0
6
CONTINUOUS
62
  7
10
929.865
20
609.759
30
0.0
11
928.090
21
609.438
31
0.0
0
LINE
5
1901
8
0-0
6
CONTINUOUS
62
  7
10
928.090
20
609.438
30
0.0
11
926.431
21
609.086
31
0.0
0
LINE
5
1902
8
0-0
6
CONTINUOUS
62
  7
10
926.431
20
609.086
30
0.0
11
924.876
21
608.708
31
0.0
0
LINE
5
1903
8
0-0
6
CONTINUOUS
62
  7
10
924.876
20
608.708
30
0.0
11
923.412
21
608.308
31
0.0
0
LINE
5
1904
8
0-0
6
CONTINUOUS
62
  7
10
923.412
20
608.308
30
0.0
11
922.032
21
607.888
31
0.0
0
LINE
5
1905
8
0-0
6
CONTINUOUS
62
  7
10
922.032
20
607.888
30
0.0
11
920.728
21
607.451
31
0.0
0
LINE
5
1906
8
0-0
6
CONTINUOUS
62
  7
10
920.728
20
607.451
30
0.0
11
919.493
21
607.000
31
0.0
0
LINE
5
1907
8
0-0
6
CONTINUOUS
62
  7
10
919.493
20
607.000
30
0.0
11
918.321
21
606.537
31
0.0
0
LINE
5
1908
8
0-0
6
CONTINUOUS
62
  7
10
918.321
20
606.537
30
0.0
11
917.209
21
606.064
31
0.0
0
LINE
5
1909
8
0-0
6
CONTINUOUS
62
  7
10
917.209
20
606.064
30
0.0
11
916.153
21
605.583
31
0.0
0
LINE
5
190a
8
0-0
6
CONTINUOUS
62
  7
10
916.153
20
605.583
30
0.0
11
915.148
21
605.095
31
0.0
0
LINE
5
190b
8
0-0
6
CONTINUOUS
62
  7
10
915.148
20
605.095
30
0.0
11
914.193
21
604.601
31
0.0
0
LINE
5
190c
8
0-0
6
CONTINUOUS
62
  7
10
914.193
20
604.601
30
0.0
11
913.285
21
604.103
31
0.0
0
LINE
5
190d
8
0-0
6
CONTINUOUS
62
  7
10
913.285
20
604.103
30
0.0
11
912.423
21
603.601
31
0.0
0
LINE
5
190e
8
0-0
6
CONTINUOUS
62
  7
10
912.423
20
603.601
30
0.0
11
911.603
21
603.095
31
0.0
0
LINE
5
190f
8
0-0
6
CONTINUOUS
62
  7
10
911.603
20
603.095
30
0.0
11
910.825
21
602.587
31
0.0
0
LINE
5
1910
8
0-0
6
CONTINUOUS
62
  7
10
910.825
20
602.587
30
0.0
11
910.088
21
602.076
31
0.0
0
LINE
5
1911
8
0-0
6
CONTINUOUS
62
  7
10
910.088
20
602.076
30
0.0
11
909.389
21
601.562
31
0.0
0
LINE
5
1912
8
0-0
6
CONTINUOUS
62
  7
10
909.389
20
601.562
30
0.0
11
908.728
21
601.047
31
0.0
0
LINE
5
1913
8
0-0
6
CONTINUOUS
62
  7
10
908.728
20
601.047
30
0.0
11
908.103
21
600.528
31
0.0
0
LINE
5
1914
8
0-0
6
CONTINUOUS
62
  7
10
908.103
20
600.528
30
0.0
11
907.513
21
600.007
31
0.0
0
LINE
5
1915
8
0-0
6
CONTINUOUS
62
  7
10
907.513
20
600.007
30
0.0
11
906.957
21
599.481
31
0.0
0
LINE
5
1916
8
0-0
6
CONTINUOUS
62
  7
10
906.957
20
599.481
30
0.0
11
906.434
21
598.951
31
0.0
0
LINE
5
1917
8
0-0
6
CONTINUOUS
62
  7
10
906.434
20
598.951
30
0.0
11
905.943
21
598.416
31
0.0
0
LINE
5
1918
8
0-0
6
CONTINUOUS
62
  7
10
905.943
20
598.416
30
0.0
11
905.482
21
597.874
31
0.0
0
LINE
5
1919
8
0-0
6
CONTINUOUS
62
  7
10
905.482
20
597.874
30
0.0
11
905.052
21
597.325
31
0.0
0
LINE
5
191a
8
0-0
6
CONTINUOUS
62
  7
10
905.052
20
597.325
30
0.0
11
904.650
21
596.766
31
0.0
0
LINE
5
191b
8
0-0
6
CONTINUOUS
62
  7
10
904.650
20
596.766
30
0.0
11
904.277
21
596.197
31
0.0
0
LINE
5
191c
8
0-0
6
CONTINUOUS
62
  7
10
904.277
20
596.197
30
0.0
11
903.932
21
595.617
31
0.0
0
LINE
5
191d
8
0-0
6
CONTINUOUS
62
  7
10
903.932
20
595.617
30
0.0
11
903.614
21
595.022
31
0.0
0
LINE
5
191e
8
0-0
6
CONTINUOUS
62
  7
10
903.614
20
595.022
30
0.0
11
903.322
21
594.414
31
0.0
0
LINE
5
191f
8
0-0
6
CONTINUOUS
62
  7
10
903.322
20
594.414
30
0.0
11
903.056
21
593.791
31
0.0
0
LINE
5
1920
8
0-0
6
CONTINUOUS
62
  7
10
903.056
20
593.791
30
0.0
11
902.815
21
593.152
31
0.0
0
LINE
5
1921
8
0-0
6
CONTINUOUS
62
  7
10
902.815
20
593.152
30
0.0
11
902.597
21
592.498
31
0.0
0
LINE
5
1922
8
0-0
6
CONTINUOUS
62
  7
10
902.597
20
592.498
30
0.0
11
902.402
21
591.829
31
0.0
0
LINE
5
1923
8
0-0
6
CONTINUOUS
62
  7
10
902.402
20
591.829
30
0.0
11
902.227
21
591.148
31
0.0
0
LINE
5
1924
8
0-0
6
CONTINUOUS
62
  7
10
902.227
20
591.148
30
0.0
11
902.068
21
590.458
31
0.0
0
LINE
5
1925
8
0-0
6
CONTINUOUS
62
  7
10
902.068
20
590.458
30
0.0
11
901.922
21
589.765
31
0.0
0
LINE
5
1926
8
0-0
6
CONTINUOUS
62
  7
10
901.922
20
589.765
30
0.0
11
901.781
21
589.076
31
0.0
0
LINE
5
1927
8
0-0
6
CONTINUOUS
62
  7
10
901.781
20
589.076
30
0.0
11
901.638
21
588.401
31
0.0
0
LINE
5
1928
8
0-0
6
CONTINUOUS
62
  7
10
901.638
20
588.401
30
0.0
11
900.290
21
588.016
31
0.0
0
LINE
5
1929
8
0-0
6
CONTINUOUS
62
  7
10
900.290
20
588.016
30
0.0
11
898.987
21
587.617
31
0.0
0
LINE
5
192a
8
0-0
6
CONTINUOUS
62
  7
10
898.987
20
587.617
30
0.0
11
897.738
21
587.207
31
0.0
0
LINE
5
192b
8
0-0
6
CONTINUOUS
62
  7
10
897.738
20
587.207
30
0.0
11
896.548
21
586.790
31
0.0
0
LINE
5
192c
8
0-0
6
CONTINUOUS
62
  7
10
896.548
20
586.790
30
0.0
11
895.418
21
586.366
31
0.0
0
LINE
5
192d
8
0-0
6
CONTINUOUS
62
  7
10
895.418
20
586.366
30
0.0
11
894.347
21
585.935
31
0.0
0
LINE
5
192e
8
0-0
6
CONTINUOUS
62
  7
10
894.347
20
585.935
30
0.0
11
893.333
21
585.497
31
0.0
0
LINE
5
192f
8
0-0
6
CONTINUOUS
62
  7
10
893.333
20
585.497
30
0.0
11
892.374
21
585.051
31
0.0
0
LINE
5
1930
8
0-0
6
CONTINUOUS
62
  7
10
892.374
20
585.051
30
0.0
11
891.466
21
584.594
31
0.0
0
LINE
5
1931
8
0-0
6
CONTINUOUS
62
  7
10
891.466
20
584.594
30
0.0
11
890.606
21
584.124
31
0.0
0
LINE
5
1932
8
0-0
6
CONTINUOUS
62
  7
10
890.606
20
584.124
30
0.0
11
889.792
21
583.640
31
0.0
0
LINE
5
1933
8
0-0
6
CONTINUOUS
62
  7
10
889.792
20
583.640
30
0.0
11
889.021
21
583.141
31
0.0
0
LINE
5
1934
8
0-0
6
CONTINUOUS
62
  7
10
889.021
20
583.141
30
0.0
11
888.291
21
582.625
31
0.0
0
LINE
5
1935
8
0-0
6
CONTINUOUS
62
  7
10
888.291
20
582.625
30
0.0
11
887.599
21
582.090
31
0.0
0
LINE
5
1936
8
0-0
6
CONTINUOUS
62
  7
10
887.599
20
582.090
30
0.0
11
886.943
21
581.537
31
0.0
0
LINE
5
1937
8
0-0
6
CONTINUOUS
62
  7
10
886.943
20
581.537
30
0.0
11
886.324
21
580.964
31
0.0
0
LINE
5
1938
8
0-0
6
CONTINUOUS
62
  7
10
886.324
20
580.964
30
0.0
11
885.738
21
580.371
31
0.0
0
LINE
5
1939
8
0-0
6
CONTINUOUS
62
  7
10
885.738
20
580.371
30
0.0
11
885.185
21
579.758
31
0.0
0
LINE
5
193a
8
0-0
6
CONTINUOUS
62
  7
10
885.185
20
579.758
30
0.0
11
884.665
21
579.125
31
0.0
0
LINE
5
193b
8
0-0
6
CONTINUOUS
62
  7
10
884.665
20
579.125
30
0.0
11
884.177
21
578.472
31
0.0
0
LINE
5
193c
8
0-0
6
CONTINUOUS
62
  7
10
884.177
20
578.472
30
0.0
11
883.720
21
577.799
31
0.0
0
LINE
5
193d
8
0-0
6
CONTINUOUS
62
  7
10
883.720
20
577.799
30
0.0
11
883.293
21
577.106
31
0.0
0
LINE
5
193e
8
0-0
6
CONTINUOUS
62
  7
10
883.293
20
577.106
30
0.0
11
882.897
21
576.395
31
0.0
0
LINE
5
193f
8
0-0
6
CONTINUOUS
62
  7
10
882.897
20
576.395
30
0.0
11
882.532
21
575.665
31
0.0
0
LINE
5
1940
8
0-0
6
CONTINUOUS
62
  7
10
882.532
20
575.665
30
0.0
11
882.196
21
574.916
31
0.0
0
LINE
5
1941
8
0-0
6
CONTINUOUS
62
  7
10
882.196
20
574.916
30
0.0
11
881.890
21
574.149
31
0.0
0
LINE
5
1942
8
0-0
6
CONTINUOUS
62
  7
10
881.890
20
574.149
30
0.0
11
881.613
21
573.365
31
0.0
0
LINE
5
1943
8
0-0
6
CONTINUOUS
62
  7
10
881.613
20
573.365
30
0.0
11
881.367
21
572.564
31
0.0
0
LINE
5
1944
8
0-0
6
CONTINUOUS
62
  7
10
881.367
20
572.564
30
0.0
11
881.150
21
571.746
31
0.0
0
LINE
5
1945
8
0-0
6
CONTINUOUS
62
  7
10
881.150
20
571.746
30
0.0
11
880.963
21
570.911
31
0.0
0
LINE
5
1946
8
0-0
6
CONTINUOUS
62
  7
10
880.963
20
570.911
30
0.0
11
880.807
21
570.061
31
0.0
0
LINE
5
1947
8
0-0
6
CONTINUOUS
62
  7
10
880.807
20
570.061
30
0.0
11
880.680
21
569.195
31
0.0
0
LINE
5
1948
8
0-0
6
CONTINUOUS
62
  7
10
880.680
20
569.195
30
0.0
11
880.584
21
568.314
31
0.0
0
LINE
5
1949
8
0-0
6
CONTINUOUS
62
  7
10
880.584
20
568.314
30
0.0
11
880.518
21
567.419
31
0.0
0
LINE
5
194a
8
0-0
6
CONTINUOUS
62
  7
10
880.518
20
567.419
30
0.0
11
880.484
21
566.511
31
0.0
0
LINE
5
194b
8
0-0
6
CONTINUOUS
62
  7
10
880.484
20
566.511
30
0.0
11
880.481
21
565.589
31
0.0
0
LINE
5
194c
8
0-0
6
CONTINUOUS
62
  7
10
880.481
20
565.589
30
0.0
11
880.509
21
564.656
31
0.0
0
LINE
5
194d
8
0-0
6
CONTINUOUS
62
  7
10
880.509
20
564.656
30
0.0
11
880.570
21
563.711
31
0.0
0
LINE
5
194e
8
0-0
6
CONTINUOUS
62
  7
10
880.570
20
563.711
30
0.0
11
880.663
21
562.757
31
0.0
0
LINE
5
194f
8
0-0
6
CONTINUOUS
62
  7
10
880.663
20
562.757
30
0.0
11
880.789
21
561.793
31
0.0
0
LINE
5
1950
8
0-0
6
CONTINUOUS
62
  7
10
880.789
20
561.793
30
0.0
11
880.949
21
560.820
31
0.0
0
LINE
5
1951
8
0-0
6
CONTINUOUS
62
  7
10
880.949
20
560.820
30
0.0
11
881.143
21
559.841
31
0.0
0
LINE
5
1952
8
0-0
6
CONTINUOUS
62
  7
10
881.143
20
559.841
30
0.0
11
881.370
21
558.857
31
0.0
0
LINE
5
1953
8
0-0
6
CONTINUOUS
62
  7
10
881.370
20
558.857
30
0.0
11
881.632
21
557.867
31
0.0
0
LINE
5
1954
8
0-0
6
CONTINUOUS
62
  7
10
881.632
20
557.867
30
0.0
11
881.928
21
556.875
31
0.0
0
LINE
5
1955
8
0-0
6
CONTINUOUS
62
  7
10
881.928
20
556.875
30
0.0
11
882.260
21
555.881
31
0.0
0
LINE
5
1956
8
0-0
6
CONTINUOUS
62
  7
10
882.260
20
555.881
30
0.0
11
882.625
21
554.886
31
0.0
0
LINE
5
1957
8
0-0
6
CONTINUOUS
62
  7
10
882.625
20
554.886
30
0.0
11
883.027
21
553.892
31
0.0
0
LINE
5
1958
8
0-0
6
CONTINUOUS
62
  7
10
883.027
20
553.892
30
0.0
11
883.463
21
552.900
31
0.0
0
LINE
5
1959
8
0-0
6
CONTINUOUS
62
  7
10
883.463
20
552.900
30
0.0
11
883.933
21
551.912
31
0.0
0
LINE
5
195a
8
0-0
6
CONTINUOUS
62
  7
10
883.933
20
551.912
30
0.0
11
884.438
21
550.929
31
0.0
0
LINE
5
195b
8
0-0
6
CONTINUOUS
62
  7
10
884.438
20
550.929
30
0.0
11
884.976
21
549.952
31
0.0
0
LINE
5
195c
8
0-0
6
CONTINUOUS
62
  7
10
884.976
20
549.952
30
0.0
11
885.547
21
548.982
31
0.0
0
LINE
5
195d
8
0-0
6
CONTINUOUS
62
  7
10
885.547
20
548.982
30
0.0
11
886.151
21
548.020
31
0.0
0
LINE
5
195e
8
0-0
6
CONTINUOUS
62
  7
10
886.151
20
548.020
30
0.0
11
886.786
21
547.068
31
0.0
0
LINE
5
195f
8
0-0
6
CONTINUOUS
62
  7
10
886.786
20
547.068
30
0.0
11
887.451
21
546.127
31
0.0
0
LINE
5
1960
8
0-0
6
CONTINUOUS
62
  7
10
887.451
20
546.127
30
0.0
11
888.145
21
545.197
31
0.0
0
LINE
5
1961
8
0-0
6
CONTINUOUS
62
  7
10
888.145
20
545.197
30
0.0
11
888.867
21
544.279
31
0.0
0
LINE
5
1962
8
0-0
6
CONTINUOUS
62
  7
10
888.867
20
544.279
30
0.0
11
889.615
21
543.375
31
0.0
0
LINE
5
1963
8
0-0
6
CONTINUOUS
62
  7
10
889.615
20
543.375
30
0.0
11
890.388
21
542.485
31
0.0
0
LINE
5
1964
8
0-0
6
CONTINUOUS
62
  7
10
890.388
20
542.485
30
0.0
11
891.185
21
541.610
31
0.0
0
LINE
5
1965
8
0-0
6
CONTINUOUS
62
  7
10
891.185
20
541.610
30
0.0
11
892.004
21
540.750
31
0.0
0
LINE
5
1966
8
0-0
6
CONTINUOUS
62
  7
10
892.004
20
540.750
30
0.0
11
892.842
21
539.905
31
0.0
0
LINE
5
1967
8
0-0
6
CONTINUOUS
62
  7
10
892.842
20
539.905
30
0.0
11
893.699
21
539.077
31
0.0
0
LINE
5
1968
8
0-0
6
CONTINUOUS
62
  7
10
893.699
20
539.077
30
0.0
11
894.572
21
538.266
31
0.0
0
LINE
5
1969
8
0-0
6
CONTINUOUS
62
  7
10
894.572
20
538.266
30
0.0
11
895.461
21
537.472
31
0.0
0
LINE
5
196a
8
0-0
6
CONTINUOUS
62
  7
10
895.461
20
537.472
30
0.0
11
896.363
21
536.695
31
0.0
0
LINE
5
196b
8
0-0
6
CONTINUOUS
62
  7
10
896.363
20
536.695
30
0.0
11
897.277
21
535.936
31
0.0
0
LINE
5
196c
8
0-0
6
CONTINUOUS
62
  7
10
897.277
20
535.936
30
0.0
11
898.202
21
535.195
31
0.0
0
LINE
5
196d
8
0-0
6
CONTINUOUS
62
  7
10
898.202
20
535.195
30
0.0
11
899.136
21
534.471
31
0.0
0
LINE
5
196e
8
0-0
6
CONTINUOUS
62
  7
10
899.136
20
534.471
30
0.0
11
900.077
21
533.766
31
0.0
0
LINE
5
196f
8
0-0
6
CONTINUOUS
62
  7
10
900.077
20
533.766
30
0.0
11
901.025
21
533.079
31
0.0
0
LINE
5
1970
8
0-0
6
CONTINUOUS
62
  7
10
901.025
20
533.079
30
0.0
11
901.978
21
532.411
31
0.0
0
LINE
5
1971
8
0-0
6
CONTINUOUS
62
  7
10
901.978
20
532.411
30
0.0
11
902.935
21
531.761
31
0.0
0
LINE
5
1972
8
0-0
6
CONTINUOUS
62
  7
10
902.935
20
531.761
30
0.0
11
903.895
21
531.130
31
0.0
0
LINE
5
1973
8
0-0
6
CONTINUOUS
62
  7
10
903.895
20
531.130
30
0.0
11
904.857
21
530.518
31
0.0
0
LINE
5
1974
8
0-0
6
CONTINUOUS
62
  7
10
904.857
20
530.518
30
0.0
11
905.820
21
529.925
31
0.0
0
LINE
5
1975
8
0-0
6
CONTINUOUS
62
  7
10
905.820
20
529.925
30
0.0
11
906.783
21
529.352
31
0.0
0
LINE
5
1976
8
0-0
6
CONTINUOUS
62
  7
10
906.783
20
529.352
30
0.0
11
907.745
21
528.799
31
0.0
0
LINE
5
1977
8
0-0
6
CONTINUOUS
62
  7
10
907.745
20
528.799
30
0.0
11
908.705
21
528.267
31
0.0
0
LINE
5
1978
8
0-0
6
CONTINUOUS
62
  7
10
908.705
20
528.267
30
0.0
11
909.662
21
527.755
31
0.0
0
LINE
5
1979
8
0-0
6
CONTINUOUS
62
  7
10
909.662
20
527.755
30
0.0
11
910.614
21
527.264
31
0.0
0
LINE
5
197a
8
0-0
6
CONTINUOUS
62
  7
10
910.614
20
527.264
30
0.0
11
911.561
21
526.795
31
0.0
0
LINE
5
197b
8
0-0
6
CONTINUOUS
62
  7
10
911.561
20
526.795
30
0.0
11
912.500
21
526.347
31
0.0
0
LINE
5
197c
8
0-0
6
CONTINUOUS
62
  7
10
912.500
20
526.347
30
0.0
11
913.431
21
525.922
31
0.0
0
LINE
5
197d
8
0-0
6
CONTINUOUS
62
  7
10
913.431
20
525.922
30
0.0
11
914.351
21
525.518
31
0.0
0
LINE
5
197e
8
0-0
6
CONTINUOUS
62
  7
10
914.351
20
525.518
30
0.0
11
915.258
21
525.136
31
0.0
0
LINE
5
197f
8
0-0
6
CONTINUOUS
62
  7
10
915.258
20
525.136
30
0.0
11
916.148
21
524.776
31
0.0
0
LINE
5
1980
8
0-0
6
CONTINUOUS
62
  7
10
916.148
20
524.776
30
0.0
11
917.017
21
524.436
31
0.0
0
LINE
5
1981
8
0-0
6
CONTINUOUS
62
  7
10
917.017
20
524.436
30
0.0
11
917.860
21
524.117
31
0.0
0
LINE
5
1982
8
0-0
6
CONTINUOUS
62
  7
10
917.860
20
524.117
30
0.0
11
918.669
21
523.818
31
0.0
0
LINE
5
1983
8
0-0
6
CONTINUOUS
62
  7
10
918.669
20
523.818
30
0.0
11
919.434
21
523.540
31
0.0
0
LINE
5
1984
8
0-0
6
CONTINUOUS
62
  7
10
919.434
20
523.540
30
0.0
11
920.140
21
523.281
31
0.0
0
LINE
5
1985
8
0-0
6
CONTINUOUS
62
  7
10
920.140
20
523.281
30
0.0
11
920.768
21
523.046
31
0.0
0
LINE
5
1986
8
0-0
6
CONTINUOUS
62
  7
10
920.768
20
523.046
30
0.0
11
921.439
21
521.433
31
0.0
0
LINE
5
1987
8
0-0
6
CONTINUOUS
62
  7
10
921.439
20
521.433
30
0.0
11
922.111
21
519.936
31
0.0
0
LINE
5
1988
8
0-0
6
CONTINUOUS
62
  7
10
922.111
20
519.936
30
0.0
11
922.781
21
518.544
31
0.0
0
LINE
5
1989
8
0-0
6
CONTINUOUS
62
  7
10
922.781
20
518.544
30
0.0
11
923.450
21
517.251
31
0.0
0
LINE
5
198a
8
0-0
6
CONTINUOUS
62
  7
10
923.450
20
517.251
30
0.0
11
924.118
21
516.050
31
0.0
0
LINE
5
198b
8
0-0
6
CONTINUOUS
62
  7
10
924.118
20
516.050
30
0.0
11
924.787
21
514.931
31
0.0
0
LINE
5
198c
8
0-0
6
CONTINUOUS
62
  7
10
924.787
20
514.931
30
0.0
11
925.459
21
513.890
31
0.0
0
LINE
5
198d
8
0-0
6
CONTINUOUS
62
  7
10
925.459
20
513.890
30
0.0
11
926.139
21
512.919
31
0.0
0
LINE
5
198e
8
0-0
6
CONTINUOUS
62
  7
10
926.139
20
512.919
30
0.0
11
926.829
21
512.013
31
0.0
0
LINE
5
198f
8
0-0
6
CONTINUOUS
62
  7
10
926.829
20
512.013
30
0.0
11
927.532
21
511.166
31
0.0
0
LINE
5
1990
8
0-0
6
CONTINUOUS
62
  7
10
927.532
20
511.166
30
0.0
11
928.251
21
510.374
31
0.0
0
LINE
5
1991
8
0-0
6
CONTINUOUS
62
  7
10
928.251
20
510.374
30
0.0
11
928.986
21
509.634
31
0.0
0
LINE
5
1992
8
0-0
6
CONTINUOUS
62
  7
10
928.986
20
509.634
30
0.0
11
929.741
21
508.942
31
0.0
0
LINE
5
1993
8
0-0
6
CONTINUOUS
62
  7
10
929.741
20
508.942
30
0.0
11
930.516
21
508.295
31
0.0
0
LINE
5
1994
8
0-0
6
CONTINUOUS
62
  7
10
930.516
20
508.295
30
0.0
11
931.311
21
507.692
31
0.0
0
LINE
5
1995
8
0-0
6
CONTINUOUS
62
  7
10
931.311
20
507.692
30
0.0
11
932.126
21
507.131
31
0.0
0
LINE
5
1996
8
0-0
6
CONTINUOUS
62
  7
10
932.126
20
507.131
30
0.0
11
932.961
21
506.610
31
0.0
0
LINE
5
1997
8
0-0
6
CONTINUOUS
62
  7
10
932.961
20
506.610
30
0.0
11
933.817
21
506.129
31
0.0
0
LINE
5
1998
8
0-0
6
CONTINUOUS
62
  7
10
933.817
20
506.129
30
0.0
11
934.693
21
505.685
31
0.0
0
LINE
5
1999
8
0-0
6
CONTINUOUS
62
  7
10
934.693
20
505.685
30
0.0
11
935.591
21
505.279
31
0.0
0
LINE
5
199a
8
0-0
6
CONTINUOUS
62
  7
10
935.591
20
505.279
30
0.0
11
936.513
21
504.908
31
0.0
0
LINE
5
199b
8
0-0
6
CONTINUOUS
62
  7
10
936.513
20
504.908
30
0.0
11
937.464
21
504.570
31
0.0
0
LINE
5
199c
8
0-0
6
CONTINUOUS
62
  7
10
937.464
20
504.570
30
0.0
11
938.450
21
504.262
31
0.0
0
LINE
5
199d
8
0-0
6
CONTINUOUS
62
  7
10
938.450
20
504.262
30
0.0
11
939.481
21
503.980
31
0.0
0
LINE
5
199e
8
0-0
6
CONTINUOUS
62
  7
10
939.481
20
503.980
30
0.0
11
940.570
21
503.719
31
0.0
0
LINE
5
199f
8
0-0
6
CONTINUOUS
62
  7
10
940.570
20
503.719
30
0.0
11
941.735
21
503.471
31
0.0
0
LINE
5
19a0
8
0-0
6
CONTINUOUS
62
  7
10
941.735
20
503.471
30
0.0
11
942.999
21
503.227
31
0.0
0
LINE
5
19a1
8
0-0
6
CONTINUOUS
62
  7
10
942.999
20
503.227
30
0.0
11
944.391
21
502.976
31
0.0
0
LINE
5
19a2
8
0-0
6
CONTINUOUS
62
  7
10
944.391
20
502.976
30
0.0
11
945.946
21
502.703
31
0.0
0
LINE
5
19a3
8
0-0
6
CONTINUOUS
62
  7
10
1153.446
20
610.643
30
0.0
11
1155.853
21
610.494
31
0.0
0
LINE
5
19a4
8
0-0
6
CONTINUOUS
62
  7
10
1155.853
20
610.494
30
0.0
11
1158.071
21
610.293
31
0.0
0
LINE
5
19a5
8
0-0
6
CONTINUOUS
62
  7
10
1158.071
20
610.293
30
0.0
11
1160.123
21
610.046
31
0.0
0
LINE
5
19a6
8
0-0
6
CONTINUOUS
62
  7
10
1160.123
20
610.046
30
0.0
11
1162.027
21
609.759
31
0.0
0
LINE
5
19a7
8
0-0
6
CONTINUOUS
62
  7
10
1162.027
20
609.759
30
0.0
11
1163.802
21
609.438
31
0.0
0
LINE
5
19a8
8
0-0
6
CONTINUOUS
62
  7
10
1163.802
20
609.438
30
0.0
11
1165.461
21
609.086
31
0.0
0
LINE
5
19a9
8
0-0
6
CONTINUOUS
62
  7
10
1165.461
20
609.086
30
0.0
11
1167.016
21
608.708
31
0.0
0
LINE
5
19aa
8
0-0
6
CONTINUOUS
62
  7
10
1167.016
20
608.708
30
0.0
11
1168.480
21
608.308
31
0.0
0
LINE
5
19ab
8
0-0
6
CONTINUOUS
62
  7
10
1168.480
20
608.308
30
0.0
11
1169.860
21
607.888
31
0.0
0
LINE
5
19ac
8
0-0
6
CONTINUOUS
62
  7
10
1169.860
20
607.888
30
0.0
11
1171.164
21
607.451
31
0.0
0
LINE
5
19ad
8
0-0
6
CONTINUOUS
62
  7
10
1171.164
20
607.451
30
0.0
11
1172.399
21
607.000
31
0.0
0
LINE
5
19ae
8
0-0
6
CONTINUOUS
62
  7
10
1172.399
20
607.000
30
0.0
11
1173.571
21
606.537
31
0.0
0
LINE
5
19af
8
0-0
6
CONTINUOUS
62
  7
10
1173.571
20
606.537
30
0.0
11
1174.683
21
606.064
31
0.0
0
LINE
5
19b0
8
0-0
6
CONTINUOUS
62
  7
10
1174.683
20
606.064
30
0.0
11
1175.739
21
605.583
31
0.0
0
LINE
5
19b1
8
0-0
6
CONTINUOUS
62
  7
10
1175.739
20
605.583
30
0.0
11
1176.744
21
605.095
31
0.0
0
LINE
5
19b2
8
0-0
6
CONTINUOUS
62
  7
10
1176.744
20
605.095
30
0.0
11
1177.699
21
604.601
31
0.0
0
LINE
5
19b3
8
0-0
6
CONTINUOUS
62
  7
10
1177.699
20
604.601
30
0.0
11
1178.607
21
604.103
31
0.0
0
LINE
5
19b4
8
0-0
6
CONTINUOUS
62
  7
10
1178.607
20
604.103
30
0.0
11
1179.469
21
603.601
31
0.0
0
LINE
5
19b5
8
0-0
6
CONTINUOUS
62
  7
10
1179.469
20
603.601
30
0.0
11
1180.289
21
603.095
31
0.0
0
LINE
5
19b6
8
0-0
6
CONTINUOUS
62
  7
10
1180.289
20
603.095
30
0.0
11
1181.067
21
602.587
31
0.0
0
LINE
5
19b7
8
0-0
6
CONTINUOUS
62
  7
10
1181.067
20
602.587
30
0.0
11
1181.804
21
602.076
31
0.0
0
LINE
5
19b8
8
0-0
6
CONTINUOUS
62
  7
10
1181.804
20
602.076
30
0.0
11
1182.503
21
601.562
31
0.0
0
LINE
5
19b9
8
0-0
6
CONTINUOUS
62
  7
10
1182.503
20
601.562
30
0.0
11
1183.164
21
601.047
31
0.0
0
LINE
5
19ba
8
0-0
6
CONTINUOUS
62
  7
10
1183.164
20
601.047
30
0.0
11
1183.789
21
600.528
31
0.0
0
LINE
5
19bb
8
0-0
6
CONTINUOUS
62
  7
10
1183.789
20
600.528
30
0.0
11
1184.379
21
600.007
31
0.0
0
LINE
5
19bc
8
0-0
6
CONTINUOUS
62
  7
10
1184.379
20
600.007
30
0.0
11
1184.935
21
599.481
31
0.0
0
LINE
5
19bd
8
0-0
6
CONTINUOUS
62
  7
10
1184.935
20
599.481
30
0.0
11
1185.458
21
598.951
31
0.0
0
LINE
5
19be
8
0-0
6
CONTINUOUS
62
  7
10
1185.458
20
598.951
30
0.0
11
1185.949
21
598.416
31
0.0
0
LINE
5
19bf
8
0-0
6
CONTINUOUS
62
  7
10
1185.949
20
598.416
30
0.0
11
1186.410
21
597.874
31
0.0
0
LINE
5
19c0
8
0-0
6
CONTINUOUS
62
  7
10
1186.410
20
597.874
30
0.0
11
1186.840
21
597.325
31
0.0
0
LINE
5
19c1
8
0-0
6
CONTINUOUS
62
  7
10
1186.840
20
597.325
30
0.0
11
1187.242
21
596.766
31
0.0
0
LINE
5
19c2
8
0-0
6
CONTINUOUS
62
  7
10
1187.242
20
596.766
30
0.0
11
1187.615
21
596.197
31
0.0
0
LINE
5
19c3
8
0-0
6
CONTINUOUS
62
  7
10
1187.615
20
596.197
30
0.0
11
1187.960
21
595.617
31
0.0
0
LINE
5
19c4
8
0-0
6
CONTINUOUS
62
  7
10
1187.960
20
595.617
30
0.0
11
1188.278
21
595.022
31
0.0
0
LINE
5
19c5
8
0-0
6
CONTINUOUS
62
  7
10
1188.278
20
595.022
30
0.0
11
1188.570
21
594.414
31
0.0
0
LINE
5
19c6
8
0-0
6
CONTINUOUS
62
  7
10
1188.570
20
594.414
30
0.0
11
1188.836
21
593.791
31
0.0
0
LINE
5
19c7
8
0-0
6
CONTINUOUS
62
  7
10
1188.836
20
593.791
30
0.0
11
1189.077
21
593.152
31
0.0
0
LINE
5
19c8
8
0-0
6
CONTINUOUS
62
  7
10
1189.077
20
593.152
30
0.0
11
1189.295
21
592.498
31
0.0
0
LINE
5
19c9
8
0-0
6
CONTINUOUS
62
  7
10
1189.295
20
592.498
30
0.0
11
1189.490
21
591.829
31
0.0
0
LINE
5
19ca
8
0-0
6
CONTINUOUS
62
  7
10
1189.490
20
591.829
30
0.0
11
1189.666
21
591.148
31
0.0
0
LINE
5
19cb
8
0-0
6
CONTINUOUS
62
  7
10
1189.666
20
591.148
30
0.0
11
1189.824
21
590.458
31
0.0
0
LINE
5
19cc
8
0-0
6
CONTINUOUS
62
  7
10
1189.824
20
590.458
30
0.0
11
1189.970
21
589.765
31
0.0
0
LINE
5
19cd
8
0-0
6
CONTINUOUS
62
  7
10
1189.970
20
589.765
30
0.0
11
1190.111
21
589.076
31
0.0
0
LINE
5
19ce
8
0-0
6
CONTINUOUS
62
  7
10
1190.111
20
589.076
30
0.0
11
1190.254
21
588.401
31
0.0
0
LINE
5
19cf
8
0-0
6
CONTINUOUS
62
  7
10
1190.254
20
588.401
30
0.0
11
1191.602
21
588.016
31
0.0
0
LINE
5
19d0
8
0-0
6
CONTINUOUS
62
  7
10
1191.602
20
588.016
30
0.0
11
1192.905
21
587.617
31
0.0
0
LINE
5
19d1
8
0-0
6
CONTINUOUS
62
  7
10
1192.905
20
587.617
30
0.0
11
1194.154
21
587.207
31
0.0
0
LINE
5
19d2
8
0-0
6
CONTINUOUS
62
  7
10
1194.154
20
587.207
30
0.0
11
1195.344
21
586.790
31
0.0
0
LINE
5
19d3
8
0-0
6
CONTINUOUS
62
  7
10
1195.344
20
586.790
30
0.0
11
1196.474
21
586.366
31
0.0
0
LINE
5
19d4
8
0-0
6
CONTINUOUS
62
  7
10
1196.474
20
586.366
30
0.0
11
1197.545
21
585.935
31
0.0
0
LINE
5
19d5
8
0-0
6
CONTINUOUS
62
  7
10
1197.545
20
585.935
30
0.0
11
1198.559
21
585.497
31
0.0
0
LINE
5
19d6
8
0-0
6
CONTINUOUS
62
  7
10
1198.559
20
585.497
30
0.0
11
1199.518
21
585.051
31
0.0
0
LINE
5
19d7
8
0-0
6
CONTINUOUS
62
  7
10
1199.518
20
585.051
30
0.0
11
1200.426
21
584.594
31
0.0
0
LINE
5
19d8
8
0-0
6
CONTINUOUS
62
  7
10
1200.426
20
584.594
30
0.0
11
1201.286
21
584.124
31
0.0
0
LINE
5
19d9
8
0-0
6
CONTINUOUS
62
  7
10
1201.286
20
584.124
30
0.0
11
1202.100
21
583.640
31
0.0
0
LINE
5
19da
8
0-0
6
CONTINUOUS
62
  7
10
1202.100
20
583.640
30
0.0
11
1202.871
21
583.141
31
0.0
0
LINE
5
19db
8
0-0
6
CONTINUOUS
62
  7
10
1202.871
20
583.141
30
0.0
11
1203.601
21
582.625
31
0.0
0
LINE
5
19dc
8
0-0
6
CONTINUOUS
62
  7
10
1203.601
20
582.625
30
0.0
11
1204.293
21
582.090
31
0.0
0
LINE
5
19dd
8
0-0
6
CONTINUOUS
62
  7
10
1204.293
20
582.090
30
0.0
11
1204.949
21
581.537
31
0.0
0
LINE
5
19de
8
0-0
6
CONTINUOUS
62
  7
10
1204.949
20
581.537
30
0.0
11
1205.568
21
580.964
31
0.0
0
LINE
5
19df
8
0-0
6
CONTINUOUS
62
  7
10
1205.568
20
580.964
30
0.0
11
1206.154
21
580.371
31
0.0
0
LINE
5
19e0
8
0-0
6
CONTINUOUS
62
  7
10
1206.154
20
580.371
30
0.0
11
1206.706
21
579.758
31
0.0
0
LINE
5
19e1
8
0-0
6
CONTINUOUS
62
  7
10
1206.706
20
579.758
30
0.0
11
1207.227
21
579.125
31
0.0
0
LINE
5
19e2
8
0-0
6
CONTINUOUS
62
  7
10
1207.227
20
579.125
30
0.0
11
1207.715
21
578.472
31
0.0
0
LINE
5
19e3
8
0-0
6
CONTINUOUS
62
  7
10
1207.715
20
578.472
30
0.0
11
1208.172
21
577.799
31
0.0
0
LINE
5
19e4
8
0-0
6
CONTINUOUS
62
  7
10
1208.172
20
577.799
30
0.0
11
1208.599
21
577.106
31
0.0
0
LINE
5
19e5
8
0-0
6
CONTINUOUS
62
  7
10
1208.599
20
577.106
30
0.0
11
1208.995
21
576.395
31
0.0
0
LINE
5
19e6
8
0-0
6
CONTINUOUS
62
  7
10
1208.995
20
576.395
30
0.0
11
1209.360
21
575.665
31
0.0
0
LINE
5
19e7
8
0-0
6
CONTINUOUS
62
  7
10
1209.360
20
575.665
30
0.0
11
1209.696
21
574.916
31
0.0
0
LINE
5
19e8
8
0-0
6
CONTINUOUS
62
  7
10
1209.696
20
574.916
30
0.0
11
1210.002
21
574.149
31
0.0
0
LINE
5
19e9
8
0-0
6
CONTINUOUS
62
  7
10
1210.002
20
574.149
30
0.0
11
1210.278
21
573.365
31
0.0
0
LINE
5
19ea
8
0-0
6
CONTINUOUS
62
  7
10
1210.278
20
573.365
30
0.0
11
1210.525
21
572.564
31
0.0
0
LINE
5
19eb
8
0-0
6
CONTINUOUS
62
  7
10
1210.525
20
572.564
30
0.0
11
1210.742
21
571.746
31
0.0
0
LINE
5
19ec
8
0-0
6
CONTINUOUS
62
  7
10
1210.742
20
571.746
30
0.0
11
1210.929
21
570.911
31
0.0
0
LINE
5
19ed
8
0-0
6
CONTINUOUS
62
  7
10
1210.929
20
570.911
30
0.0
11
1211.085
21
570.061
31
0.0
0
LINE
5
19ee
8
0-0
6
CONTINUOUS
62
  7
10
1211.085
20
570.061
30
0.0
11
1211.212
21
569.195
31
0.0
0
LINE
5
19ef
8
0-0
6
CONTINUOUS
62
  7
10
1211.212
20
569.195
30
0.0
11
1211.308
21
568.314
31
0.0
0
LINE
5
19f0
8
0-0
6
CONTINUOUS
62
  7
10
1211.308
20
568.314
30
0.0
11
1211.374
21
567.419
31
0.0
0
LINE
5
19f1
8
0-0
6
CONTINUOUS
62
  7
10
1211.374
20
567.419
30
0.0
11
1211.408
21
566.511
31
0.0
0
LINE
5
19f2
8
0-0
6
CONTINUOUS
62
  7
10
1211.408
20
566.511
30
0.0
11
1211.411
21
565.589
31
0.0
0
LINE
5
19f3
8
0-0
6
CONTINUOUS
62
  7
10
1211.411
20
565.589
30
0.0
11
1211.383
21
564.656
31
0.0
0
LINE
5
19f4
8
0-0
6
CONTINUOUS
62
  7
10
1211.383
20
564.656
30
0.0
11
1211.322
21
563.711
31
0.0
0
LINE
5
19f5
8
0-0
6
CONTINUOUS
62
  7
10
1211.322
20
563.711
30
0.0
11
1211.229
21
562.757
31
0.0
0
LINE
5
19f6
8
0-0
6
CONTINUOUS
62
  7
10
1211.229
20
562.757
30
0.0
11
1211.103
21
561.793
31
0.0
0
LINE
5
19f7
8
0-0
6
CONTINUOUS
62
  7
10
1211.103
20
561.793
30
0.0
11
1210.943
21
560.820
31
0.0
0
LINE
5
19f8
8
0-0
6
CONTINUOUS
62
  7
10
1210.943
20
560.820
30
0.0
11
1210.750
21
559.841
31
0.0
0
LINE
5
19f9
8
0-0
6
CONTINUOUS
62
  7
10
1210.750
20
559.841
30
0.0
11
1210.522
21
558.857
31
0.0
0
LINE
5
19fa
8
0-0
6
CONTINUOUS
62
  7
10
1210.522
20
558.857
30
0.0
11
1210.260
21
557.867
31
0.0
0
LINE
5
19fb
8
0-0
6
CONTINUOUS
62
  7
10
1210.260
20
557.867
30
0.0
11
1209.964
21
556.875
31
0.0
0
LINE
5
19fc
8
0-0
6
CONTINUOUS
62
  7
10
1209.964
20
556.875
30
0.0
11
1209.632
21
555.881
31
0.0
0
LINE
5
19fd
8
0-0
6
CONTINUOUS
62
  7
10
1209.632
20
555.881
30
0.0
11
1209.266
21
554.886
31
0.0
0
LINE
5
19fe
8
0-0
6
CONTINUOUS
62
  7
10
1209.266
20
554.886
30
0.0
11
1208.865
21
553.892
31
0.0
0
LINE
5
19ff
8
0-0
6
CONTINUOUS
62
  7
10
1208.865
20
553.892
30
0.0
11
1208.429
21
552.900
31
0.0
0
LINE
5
1a00
8
0-0
6
CONTINUOUS
62
  7
10
1208.429
20
552.900
30
0.0
11
1207.959
21
551.912
31
0.0
0
LINE
5
1a01
8
0-0
6
CONTINUOUS
62
  7
10
1207.959
20
551.912
30
0.0
11
1207.454
21
550.929
31
0.0
0
LINE
5
1a02
8
0-0
6
CONTINUOUS
62
  7
10
1207.454
20
550.929
30
0.0
11
1206.916
21
549.952
31
0.0
0
LINE
5
1a03
8
0-0
6
CONTINUOUS
62
  7
10
1206.916
20
549.952
30
0.0
11
1206.345
21
548.982
31
0.0
0
LINE
5
1a04
8
0-0
6
CONTINUOUS
62
  7
10
1206.345
20
548.982
30
0.0
11
1205.741
21
548.020
31
0.0
0
LINE
5
1a05
8
0-0
6
CONTINUOUS
62
  7
10
1205.741
20
548.020
30
0.0
11
1205.106
21
547.068
31
0.0
0
LINE
5
1a06
8
0-0
6
CONTINUOUS
62
  7
10
1205.106
20
547.068
30
0.0
11
1204.441
21
546.127
31
0.0
0
LINE
5
1a07
8
0-0
6
CONTINUOUS
62
  7
10
1204.441
20
546.127
30
0.0
11
1203.747
21
545.197
31
0.0
0
LINE
5
1a08
8
0-0
6
CONTINUOUS
62
  7
10
1203.747
20
545.197
30
0.0
11
1203.025
21
544.279
31
0.0
0
LINE
5
1a09
8
0-0
6
CONTINUOUS
62
  7
10
1203.025
20
544.279
30
0.0
11
1202.277
21
543.375
31
0.0
0
LINE
5
1a0a
8
0-0
6
CONTINUOUS
62
  7
10
1202.277
20
543.375
30
0.0
11
1201.504
21
542.485
31
0.0
0
LINE
5
1a0b
8
0-0
6
CONTINUOUS
62
  7
10
1201.504
20
542.485
30
0.0
11
1200.707
21
541.610
31
0.0
0
LINE
5
1a0c
8
0-0
6
CONTINUOUS
62
  7
10
1200.707
20
541.610
30
0.0
11
1199.888
21
540.750
31
0.0
0
LINE
5
1a0d
8
0-0
6
CONTINUOUS
62
  7
10
1199.888
20
540.750
30
0.0
11
1199.050
21
539.905
31
0.0
0
LINE
5
1a0e
8
0-0
6
CONTINUOUS
62
  7
10
1199.050
20
539.905
30
0.0
11
1198.193
21
539.077
31
0.0
0
LINE
5
1a0f
8
0-0
6
CONTINUOUS
62
  7
10
1198.193
20
539.077
30
0.0
11
1197.320
21
538.266
31
0.0
0
LINE
5
1a10
8
0-0
6
CONTINUOUS
62
  7
10
1197.320
20
538.266
30
0.0
11
1196.431
21
537.472
31
0.0
0
LINE
5
1a11
8
0-0
6
CONTINUOUS
62
  7
10
1196.431
20
537.472
30
0.0
11
1195.529
21
536.695
31
0.0
0
LINE
5
1a12
8
0-0
6
CONTINUOUS
62
  7
10
1195.529
20
536.695
30
0.0
11
1194.615
21
535.936
31
0.0
0
LINE
5
1a13
8
0-0
6
CONTINUOUS
62
  7
10
1194.615
20
535.936
30
0.0
11
1193.690
21
535.195
31
0.0
0
LINE
5
1a14
8
0-0
6
CONTINUOUS
62
  7
10
1193.690
20
535.195
30
0.0
11
1192.756
21
534.471
31
0.0
0
LINE
5
1a15
8
0-0
6
CONTINUOUS
62
  7
10
1192.756
20
534.471
30
0.0
11
1191.815
21
533.766
31
0.0
0
LINE
5
1a16
8
0-0
6
CONTINUOUS
62
  7
10
1191.815
20
533.766
30
0.0
11
1190.867
21
533.079
31
0.0
0
LINE
5
1a17
8
0-0
6
CONTINUOUS
62
  7
10
1190.867
20
533.079
30
0.0
11
1189.914
21
532.411
31
0.0
0
LINE
5
1a18
8
0-0
6
CONTINUOUS
62
  7
10
1189.914
20
532.411
30
0.0
11
1188.957
21
531.761
31
0.0
0
LINE
5
1a19
8
0-0
6
CONTINUOUS
62
  7
10
1188.957
20
531.761
30
0.0
11
1187.997
21
531.130
31
0.0
0
LINE
5
1a1a
8
0-0
6
CONTINUOUS
62
  7
10
1187.997
20
531.130
30
0.0
11
1187.035
21
530.518
31
0.0
0
LINE
5
1a1b
8
0-0
6
CONTINUOUS
62
  7
10
1187.035
20
530.518
30
0.0
11
1186.072
21
529.925
31
0.0
0
LINE
5
1a1c
8
0-0
6
CONTINUOUS
62
  7
10
1186.072
20
529.925
30
0.0
11
1185.109
21
529.352
31
0.0
0
LINE
5
1a1d
8
0-0
6
CONTINUOUS
62
  7
10
1185.109
20
529.352
30
0.0
11
1184.147
21
528.799
31
0.0
0
LINE
5
1a1e
8
0-0
6
CONTINUOUS
62
  7
10
1184.147
20
528.799
30
0.0
11
1183.187
21
528.267
31
0.0
0
LINE
5
1a1f
8
0-0
6
CONTINUOUS
62
  7
10
1183.187
20
528.267
30
0.0
11
1182.230
21
527.755
31
0.0
0
LINE
5
1a20
8
0-0
6
CONTINUOUS
62
  7
10
1182.230
20
527.755
30
0.0
11
1181.278
21
527.264
31
0.0
0
LINE
5
1a21
8
0-0
6
CONTINUOUS
62
  7
10
1181.278
20
527.264
30
0.0
11
1180.331
21
526.795
31
0.0
0
LINE
5
1a22
8
0-0
6
CONTINUOUS
62
  7
10
1180.331
20
526.795
30
0.0
11
1179.392
21
526.347
31
0.0
0
LINE
5
1a23
8
0-0
6
CONTINUOUS
62
  7
10
1179.392
20
526.347
30
0.0
11
1178.461
21
525.922
31
0.0
0
LINE
5
1a24
8
0-0
6
CONTINUOUS
62
  7
10
1178.461
20
525.922
30
0.0
11
1177.541
21
525.518
31
0.0
0
LINE
5
1a25
8
0-0
6
CONTINUOUS
62
  7
10
1177.541
20
525.518
30
0.0
11
1176.635
21
525.136
31
0.0
0
LINE
5
1a26
8
0-0
6
CONTINUOUS
62
  7
10
1176.635
20
525.136
30
0.0
11
1175.744
21
524.776
31
0.0
0
LINE
5
1a27
8
0-0
6
CONTINUOUS
62
  7
10
1175.744
20
524.776
30
0.0
11
1174.875
21
524.436
31
0.0
0
LINE
5
1a28
8
0-0
6
CONTINUOUS
62
  7
10
1174.875
20
524.436
30
0.0
11
1174.032
21
524.117
31
0.0
0
LINE
5
1a29
8
0-0
6
CONTINUOUS
62
  7
10
1174.032
20
524.117
30
0.0
11
1173.223
21
523.818
31
0.0
0
LINE
5
1a2a
8
0-0
6
CONTINUOUS
62
  7
10
1173.223
20
523.818
30
0.0
11
1172.458
21
523.540
31
0.0
0
LINE
5
1a2b
8
0-0
6
CONTINUOUS
62
  7
10
1172.458
20
523.540
30
0.0
11
1171.752
21
523.281
31
0.0
0
LINE
5
1a2c
8
0-0
6
CONTINUOUS
62
  7
10
1171.752
20
523.281
30
0.0
11
1171.124
21
523.046
31
0.0
0
LINE
5
1a2d
8
0-0
6
CONTINUOUS
62
  7
10
1171.124
20
523.046
30
0.0
11
1170.453
21
521.433
31
0.0
0
LINE
5
1a2e
8
0-0
6
CONTINUOUS
62
  7
10
1170.453
20
521.433
30
0.0
11
1169.781
21
519.936
31
0.0
0
LINE
5
1a2f
8
0-0
6
CONTINUOUS
62
  7
10
1169.781
20
519.936
30
0.0
11
1169.110
21
518.544
31
0.0
0
LINE
5
1a30
8
0-0
6
CONTINUOUS
62
  7
10
1169.110
20
518.544
30
0.0
11
1168.442
21
517.251
31
0.0
0
LINE
5
1a31
8
0-0
6
CONTINUOUS
62
  7
10
1168.442
20
517.251
30
0.0
11
1167.774
21
516.050
31
0.0
0
LINE
5
1a32
8
0-0
6
CONTINUOUS
62
  7
10
1167.774
20
516.050
30
0.0
11
1167.105
21
514.931
31
0.0
0
LINE
5
1a33
8
0-0
6
CONTINUOUS
62
  7
10
1167.105
20
514.931
30
0.0
11
1166.432
21
513.890
31
0.0
0
LINE
5
1a34
8
0-0
6
CONTINUOUS
62
  7
10
1166.432
20
513.890
30
0.0
11
1165.753
21
512.919
31
0.0
0
LINE
5
1a35
8
0-0
6
CONTINUOUS
62
  7
10
1165.753
20
512.919
30
0.0
11
1165.063
21
512.013
31
0.0
0
LINE
5
1a36
8
0-0
6
CONTINUOUS
62
  7
10
1165.063
20
512.013
30
0.0
11
1164.360
21
511.166
31
0.0
0
LINE
5
1a37
8
0-0
6
CONTINUOUS
62
  7
10
1164.360
20
511.166
30
0.0
11
1163.641
21
510.374
31
0.0
0
LINE
5
1a38
8
0-0
6
CONTINUOUS
62
  7
10
1163.641
20
510.374
30
0.0
11
1162.906
21
509.634
31
0.0
0
LINE
5
1a39
8
0-0
6
CONTINUOUS
62
  7
10
1162.906
20
509.634
30
0.0
11
1162.151
21
508.942
31
0.0
0
LINE
5
1a3a
8
0-0
6
CONTINUOUS
62
  7
10
1162.151
20
508.942
30
0.0
11
1161.376
21
508.295
31
0.0
0
LINE
5
1a3b
8
0-0
6
CONTINUOUS
62
  7
10
1161.376
20
508.295
30
0.0
11
1160.581
21
507.692
31
0.0
0
LINE
5
1a3c
8
0-0
6
CONTINUOUS
62
  7
10
1160.581
20
507.692
30
0.0
11
1159.766
21
507.131
31
0.0
0
LINE
5
1a3d
8
0-0
6
CONTINUOUS
62
  7
10
1159.766
20
507.131
30
0.0
11
1158.931
21
506.610
31
0.0
0
LINE
5
1a3e
8
0-0
6
CONTINUOUS
62
  7
10
1158.931
20
506.610
30
0.0
11
1158.075
21
506.129
31
0.0
0
LINE
5
1a3f
8
0-0
6
CONTINUOUS
62
  7
10
1158.075
20
506.129
30
0.0
11
1157.199
21
505.685
31
0.0
0
LINE
5
1a40
8
0-0
6
CONTINUOUS
62
  7
10
1157.199
20
505.685
30
0.0
11
1156.301
21
505.279
31
0.0
0
LINE
5
1a41
8
0-0
6
CONTINUOUS
62
  7
10
1156.301
20
505.279
30
0.0
11
1155.379
21
504.908
31
0.0
0
LINE
5
1a42
8
0-0
6
CONTINUOUS
62
  7
10
1155.379
20
504.908
30
0.0
11
1154.428
21
504.570
31
0.0
0
LINE
5
1a43
8
0-0
6
CONTINUOUS
62
  7
10
1154.428
20
504.570
30
0.0
11
1153.442
21
504.262
31
0.0
0
LINE
5
1a44
8
0-0
6
CONTINUOUS
62
  7
10
1153.442
20
504.262
30
0.0
11
1152.411
21
503.980
31
0.0
0
LINE
5
1a45
8
0-0
6
CONTINUOUS
62
  7
10
1152.411
20
503.980
30
0.0
11
1151.322
21
503.719
31
0.0
0
LINE
5
1a46
8
0-0
6
CONTINUOUS
62
  7
10
1151.322
20
503.719
30
0.0
11
1150.157
21
503.471
31
0.0
0
LINE
5
1a47
8
0-0
6
CONTINUOUS
62
  7
10
1150.157
20
503.471
30
0.0
11
1148.893
21
503.227
31
0.0
0
LINE
5
1a48
8
0-0
6
CONTINUOUS
62
  7
10
1148.893
20
503.227
30
0.0
11
1147.501
21
502.976
31
0.0
0
LINE
5
1a49
8
0-0
6
CONTINUOUS
62
  7
10
1147.501
20
502.976
30
0.0
11
1145.946
21
502.703
31
0.0
0
LINE
5
1a4a
8
0-0
6
CONTINUOUS
62
  7
10
938.446
20
610.643
30
0.0
11
940.474
21
610.047
31
0.0
0
LINE
5
1a4b
8
0-0
6
CONTINUOUS
62
  7
10
940.474
20
610.047
30
0.0
11
942.498
21
609.304
31
0.0
0
LINE
5
1a4c
8
0-0
6
CONTINUOUS
62
  7
10
942.498
20
609.304
30
0.0
11
944.508
21
608.425
31
0.0
0
LINE
5
1a4d
8
0-0
6
CONTINUOUS
62
  7
10
944.508
20
608.425
30
0.0
11
946.487
21
607.421
31
0.0
0
LINE
5
1a4e
8
0-0
6
CONTINUOUS
62
  7
10
946.487
20
607.421
30
0.0
11
948.421
21
606.302
31
0.0
0
LINE
5
1a4f
8
0-0
6
CONTINUOUS
62
  7
10
948.421
20
606.302
30
0.0
11
950.297
21
605.079
31
0.0
0
LINE
5
1a50
8
0-0
6
CONTINUOUS
62
  7
10
950.297
20
605.079
30
0.0
11
952.102
21
603.762
31
0.0
0
LINE
5
1a51
8
0-0
6
CONTINUOUS
62
  7
10
952.102
20
603.762
30
0.0
11
953.826
21
602.361
31
0.0
0
LINE
5
1a52
8
0-0
6
CONTINUOUS
62
  7
10
953.826
20
602.361
30
0.0
11
955.460
21
600.885
31
0.0
0
LINE
5
1a53
8
0-0
6
CONTINUOUS
62
  7
10
955.460
20
600.885
30
0.0
11
956.998
21
599.345
31
0.0
0
LINE
5
1a54
8
0-0
6
CONTINUOUS
62
  7
10
956.998
20
599.345
30
0.0
11
958.435
21
597.750
31
0.0
0
LINE
5
1a55
8
0-0
6
CONTINUOUS
62
  7
10
958.435
20
597.750
30
0.0
11
959.767
21
596.109
31
0.0
0
LINE
5
1a56
8
0-0
6
CONTINUOUS
62
  7
10
959.767
20
596.109
30
0.0
11
960.992
21
594.431
31
0.0
0
LINE
5
1a57
8
0-0
6
CONTINUOUS
62
  7
10
960.992
20
594.431
30
0.0
11
962.109
21
592.724
31
0.0
0
LINE
5
1a58
8
0-0
6
CONTINUOUS
62
  7
10
962.109
20
592.724
30
0.0
11
963.118
21
590.997
31
0.0
0
LINE
5
1a59
8
0-0
6
CONTINUOUS
62
  7
10
963.118
20
590.997
30
0.0
11
964.019
21
589.259
31
0.0
0
LINE
5
1a5a
8
0-0
6
CONTINUOUS
62
  7
10
964.019
20
589.259
30
0.0
11
964.813
21
587.516
31
0.0
0
LINE
5
1a5b
8
0-0
6
CONTINUOUS
62
  7
10
964.813
20
587.516
30
0.0
11
965.502
21
585.776
31
0.0
0
LINE
5
1a5c
8
0-0
6
CONTINUOUS
62
  7
10
965.502
20
585.776
30
0.0
11
966.087
21
584.047
31
0.0
0
LINE
5
1a5d
8
0-0
6
CONTINUOUS
62
  7
10
966.087
20
584.047
30
0.0
11
966.570
21
582.334
31
0.0
0
LINE
5
1a5e
8
0-0
6
CONTINUOUS
62
  7
10
966.570
20
582.334
30
0.0
11
966.954
21
580.646
31
0.0
0
LINE
5
1a5f
8
0-0
6
CONTINUOUS
62
  7
10
966.954
20
580.646
30
0.0
11
967.240
21
578.986
31
0.0
0
LINE
5
1a60
8
0-0
6
CONTINUOUS
62
  7
10
967.240
20
578.986
30
0.0
11
967.432
21
577.363
31
0.0
0
LINE
5
1a61
8
0-0
6
CONTINUOUS
62
  7
10
967.432
20
577.363
30
0.0
11
967.531
21
575.779
31
0.0
0
LINE
5
1a62
8
0-0
6
CONTINUOUS
62
  7
10
967.531
20
575.779
30
0.0
11
967.540
21
574.241
31
0.0
0
LINE
5
1a63
8
0-0
6
CONTINUOUS
62
  7
10
967.540
20
574.241
30
0.0
11
967.462
21
572.752
31
0.0
0
LINE
5
1a64
8
0-0
6
CONTINUOUS
62
  7
10
967.462
20
572.752
30
0.0
11
967.298
21
571.317
31
0.0
0
LINE
5
1a65
8
0-0
6
CONTINUOUS
62
  7
10
967.298
20
571.317
30
0.0
11
967.053
21
569.938
31
0.0
0
LINE
5
1a66
8
0-0
6
CONTINUOUS
62
  7
10
967.053
20
569.938
30
0.0
11
966.728
21
568.619
31
0.0
0
LINE
5
1a67
8
0-0
6
CONTINUOUS
62
  7
10
966.728
20
568.619
30
0.0
11
966.327
21
567.362
31
0.0
0
LINE
5
1a68
8
0-0
6
CONTINUOUS
62
  7
10
966.327
20
567.362
30
0.0
11
965.852
21
566.170
31
0.0
0
LINE
5
1a69
8
0-0
6
CONTINUOUS
62
  7
10
965.852
20
566.170
30
0.0
11
965.306
21
565.044
31
0.0
0
LINE
5
1a6a
8
0-0
6
CONTINUOUS
62
  7
10
965.306
20
565.044
30
0.0
11
964.694
21
563.985
31
0.0
0
LINE
5
1a6b
8
0-0
6
CONTINUOUS
62
  7
10
964.694
20
563.985
30
0.0
11
964.017
21
562.994
31
0.0
0
LINE
5
1a6c
8
0-0
6
CONTINUOUS
62
  7
10
964.017
20
562.994
30
0.0
11
963.279
21
562.071
31
0.0
0
LINE
5
1a6d
8
0-0
6
CONTINUOUS
62
  7
10
963.279
20
562.071
30
0.0
11
962.485
21
561.218
31
0.0
0
LINE
5
1a6e
8
0-0
6
CONTINUOUS
62
  7
10
962.485
20
561.218
30
0.0
11
961.636
21
560.433
31
0.0
0
LINE
5
1a6f
8
0-0
6
CONTINUOUS
62
  7
10
961.636
20
560.433
30
0.0
11
960.738
21
559.717
31
0.0
0
LINE
5
1a70
8
0-0
6
CONTINUOUS
62
  7
10
960.738
20
559.717
30
0.0
11
959.795
21
559.068
31
0.0
0
LINE
5
1a71
8
0-0
6
CONTINUOUS
62
  7
10
959.795
20
559.068
30
0.0
11
958.809
21
558.486
31
0.0
0
LINE
5
1a72
8
0-0
6
CONTINUOUS
62
  7
10
958.809
20
558.486
30
0.0
11
957.785
21
557.970
31
0.0
0
LINE
5
1a73
8
0-0
6
CONTINUOUS
62
  7
10
957.785
20
557.970
30
0.0
11
956.727
21
557.518
31
0.0
0
LINE
5
1a74
8
0-0
6
CONTINUOUS
62
  7
10
956.727
20
557.518
30
0.0
11
955.639
21
557.129
31
0.0
0
LINE
5
1a75
8
0-0
6
CONTINUOUS
62
  7
10
955.639
20
557.129
30
0.0
11
954.526
21
556.801
31
0.0
0
LINE
5
1a76
8
0-0
6
CONTINUOUS
62
  7
10
954.526
20
556.801
30
0.0
11
953.390
21
556.533
31
0.0
0
LINE
5
1a77
8
0-0
6
CONTINUOUS
62
  7
10
953.390
20
556.533
30
0.0
11
952.237
21
556.323
31
0.0
0
LINE
5
1a78
8
0-0
6
CONTINUOUS
62
  7
10
952.237
20
556.323
30
0.0
11
951.071
21
556.170
31
0.0
0
LINE
5
1a79
8
0-0
6
CONTINUOUS
62
  7
10
951.071
20
556.170
30
0.0
11
949.895
21
556.070
31
0.0
0
LINE
5
1a7a
8
0-0
6
CONTINUOUS
62
  7
10
949.895
20
556.070
30
0.0
11
948.714
21
556.023
31
0.0
0
LINE
5
1a7b
8
0-0
6
CONTINUOUS
62
  7
10
948.714
20
556.023
30
0.0
11
947.531
21
556.026
31
0.0
0
LINE
5
1a7c
8
0-0
6
CONTINUOUS
62
  7
10
947.531
20
556.026
30
0.0
11
946.351
21
556.078
31
0.0
0
LINE
5
1a7d
8
0-0
6
CONTINUOUS
62
  7
10
946.351
20
556.078
30
0.0
11
945.177
21
556.176
31
0.0
0
LINE
5
1a7e
8
0-0
6
CONTINUOUS
62
  7
10
945.177
20
556.176
30
0.0
11
944.013
21
556.318
31
0.0
0
LINE
5
1a7f
8
0-0
6
CONTINUOUS
62
  7
10
944.013
20
556.318
30
0.0
11
942.862
21
556.503
31
0.0
0
LINE
5
1a80
8
0-0
6
CONTINUOUS
62
  7
10
942.862
20
556.503
30
0.0
11
941.728
21
556.729
31
0.0
0
LINE
5
1a81
8
0-0
6
CONTINUOUS
62
  7
10
941.728
20
556.729
30
0.0
11
940.614
21
556.993
31
0.0
0
LINE
5
1a82
8
0-0
6
CONTINUOUS
62
  7
10
940.614
20
556.993
30
0.0
11
939.523
21
557.294
31
0.0
0
LINE
5
1a83
8
0-0
6
CONTINUOUS
62
  7
10
939.523
20
557.294
30
0.0
11
938.459
21
557.629
31
0.0
0
LINE
5
1a84
8
0-0
6
CONTINUOUS
62
  7
10
938.459
20
557.629
30
0.0
11
937.424
21
557.998
31
0.0
0
LINE
5
1a85
8
0-0
6
CONTINUOUS
62
  7
10
937.424
20
557.998
30
0.0
11
936.421
21
558.397
31
0.0
0
LINE
5
1a86
8
0-0
6
CONTINUOUS
62
  7
10
936.421
20
558.397
30
0.0
11
935.452
21
558.826
31
0.0
0
LINE
5
1a87
8
0-0
6
CONTINUOUS
62
  7
10
935.452
20
558.826
30
0.0
11
934.521
21
559.282
31
0.0
0
LINE
5
1a88
8
0-0
6
CONTINUOUS
62
  7
10
934.521
20
559.282
30
0.0
11
933.630
21
559.764
31
0.0
0
LINE
5
1a89
8
0-0
6
CONTINUOUS
62
  7
10
933.630
20
559.764
30
0.0
11
932.780
21
560.270
31
0.0
0
LINE
5
1a8a
8
0-0
6
CONTINUOUS
62
  7
10
932.780
20
560.270
30
0.0
11
931.973
21
560.798
31
0.0
0
LINE
5
1a8b
8
0-0
6
CONTINUOUS
62
  7
10
931.973
20
560.798
30
0.0
11
931.212
21
561.347
31
0.0
0
LINE
5
1a8c
8
0-0
6
CONTINUOUS
62
  7
10
931.212
20
561.347
30
0.0
11
930.498
21
561.914
31
0.0
0
LINE
5
1a8d
8
0-0
6
CONTINUOUS
62
  7
10
930.498
20
561.914
30
0.0
11
929.832
21
562.498
31
0.0
0
LINE
5
1a8e
8
0-0
6
CONTINUOUS
62
  7
10
929.832
20
562.498
30
0.0
11
929.217
21
563.098
31
0.0
0
LINE
5
1a8f
8
0-0
6
CONTINUOUS
62
  7
10
929.217
20
563.098
30
0.0
11
928.652
21
563.711
31
0.0
0
LINE
5
1a90
8
0-0
6
CONTINUOUS
62
  7
10
928.652
20
563.711
30
0.0
11
928.140
21
564.335
31
0.0
0
LINE
5
1a91
8
0-0
6
CONTINUOUS
62
  7
10
928.140
20
564.335
30
0.0
11
927.680
21
564.969
31
0.0
0
LINE
5
1a92
8
0-0
6
CONTINUOUS
62
  7
10
927.680
20
564.969
30
0.0
11
927.274
21
565.611
31
0.0
0
LINE
5
1a93
8
0-0
6
CONTINUOUS
62
  7
10
927.274
20
565.611
30
0.0
11
926.921
21
566.259
31
0.0
0
LINE
5
1a94
8
0-0
6
CONTINUOUS
62
  7
10
926.921
20
566.259
30
0.0
11
926.623
21
566.912
31
0.0
0
LINE
5
1a95
8
0-0
6
CONTINUOUS
62
  7
10
926.623
20
566.912
30
0.0
11
926.380
21
567.567
31
0.0
0
LINE
5
1a96
8
0-0
6
CONTINUOUS
62
  7
10
926.380
20
567.567
30
0.0
11
926.190
21
568.223
31
0.0
0
LINE
5
1a97
8
0-0
6
CONTINUOUS
62
  7
10
926.190
20
568.223
30
0.0
11
926.054
21
568.878
31
0.0
0
LINE
5
1a98
8
0-0
6
CONTINUOUS
62
  7
10
926.054
20
568.878
30
0.0
11
925.972
21
569.529
31
0.0
0
LINE
5
1a99
8
0-0
6
CONTINUOUS
62
  7
10
925.972
20
569.529
30
0.0
11
925.942
21
570.175
31
0.0
0
LINE
5
1a9a
8
0-0
6
CONTINUOUS
62
  7
10
925.942
20
570.175
30
0.0
11
925.964
21
570.815
31
0.0
0
LINE
5
1a9b
8
0-0
6
CONTINUOUS
62
  7
10
925.964
20
570.815
30
0.0
11
926.038
21
571.445
31
0.0
0
LINE
5
1a9c
8
0-0
6
CONTINUOUS
62
  7
10
926.038
20
571.445
30
0.0
11
926.160
21
572.064
31
0.0
0
LINE
5
1a9d
8
0-0
6
CONTINUOUS
62
  7
10
926.160
20
572.064
30
0.0
11
926.331
21
572.671
31
0.0
0
LINE
5
1a9e
8
0-0
6
CONTINUOUS
62
  7
10
926.331
20
572.671
30
0.0
11
926.548
21
573.264
31
0.0
0
LINE
5
1a9f
8
0-0
6
CONTINUOUS
62
  7
10
926.548
20
573.264
30
0.0
11
926.810
21
573.840
31
0.0
0
LINE
5
1aa0
8
0-0
6
CONTINUOUS
62
  7
10
926.810
20
573.840
30
0.0
11
927.116
21
574.398
31
0.0
0
LINE
5
1aa1
8
0-0
6
CONTINUOUS
62
  7
10
927.116
20
574.398
30
0.0
11
927.462
21
574.936
31
0.0
0
LINE
5
1aa2
8
0-0
6
CONTINUOUS
62
  7
10
927.462
20
574.936
30
0.0
11
927.846
21
575.452
31
0.0
0
LINE
5
1aa3
8
0-0
6
CONTINUOUS
62
  7
10
927.846
20
575.452
30
0.0
11
928.267
21
575.946
31
0.0
0
LINE
5
1aa4
8
0-0
6
CONTINUOUS
62
  7
10
928.267
20
575.946
30
0.0
11
928.722
21
576.415
31
0.0
0
LINE
5
1aa5
8
0-0
6
CONTINUOUS
62
  7
10
928.722
20
576.415
30
0.0
11
929.209
21
576.858
31
0.0
0
LINE
5
1aa6
8
0-0
6
CONTINUOUS
62
  7
10
929.209
20
576.858
30
0.0
11
929.724
21
577.274
31
0.0
0
LINE
5
1aa7
8
0-0
6
CONTINUOUS
62
  7
10
929.724
20
577.274
30
0.0
11
930.264
21
577.662
31
0.0
0
LINE
5
1aa8
8
0-0
6
CONTINUOUS
62
  7
10
930.264
20
577.662
30
0.0
11
930.828
21
578.020
31
0.0
0
LINE
5
1aa9
8
0-0
6
CONTINUOUS
62
  7
10
930.828
20
578.020
30
0.0
11
931.412
21
578.348
31
0.0
0
LINE
5
1aaa
8
0-0
6
CONTINUOUS
62
  7
10
931.412
20
578.348
30
0.0
11
932.013
21
578.645
31
0.0
0
LINE
5
1aab
8
0-0
6
CONTINUOUS
62
  7
10
932.013
20
578.645
30
0.0
11
932.628
21
578.909
31
0.0
0
LINE
5
1aac
8
0-0
6
CONTINUOUS
62
  7
10
932.628
20
578.909
30
0.0
11
933.255
21
579.142
31
0.0
0
LINE
5
1aad
8
0-0
6
CONTINUOUS
62
  7
10
933.255
20
579.142
30
0.0
11
933.890
21
579.342
31
0.0
0
LINE
5
1aae
8
0-0
6
CONTINUOUS
62
  7
10
933.890
20
579.342
30
0.0
11
934.530
21
579.510
31
0.0
0
LINE
5
1aaf
8
0-0
6
CONTINUOUS
62
  7
10
934.530
20
579.510
30
0.0
11
935.173
21
579.645
31
0.0
0
LINE
5
1ab0
8
0-0
6
CONTINUOUS
62
  7
10
935.173
20
579.645
30
0.0
11
935.815
21
579.747
31
0.0
0
LINE
5
1ab1
8
0-0
6
CONTINUOUS
62
  7
10
935.815
20
579.747
30
0.0
11
936.455
21
579.817
31
0.0
0
LINE
5
1ab2
8
0-0
6
CONTINUOUS
62
  7
10
936.455
20
579.817
30
0.0
11
937.088
21
579.856
31
0.0
0
LINE
5
1ab3
8
0-0
6
CONTINUOUS
62
  7
10
937.088
20
579.856
30
0.0
11
937.713
21
579.864
31
0.0
0
LINE
5
1ab4
8
0-0
6
CONTINUOUS
62
  7
10
937.713
20
579.864
30
0.0
11
938.327
21
579.842
31
0.0
0
LINE
5
1ab5
8
0-0
6
CONTINUOUS
62
  7
10
938.327
20
579.842
30
0.0
11
938.927
21
579.792
31
0.0
0
LINE
5
1ab6
8
0-0
6
CONTINUOUS
62
  7
10
938.927
20
579.792
30
0.0
11
939.512
21
579.713
31
0.0
0
LINE
5
1ab7
8
0-0
6
CONTINUOUS
62
  7
10
939.512
20
579.713
30
0.0
11
940.079
21
579.608
31
0.0
0
LINE
5
1ab8
8
0-0
6
CONTINUOUS
62
  7
10
940.079
20
579.608
30
0.0
11
940.626
21
579.479
31
0.0
0
LINE
5
1ab9
8
0-0
6
CONTINUOUS
62
  7
10
940.626
20
579.479
30
0.0
11
941.152
21
579.326
31
0.0
0
LINE
5
1aba
8
0-0
6
CONTINUOUS
62
  7
10
941.152
20
579.326
30
0.0
11
941.654
21
579.152
31
0.0
0
LINE
5
1abb
8
0-0
6
CONTINUOUS
62
  7
10
941.654
20
579.152
30
0.0
11
942.132
21
578.958
31
0.0
0
LINE
5
1abc
8
0-0
6
CONTINUOUS
62
  7
10
942.132
20
578.958
30
0.0
11
942.585
21
578.746
31
0.0
0
LINE
5
1abd
8
0-0
6
CONTINUOUS
62
  7
10
942.585
20
578.746
30
0.0
11
943.010
21
578.518
31
0.0
0
LINE
5
1abe
8
0-0
6
CONTINUOUS
62
  7
10
943.010
20
578.518
30
0.0
11
943.407
21
578.277
31
0.0
0
LINE
5
1abf
8
0-0
6
CONTINUOUS
62
  7
10
943.407
20
578.277
30
0.0
11
943.777
21
578.024
31
0.0
0
LINE
5
1ac0
8
0-0
6
CONTINUOUS
62
  7
10
943.777
20
578.024
30
0.0
11
944.117
21
577.761
31
0.0
0
LINE
5
1ac1
8
0-0
6
CONTINUOUS
62
  7
10
944.117
20
577.761
30
0.0
11
944.427
21
577.491
31
0.0
0
LINE
5
1ac2
8
0-0
6
CONTINUOUS
62
  7
10
944.427
20
577.491
30
0.0
11
944.709
21
577.215
31
0.0
0
LINE
5
1ac3
8
0-0
6
CONTINUOUS
62
  7
10
944.709
20
577.215
30
0.0
11
944.960
21
576.935
31
0.0
0
LINE
5
1ac4
8
0-0
6
CONTINUOUS
62
  7
10
944.960
20
576.935
30
0.0
11
945.183
21
576.654
31
0.0
0
LINE
5
1ac5
8
0-0
6
CONTINUOUS
62
  7
10
945.183
20
576.654
30
0.0
11
945.376
21
576.374
31
0.0
0
LINE
5
1ac6
8
0-0
6
CONTINUOUS
62
  7
10
945.376
20
576.374
30
0.0
11
945.542
21
576.095
31
0.0
0
LINE
5
1ac7
8
0-0
6
CONTINUOUS
62
  7
10
945.542
20
576.095
30
0.0
11
945.679
21
575.820
31
0.0
0
LINE
5
1ac8
8
0-0
6
CONTINUOUS
62
  7
10
945.679
20
575.820
30
0.0
11
945.790
21
575.551
31
0.0
0
LINE
5
1ac9
8
0-0
6
CONTINUOUS
62
  7
10
945.790
20
575.551
30
0.0
11
945.874
21
575.289
31
0.0
0
LINE
5
1aca
8
0-0
6
CONTINUOUS
62
  7
10
945.874
20
575.289
30
0.0
11
945.934
21
575.034
31
0.0
0
LINE
5
1acb
8
0-0
6
CONTINUOUS
62
  7
10
945.934
20
575.034
30
0.0
11
945.970
21
574.789
31
0.0
0
LINE
5
1acc
8
0-0
6
CONTINUOUS
62
  7
10
945.970
20
574.789
30
0.0
11
945.983
21
574.554
31
0.0
0
LINE
5
1acd
8
0-0
6
CONTINUOUS
62
  7
10
945.983
20
574.554
30
0.0
11
945.975
21
574.330
31
0.0
0
LINE
5
1ace
8
0-0
6
CONTINUOUS
62
  7
10
945.975
20
574.330
30
0.0
11
945.947
21
574.117
31
0.0
0
LINE
5
1acf
8
0-0
6
CONTINUOUS
62
  7
10
945.947
20
574.117
30
0.0
11
945.901
21
573.917
31
0.0
0
LINE
5
1ad0
8
0-0
6
CONTINUOUS
62
  7
10
945.901
20
573.917
30
0.0
11
945.839
21
573.728
31
0.0
0
LINE
5
1ad1
8
0-0
6
CONTINUOUS
62
  7
10
945.839
20
573.728
30
0.0
11
945.761
21
573.553
31
0.0
0
LINE
5
1ad2
8
0-0
6
CONTINUOUS
62
  7
10
945.761
20
573.553
30
0.0
11
945.670
21
573.389
31
0.0
0
LINE
5
1ad3
8
0-0
6
CONTINUOUS
62
  7
10
945.670
20
573.389
30
0.0
11
945.567
21
573.238
31
0.0
0
LINE
5
1ad4
8
0-0
6
CONTINUOUS
62
  7
10
945.567
20
573.238
30
0.0
11
945.453
21
573.099
31
0.0
0
LINE
5
1ad5
8
0-0
6
CONTINUOUS
62
  7
10
945.453
20
573.099
30
0.0
11
945.332
21
572.971
31
0.0
0
LINE
5
1ad6
8
0-0
6
CONTINUOUS
62
  7
10
945.332
20
572.971
30
0.0
11
945.203
21
572.854
31
0.0
0
LINE
5
1ad7
8
0-0
6
CONTINUOUS
62
  7
10
945.203
20
572.854
30
0.0
11
945.070
21
572.746
31
0.0
0
LINE
5
1ad8
8
0-0
6
CONTINUOUS
62
  7
10
945.070
20
572.746
30
0.0
11
944.933
21
572.648
31
0.0
0
LINE
5
1ad9
8
0-0
6
CONTINUOUS
62
  7
10
944.933
20
572.648
30
0.0
11
944.795
21
572.557
31
0.0
0
LINE
5
1ada
8
0-0
6
CONTINUOUS
62
  7
10
944.795
20
572.557
30
0.0
11
944.657
21
572.474
31
0.0
0
LINE
5
1adb
8
0-0
6
CONTINUOUS
62
  7
10
944.657
20
572.474
30
0.0
11
944.520
21
572.397
31
0.0
0
LINE
5
1adc
8
0-0
6
CONTINUOUS
62
  7
10
944.520
20
572.397
30
0.0
11
944.388
21
572.326
31
0.0
0
LINE
5
1add
8
0-0
6
CONTINUOUS
62
  7
10
944.388
20
572.326
30
0.0
11
944.260
21
572.258
31
0.0
0
LINE
5
1ade
8
0-0
6
CONTINUOUS
62
  7
10
944.260
20
572.258
30
0.0
11
944.139
21
572.193
31
0.0
0
LINE
5
1adf
8
0-0
6
CONTINUOUS
62
  7
10
944.139
20
572.193
30
0.0
11
944.027
21
572.131
31
0.0
0
LINE
5
1ae0
8
0-0
6
CONTINUOUS
62
  7
10
944.027
20
572.131
30
0.0
11
943.925
21
572.070
31
0.0
0
LINE
5
1ae1
8
0-0
6
CONTINUOUS
62
  7
10
943.925
20
572.070
30
0.0
11
943.834
21
572.010
31
0.0
0
LINE
5
1ae2
8
0-0
6
CONTINUOUS
62
  7
10
943.834
20
572.010
30
0.0
11
943.757
21
571.950
31
0.0
0
LINE
5
1ae3
8
0-0
6
CONTINUOUS
62
  7
10
943.757
20
571.950
30
0.0
11
943.693
21
571.889
31
0.0
0
LINE
5
1ae4
8
0-0
6
CONTINUOUS
62
  7
10
943.693
20
571.889
30
0.0
11
943.646
21
571.827
31
0.0
0
LINE
5
1ae5
8
0-0
6
CONTINUOUS
62
  7
10
943.646
20
571.827
30
0.0
11
943.615
21
571.764
31
0.0
0
LINE
5
1ae6
8
0-0
6
CONTINUOUS
62
  7
10
943.615
20
571.764
30
0.0
11
943.603
21
571.700
31
0.0
0
LINE
5
1ae7
8
0-0
6
CONTINUOUS
62
  7
10
943.603
20
571.700
30
0.0
11
943.611
21
571.635
31
0.0
0
LINE
5
1ae8
8
0-0
6
CONTINUOUS
62
  7
10
943.611
20
571.635
30
0.0
11
943.638
21
571.569
31
0.0
0
LINE
5
1ae9
8
0-0
6
CONTINUOUS
62
  7
10
943.638
20
571.569
30
0.0
11
943.687
21
571.503
31
0.0
0
LINE
5
1aea
8
0-0
6
CONTINUOUS
62
  7
10
943.687
20
571.503
30
0.0
11
943.758
21
571.438
31
0.0
0
LINE
5
1aeb
8
0-0
6
CONTINUOUS
62
  7
10
943.758
20
571.438
30
0.0
11
943.852
21
571.375
31
0.0
0
LINE
5
1aec
8
0-0
6
CONTINUOUS
62
  7
10
943.852
20
571.375
30
0.0
11
943.968
21
571.315
31
0.0
0
LINE
5
1aed
8
0-0
6
CONTINUOUS
62
  7
10
943.968
20
571.315
30
0.0
11
944.108
21
571.258
31
0.0
0
LINE
5
1aee
8
0-0
6
CONTINUOUS
62
  7
10
944.108
20
571.258
30
0.0
11
944.271
21
571.208
31
0.0
0
LINE
5
1aef
8
0-0
6
CONTINUOUS
62
  7
10
944.271
20
571.208
30
0.0
11
944.456
21
571.165
31
0.0
0
LINE
5
1af0
8
0-0
6
CONTINUOUS
62
  7
10
944.456
20
571.165
30
0.0
11
944.665
21
571.131
31
0.0
0
LINE
5
1af1
8
0-0
6
CONTINUOUS
62
  7
10
944.665
20
571.131
30
0.0
11
944.895
21
571.109
31
0.0
0
LINE
5
1af2
8
0-0
6
CONTINUOUS
62
  7
10
944.895
20
571.109
30
0.0
11
945.146
21
571.099
31
0.0
0
LINE
5
1af3
8
0-0
6
CONTINUOUS
62
  7
10
945.146
20
571.099
30
0.0
11
945.417
21
571.106
31
0.0
0
LINE
5
1af4
8
0-0
6
CONTINUOUS
62
  7
10
945.417
20
571.106
30
0.0
11
945.706
21
571.129
31
0.0
0
LINE
5
1af5
8
0-0
6
CONTINUOUS
62
  7
10
945.706
20
571.129
30
0.0
11
946.011
21
571.173
31
0.0
0
LINE
5
1af6
8
0-0
6
CONTINUOUS
62
  7
10
946.011
20
571.173
30
0.0
11
946.331
21
571.238
31
0.0
0
LINE
5
1af7
8
0-0
6
CONTINUOUS
62
  7
10
946.331
20
571.238
30
0.0
11
946.662
21
571.328
31
0.0
0
LINE
5
1af8
8
0-0
6
CONTINUOUS
62
  7
10
946.662
20
571.328
30
0.0
11
947.004
21
571.444
31
0.0
0
LINE
5
1af9
8
0-0
6
CONTINUOUS
62
  7
10
947.004
20
571.444
30
0.0
11
947.352
21
571.587
31
0.0
0
LINE
5
1afa
8
0-0
6
CONTINUOUS
62
  7
10
947.352
20
571.587
30
0.0
11
947.703
21
571.760
31
0.0
0
LINE
5
1afb
8
0-0
6
CONTINUOUS
62
  7
10
947.703
20
571.760
30
0.0
11
948.056
21
571.964
31
0.0
0
LINE
5
1afc
8
0-0
6
CONTINUOUS
62
  7
10
948.056
20
571.964
30
0.0
11
948.405
21
572.201
31
0.0
0
LINE
5
1afd
8
0-0
6
CONTINUOUS
62
  7
10
948.405
20
572.201
30
0.0
11
948.747
21
572.471
31
0.0
0
LINE
5
1afe
8
0-0
6
CONTINUOUS
62
  7
10
948.747
20
572.471
30
0.0
11
949.079
21
572.776
31
0.0
0
LINE
5
1aff
8
0-0
6
CONTINUOUS
62
  7
10
949.079
20
572.776
30
0.0
11
949.397
21
573.115
31
0.0
0
LINE
5
1b00
8
0-0
6
CONTINUOUS
62
  7
10
949.397
20
573.115
30
0.0
11
949.697
21
573.489
31
0.0
0
LINE
5
1b01
8
0-0
6
CONTINUOUS
62
  7
10
949.697
20
573.489
30
0.0
11
949.975
21
573.897
31
0.0
0
LINE
5
1b02
8
0-0
6
CONTINUOUS
62
  7
10
949.975
20
573.897
30
0.0
11
950.227
21
574.340
31
0.0
0
LINE
5
1b03
8
0-0
6
CONTINUOUS
62
  7
10
950.227
20
574.340
30
0.0
11
950.449
21
574.816
31
0.0
0
LINE
5
1b04
8
0-0
6
CONTINUOUS
62
  7
10
950.449
20
574.816
30
0.0
11
950.638
21
575.323
31
0.0
0
LINE
5
1b05
8
0-0
6
CONTINUOUS
62
  7
10
950.638
20
575.323
30
0.0
11
950.791
21
575.861
31
0.0
0
LINE
5
1b06
8
0-0
6
CONTINUOUS
62
  7
10
950.791
20
575.861
30
0.0
11
950.903
21
576.427
31
0.0
0
LINE
5
1b07
8
0-0
6
CONTINUOUS
62
  7
10
950.903
20
576.427
30
0.0
11
950.971
21
577.019
31
0.0
0
LINE
5
1b08
8
0-0
6
CONTINUOUS
62
  7
10
950.971
20
577.019
30
0.0
11
950.994
21
577.635
31
0.0
0
LINE
5
1b09
8
0-0
6
CONTINUOUS
62
  7
10
950.994
20
577.635
30
0.0
11
950.967
21
578.271
31
0.0
0
LINE
5
1b0a
8
0-0
6
CONTINUOUS
62
  7
10
950.967
20
578.271
30
0.0
11
950.889
21
578.923
31
0.0
0
LINE
5
1b0b
8
0-0
6
CONTINUOUS
62
  7
10
950.889
20
578.923
30
0.0
11
950.758
21
579.590
31
0.0
0
LINE
5
1b0c
8
0-0
6
CONTINUOUS
62
  7
10
950.758
20
579.590
30
0.0
11
950.573
21
580.267
31
0.0
0
LINE
5
1b0d
8
0-0
6
CONTINUOUS
62
  7
10
950.573
20
580.267
30
0.0
11
950.331
21
580.951
31
0.0
0
LINE
5
1b0e
8
0-0
6
CONTINUOUS
62
  7
10
950.331
20
580.951
30
0.0
11
950.032
21
581.637
31
0.0
0
LINE
5
1b0f
8
0-0
6
CONTINUOUS
62
  7
10
950.032
20
581.637
30
0.0
11
949.676
21
582.322
31
0.0
0
LINE
5
1b10
8
0-0
6
CONTINUOUS
62
  7
10
949.676
20
582.322
30
0.0
11
949.262
21
583.002
31
0.0
0
LINE
5
1b11
8
0-0
6
CONTINUOUS
62
  7
10
949.262
20
583.002
30
0.0
11
948.790
21
583.672
31
0.0
0
LINE
5
1b12
8
0-0
6
CONTINUOUS
62
  7
10
948.790
20
583.672
30
0.0
11
948.262
21
584.329
31
0.0
0
LINE
5
1b13
8
0-0
6
CONTINUOUS
62
  7
10
948.262
20
584.329
30
0.0
11
947.677
21
584.969
31
0.0
0
LINE
5
1b14
8
0-0
6
CONTINUOUS
62
  7
10
947.677
20
584.969
30
0.0
11
947.037
21
585.589
31
0.0
0
LINE
5
1b15
8
0-0
6
CONTINUOUS
62
  7
10
947.037
20
585.589
30
0.0
11
946.343
21
586.184
31
0.0
0
LINE
5
1b16
8
0-0
6
CONTINUOUS
62
  7
10
946.343
20
586.184
30
0.0
11
945.597
21
586.751
31
0.0
0
LINE
5
1b17
8
0-0
6
CONTINUOUS
62
  7
10
945.597
20
586.751
30
0.0
11
944.800
21
587.288
31
0.0
0
LINE
5
1b18
8
0-0
6
CONTINUOUS
62
  7
10
944.800
20
587.288
30
0.0
11
943.955
21
587.791
31
0.0
0
LINE
5
1b19
8
0-0
6
CONTINUOUS
62
  7
10
943.955
20
587.791
30
0.0
11
943.064
21
588.257
31
0.0
0
LINE
5
1b1a
8
0-0
6
CONTINUOUS
62
  7
10
943.064
20
588.257
30
0.0
11
942.129
21
588.684
31
0.0
0
LINE
5
1b1b
8
0-0
6
CONTINUOUS
62
  7
10
942.129
20
588.684
30
0.0
11
941.152
21
589.071
31
0.0
0
LINE
5
1b1c
8
0-0
6
CONTINUOUS
62
  7
10
941.152
20
589.071
30
0.0
11
940.137
21
589.414
31
0.0
0
LINE
5
1b1d
8
0-0
6
CONTINUOUS
62
  7
10
940.137
20
589.414
30
0.0
11
939.085
21
589.713
31
0.0
0
LINE
5
1b1e
8
0-0
6
CONTINUOUS
62
  7
10
939.085
20
589.713
30
0.0
11
938.000
21
589.966
31
0.0
0
LINE
5
1b1f
8
0-0
6
CONTINUOUS
62
  7
10
938.000
20
589.966
30
0.0
11
936.884
21
590.173
31
0.0
0
LINE
5
1b20
8
0-0
6
CONTINUOUS
62
  7
10
936.884
20
590.173
30
0.0
11
935.740
21
590.333
31
0.0
0
LINE
5
1b21
8
0-0
6
CONTINUOUS
62
  7
10
935.740
20
590.333
30
0.0
11
934.572
21
590.444
31
0.0
0
LINE
5
1b22
8
0-0
6
CONTINUOUS
62
  7
10
934.572
20
590.444
30
0.0
11
933.381
21
590.508
31
0.0
0
LINE
5
1b23
8
0-0
6
CONTINUOUS
62
  7
10
933.381
20
590.508
30
0.0
11
932.172
21
590.524
31
0.0
0
LINE
5
1b24
8
0-0
6
CONTINUOUS
62
  7
10
932.172
20
590.524
30
0.0
11
930.948
21
590.493
31
0.0
0
LINE
5
1b25
8
0-0
6
CONTINUOUS
62
  7
10
930.948
20
590.493
30
0.0
11
929.711
21
590.415
31
0.0
0
LINE
5
1b26
8
0-0
6
CONTINUOUS
62
  7
10
929.711
20
590.415
30
0.0
11
928.464
21
590.292
31
0.0
0
LINE
5
1b27
8
0-0
6
CONTINUOUS
62
  7
10
928.464
20
590.292
30
0.0
11
927.211
21
590.124
31
0.0
0
LINE
5
1b28
8
0-0
6
CONTINUOUS
62
  7
10
927.211
20
590.124
30
0.0
11
925.954
21
589.913
31
0.0
0
LINE
5
1b29
8
0-0
6
CONTINUOUS
62
  7
10
925.954
20
589.913
30
0.0
11
924.696
21
589.660
31
0.0
0
LINE
5
1b2a
8
0-0
6
CONTINUOUS
62
  7
10
924.696
20
589.660
30
0.0
11
923.440
21
589.367
31
0.0
0
LINE
5
1b2b
8
0-0
6
CONTINUOUS
62
  7
10
923.440
20
589.367
30
0.0
11
922.188
21
589.036
31
0.0
0
LINE
5
1b2c
8
0-0
6
CONTINUOUS
62
  7
10
922.188
20
589.036
30
0.0
11
920.941
21
588.669
31
0.0
0
LINE
5
1b2d
8
0-0
6
CONTINUOUS
62
  7
10
920.941
20
588.669
30
0.0
11
919.700
21
588.269
31
0.0
0
LINE
5
1b2e
8
0-0
6
CONTINUOUS
62
  7
10
919.700
20
588.269
30
0.0
11
918.465
21
587.838
31
0.0
0
LINE
5
1b2f
8
0-0
6
CONTINUOUS
62
  7
10
918.465
20
587.838
30
0.0
11
917.237
21
587.377
31
0.0
0
LINE
5
1b30
8
0-0
6
CONTINUOUS
62
  7
10
917.237
20
587.377
30
0.0
11
916.013
21
586.891
31
0.0
0
LINE
5
1b31
8
0-0
6
CONTINUOUS
62
  7
10
916.013
20
586.891
30
0.0
11
914.791
21
586.381
31
0.0
0
LINE
5
1b32
8
0-0
6
CONTINUOUS
62
  7
10
914.791
20
586.381
30
0.0
11
913.567
21
585.850
31
0.0
0
LINE
5
1b33
8
0-0
6
CONTINUOUS
62
  7
10
913.567
20
585.850
30
0.0
11
912.334
21
585.301
31
0.0
0
LINE
5
1b34
8
0-0
6
CONTINUOUS
62
  7
10
912.334
20
585.301
30
0.0
11
911.086
21
584.736
31
0.0
0
LINE
5
1b35
8
0-0
6
CONTINUOUS
62
  7
10
911.086
20
584.736
30
0.0
11
909.918
21
584.206
31
0.0
0
LINE
5
1b36
8
0-0
6
CONTINUOUS
62
  7
10
909.918
20
584.206
30
0.0
11
908.344
21
583.322
31
0.0
0
LINE
5
1b37
8
0-0
6
CONTINUOUS
62
  7
10
908.344
20
583.322
30
0.0
11
906.866
21
582.373
31
0.0
0
LINE
5
1b38
8
0-0
6
CONTINUOUS
62
  7
10
906.866
20
582.373
30
0.0
11
905.484
21
581.364
31
0.0
0
LINE
5
1b39
8
0-0
6
CONTINUOUS
62
  7
10
905.484
20
581.364
30
0.0
11
904.198
21
580.296
31
0.0
0
LINE
5
1b3a
8
0-0
6
CONTINUOUS
62
  7
10
904.198
20
580.296
30
0.0
11
903.010
21
579.170
31
0.0
0
LINE
5
1b3b
8
0-0
6
CONTINUOUS
62
  7
10
903.010
20
579.170
30
0.0
11
901.922
21
577.988
31
0.0
0
LINE
5
1b3c
8
0-0
6
CONTINUOUS
62
  7
10
901.922
20
577.988
30
0.0
11
900.937
21
576.752
31
0.0
0
LINE
5
1b3d
8
0-0
6
CONTINUOUS
62
  7
10
900.937
20
576.752
30
0.0
11
900.055
21
575.464
31
0.0
0
LINE
5
1b3e
8
0-0
6
CONTINUOUS
62
  7
10
900.055
20
575.464
30
0.0
11
899.279
21
574.127
31
0.0
0
LINE
5
1b3f
8
0-0
6
CONTINUOUS
62
  7
10
899.279
20
574.127
30
0.0
11
898.610
21
572.746
31
0.0
0
LINE
5
1b40
8
0-0
6
CONTINUOUS
62
  7
10
898.610
20
572.746
30
0.0
11
898.047
21
571.326
31
0.0
0
LINE
5
1b41
8
0-0
6
CONTINUOUS
62
  7
10
898.047
20
571.326
30
0.0
11
897.588
21
569.872
31
0.0
0
LINE
5
1b42
8
0-0
6
CONTINUOUS
62
  7
10
897.588
20
569.872
30
0.0
11
897.233
21
568.390
31
0.0
0
LINE
5
1b43
8
0-0
6
CONTINUOUS
62
  7
10
897.233
20
568.390
30
0.0
11
896.978
21
566.887
31
0.0
0
LINE
5
1b44
8
0-0
6
CONTINUOUS
62
  7
10
896.978
20
566.887
30
0.0
11
896.820
21
565.370
31
0.0
0
LINE
5
1b45
8
0-0
6
CONTINUOUS
62
  7
10
896.820
20
565.370
30
0.0
11
896.754
21
563.845
31
0.0
0
LINE
5
1b46
8
0-0
6
CONTINUOUS
62
  7
10
896.754
20
563.845
30
0.0
11
896.777
21
562.320
31
0.0
0
LINE
5
1b47
8
0-0
6
CONTINUOUS
62
  7
10
896.777
20
562.320
30
0.0
11
896.883
21
560.800
31
0.0
0
LINE
5
1b48
8
0-0
6
CONTINUOUS
62
  7
10
896.883
20
560.800
30
0.0
11
897.066
21
559.291
31
0.0
0
LINE
5
1b49
8
0-0
6
CONTINUOUS
62
  7
10
897.066
20
559.291
30
0.0
11
897.322
21
557.799
31
0.0
0
LINE
5
1b4a
8
0-0
6
CONTINUOUS
62
  7
10
897.322
20
557.799
30
0.0
11
897.645
21
556.327
31
0.0
0
LINE
5
1b4b
8
0-0
6
CONTINUOUS
62
  7
10
897.645
20
556.327
30
0.0
11
898.029
21
554.880
31
0.0
0
LINE
5
1b4c
8
0-0
6
CONTINUOUS
62
  7
10
898.029
20
554.880
30
0.0
11
898.469
21
553.460
31
0.0
0
LINE
5
1b4d
8
0-0
6
CONTINUOUS
62
  7
10
898.469
20
553.460
30
0.0
11
898.960
21
552.071
31
0.0
0
LINE
5
1b4e
8
0-0
6
CONTINUOUS
62
  7
10
898.960
20
552.071
30
0.0
11
899.497
21
550.712
31
0.0
0
LINE
5
1b4f
8
0-0
6
CONTINUOUS
62
  7
10
899.497
20
550.712
30
0.0
11
900.075
21
549.385
31
0.0
0
LINE
5
1b50
8
0-0
6
CONTINUOUS
62
  7
10
900.075
20
549.385
30
0.0
11
900.691
21
548.090
31
0.0
0
LINE
5
1b51
8
0-0
6
CONTINUOUS
62
  7
10
900.691
20
548.090
30
0.0
11
901.341
21
546.827
31
0.0
0
LINE
5
1b52
8
0-0
6
CONTINUOUS
62
  7
10
901.341
20
546.827
30
0.0
11
902.022
21
545.593
31
0.0
0
LINE
5
1b53
8
0-0
6
CONTINUOUS
62
  7
10
902.022
20
545.593
30
0.0
11
902.730
21
544.388
31
0.0
0
LINE
5
1b54
8
0-0
6
CONTINUOUS
62
  7
10
902.730
20
544.388
30
0.0
11
903.464
21
543.211
31
0.0
0
LINE
5
1b55
8
0-0
6
CONTINUOUS
62
  7
10
903.464
20
543.211
30
0.0
11
904.221
21
542.058
31
0.0
0
LINE
5
1b56
8
0-0
6
CONTINUOUS
62
  7
10
904.221
20
542.058
30
0.0
11
904.999
21
540.929
31
0.0
0
LINE
5
1b57
8
0-0
6
CONTINUOUS
62
  7
10
904.999
20
540.929
30
0.0
11
905.797
21
539.821
31
0.0
0
LINE
5
1b58
8
0-0
6
CONTINUOUS
62
  7
10
905.797
20
539.821
30
0.0
11
906.614
21
538.733
31
0.0
0
LINE
5
1b59
8
0-0
6
CONTINUOUS
62
  7
10
906.614
20
538.733
30
0.0
11
907.447
21
537.663
31
0.0
0
LINE
5
1b5a
8
0-0
6
CONTINUOUS
62
  7
10
907.447
20
537.663
30
0.0
11
908.295
21
536.612
31
0.0
0
LINE
5
1b5b
8
0-0
6
CONTINUOUS
62
  7
10
908.295
20
536.612
30
0.0
11
909.157
21
535.578
31
0.0
0
LINE
5
1b5c
8
0-0
6
CONTINUOUS
62
  7
10
909.157
20
535.578
30
0.0
11
910.030
21
534.562
31
0.0
0
LINE
5
1b5d
8
0-0
6
CONTINUOUS
62
  7
10
910.030
20
534.562
30
0.0
11
910.912
21
533.565
31
0.0
0
LINE
5
1b5e
8
0-0
6
CONTINUOUS
62
  7
10
910.912
20
533.565
30
0.0
11
911.798
21
532.587
31
0.0
0
LINE
5
1b5f
8
0-0
6
CONTINUOUS
62
  7
10
911.798
20
532.587
30
0.0
11
912.687
21
531.632
31
0.0
0
LINE
5
1b60
8
0-0
6
CONTINUOUS
62
  7
10
912.687
20
531.632
30
0.0
11
913.572
21
530.701
31
0.0
0
LINE
5
1b61
8
0-0
6
CONTINUOUS
62
  7
10
913.572
20
530.701
30
0.0
11
914.448
21
529.799
31
0.0
0
LINE
5
1b62
8
0-0
6
CONTINUOUS
62
  7
10
914.448
20
529.799
30
0.0
11
915.307
21
528.928
31
0.0
0
LINE
5
1b63
8
0-0
6
CONTINUOUS
62
  7
10
915.307
20
528.928
30
0.0
11
916.143
21
528.092
31
0.0
0
LINE
5
1b64
8
0-0
6
CONTINUOUS
62
  7
10
916.143
20
528.092
30
0.0
11
916.946
21
527.295
31
0.0
0
LINE
5
1b65
8
0-0
6
CONTINUOUS
62
  7
10
916.946
20
527.295
30
0.0
11
917.706
21
526.541
31
0.0
0
LINE
5
1b66
8
0-0
6
CONTINUOUS
62
  7
10
917.706
20
526.541
30
0.0
11
918.412
21
525.833
31
0.0
0
LINE
5
1b67
8
0-0
6
CONTINUOUS
62
  7
10
918.412
20
525.833
30
0.0
11
919.054
21
525.175
31
0.0
0
LINE
5
1b68
8
0-0
6
CONTINUOUS
62
  7
10
919.054
20
525.175
30
0.0
11
919.620
21
524.568
31
0.0
0
LINE
5
1b69
8
0-0
6
CONTINUOUS
62
  7
10
919.620
20
524.568
30
0.0
11
920.100
21
524.012
31
0.0
0
LINE
5
1b6a
8
0-0
6
CONTINUOUS
62
  7
10
920.100
20
524.012
30
0.0
11
920.485
21
523.506
31
0.0
0
LINE
5
1b6b
8
0-0
6
CONTINUOUS
62
  7
10
920.485
20
523.506
30
0.0
11
920.768
21
523.046
31
0.0
0
LINE
5
1b6c
8
0-0
6
CONTINUOUS
62
  7
10
945.946
20
502.703
30
0.0
11
1020.946
21
502.703
31
0.0
0
LINE
5
1b6d
8
0-0
6
CONTINUOUS
62
  7
10
1045.946
20
537.703
30
0.0
11
1045.946
21
553.703
31
0.0
0
LINE
5
1b6e
8
0-0
6
CONTINUOUS
62
  7
10
1035.946
20
560.703
30
0.0
11
1036.891
21
560.385
31
0.0
0
LINE
5
1b6f
8
0-0
6
CONTINUOUS
62
  7
10
1036.891
20
560.385
30
0.0
11
1037.778
21
560.057
31
0.0
0
LINE
5
1b70
8
0-0
6
CONTINUOUS
62
  7
10
1037.778
20
560.057
30
0.0
11
1038.614
21
559.715
31
0.0
0
LINE
5
1b71
8
0-0
6
CONTINUOUS
62
  7
10
1038.614
20
559.715
30
0.0
11
1039.403
21
559.352
31
0.0
0
LINE
5
1b72
8
0-0
6
CONTINUOUS
62
  7
10
1039.403
20
559.352
30
0.0
11
1040.151
21
558.967
31
0.0
0
LINE
5
1b73
8
0-0
6
CONTINUOUS
62
  7
10
1040.151
20
558.967
30
0.0
11
1040.863
21
558.553
31
0.0
0
LINE
5
1b74
8
0-0
6
CONTINUOUS
62
  7
10
1040.863
20
558.553
30
0.0
11
1041.546
21
558.106
31
0.0
0
LINE
5
1b75
8
0-0
6
CONTINUOUS
62
  7
10
1041.546
20
558.106
30
0.0
11
1042.204
21
557.623
31
0.0
0
LINE
5
1b76
8
0-0
6
CONTINUOUS
62
  7
10
1042.204
20
557.623
30
0.0
11
1042.843
21
557.098
31
0.0
0
LINE
5
1b77
8
0-0
6
CONTINUOUS
62
  7
10
1042.843
20
557.098
30
0.0
11
1043.468
21
556.528
31
0.0
0
LINE
5
1b78
8
0-0
6
CONTINUOUS
62
  7
10
1043.468
20
556.528
30
0.0
11
1044.086
21
555.908
31
0.0
0
LINE
5
1b79
8
0-0
6
CONTINUOUS
62
  7
10
1044.086
20
555.908
30
0.0
11
1044.701
21
555.233
31
0.0
0
LINE
5
1b7a
8
0-0
6
CONTINUOUS
62
  7
10
1044.701
20
555.233
30
0.0
11
1045.319
21
554.500
31
0.0
0
LINE
5
1b7b
8
0-0
6
CONTINUOUS
62
  7
10
1045.319
20
554.500
30
0.0
11
1045.946
21
553.703
31
0.0
0
LINE
5
1b7c
8
0-0
6
CONTINUOUS
62
  7
10
1019.064
20
560.703
30
0.0
11
1035.946
21
560.703
31
0.0
0
LINE
5
1b7d
8
0-0
6
CONTINUOUS
62
  7
10
991.067
20
623.566
30
0.0
11
991.067
21
575.261
31
0.0
0
LINE
5
1b7e
8
0-0
6
CONTINUOUS
62
  7
10
950.254
20
554.567
30
0.0
11
951.894
21
553.832
31
0.0
0
LINE
5
1b7f
8
0-0
6
CONTINUOUS
62
  7
10
951.894
20
553.832
30
0.0
11
953.416
21
553.180
31
0.0
0
LINE
5
1b80
8
0-0
6
CONTINUOUS
62
  7
10
953.416
20
553.180
30
0.0
11
954.844
21
552.612
31
0.0
0
LINE
5
1b81
8
0-0
6
CONTINUOUS
62
  7
10
954.844
20
552.612
30
0.0
11
956.196
21
552.125
31
0.0
0
LINE
5
1b82
8
0-0
6
CONTINUOUS
62
  7
10
956.196
20
552.125
30
0.0
11
957.488
21
551.718
31
0.0
0
LINE
5
1b83
8
0-0
6
CONTINUOUS
62
  7
10
957.488
20
551.718
30
0.0
11
958.727
21
551.388
31
0.0
0
LINE
5
1b84
8
0-0
6
CONTINUOUS
62
  7
10
958.727
20
551.388
30
0.0
11
959.916
21
551.132
31
0.0
0
LINE
5
1b85
8
0-0
6
CONTINUOUS
62
  7
10
959.916
20
551.132
30
0.0
11
961.054
21
550.944
31
0.0
0
LINE
5
1b86
8
0-0
6
CONTINUOUS
62
  7
10
961.054
20
550.944
30
0.0
11
962.140
21
550.817
31
0.0
0
LINE
5
1b87
8
0-0
6
CONTINUOUS
62
  7
10
962.140
20
550.817
30
0.0
11
963.169
21
550.743
31
0.0
0
LINE
5
1b88
8
0-0
6
CONTINUOUS
62
  7
10
963.169
20
550.743
30
0.0
11
964.139
21
550.712
31
0.0
0
LINE
5
1b89
8
0-0
6
CONTINUOUS
62
  7
10
964.139
20
550.712
30
0.0
11
965.049
21
550.713
31
0.0
0
LINE
5
1b8a
8
0-0
6
CONTINUOUS
62
  7
10
965.049
20
550.713
30
0.0
11
965.892
21
550.735
31
0.0
0
LINE
5
1b8b
8
0-0
6
CONTINUOUS
62
  7
10
965.892
20
550.735
30
0.0
11
966.669
21
550.769
31
0.0
0
LINE
5
1b8c
8
0-0
6
CONTINUOUS
62
  7
10
966.669
20
550.769
30
0.0
11
967.379
21
550.805
31
0.0
0
LINE
5
1b8d
8
0-0
6
CONTINUOUS
62
  7
10
967.379
20
550.805
30
0.0
11
968.023
21
550.836
31
0.0
0
LINE
5
1b8e
8
0-0
6
CONTINUOUS
62
  7
10
968.023
20
550.836
30
0.0
11
968.598
21
550.857
31
0.0
0
LINE
5
1b8f
8
0-0
6
CONTINUOUS
62
  7
10
968.598
20
550.857
30
0.0
11
969.106
21
550.863
31
0.0
0
LINE
5
1b90
8
0-0
6
CONTINUOUS
62
  7
10
969.106
20
550.863
30
0.0
11
969.551
21
550.852
31
0.0
0
LINE
5
1b91
8
0-0
6
CONTINUOUS
62
  7
10
969.551
20
550.852
30
0.0
11
969.934
21
550.826
31
0.0
0
LINE
5
1b92
8
0-0
6
CONTINUOUS
62
  7
10
969.934
20
550.826
30
0.0
11
970.265
21
550.784
31
0.0
0
LINE
5
1b93
8
0-0
6
CONTINUOUS
62
  7
10
970.265
20
550.784
30
0.0
11
970.553
21
550.730
31
0.0
0
LINE
5
1b94
8
0-0
6
CONTINUOUS
62
  7
10
970.553
20
550.730
30
0.0
11
970.811
21
550.663
31
0.0
0
LINE
5
1b95
8
0-0
6
CONTINUOUS
62
  7
10
970.811
20
550.663
30
0.0
11
971.048
21
550.582
31
0.0
0
LINE
5
1b96
8
0-0
6
CONTINUOUS
62
  7
10
971.048
20
550.582
30
0.0
11
971.280
21
550.485
31
0.0
0
LINE
5
1b97
8
0-0
6
CONTINUOUS
62
  7
10
971.280
20
550.485
30
0.0
11
971.515
21
550.367
31
0.0
0
LINE
5
1b98
8
0-0
6
CONTINUOUS
62
  7
10
971.515
20
550.367
30
0.0
11
971.760
21
550.225
31
0.0
0
LINE
5
1b99
8
0-0
6
CONTINUOUS
62
  7
10
971.760
20
550.225
30
0.0
11
972.019
21
550.057
31
0.0
0
LINE
5
1b9a
8
0-0
6
CONTINUOUS
62
  7
10
972.019
20
550.057
30
0.0
11
972.293
21
549.860
31
0.0
0
LINE
5
1b9b
8
0-0
6
CONTINUOUS
62
  7
10
972.293
20
549.860
30
0.0
11
972.583
21
549.636
31
0.0
0
LINE
5
1b9c
8
0-0
6
CONTINUOUS
62
  7
10
972.583
20
549.636
30
0.0
11
972.886
21
549.387
31
0.0
0
LINE
5
1b9d
8
0-0
6
CONTINUOUS
62
  7
10
972.886
20
549.387
30
0.0
11
973.209
21
549.111
31
0.0
0
LINE
5
1b9e
8
0-0
6
CONTINUOUS
62
  7
10
973.209
20
549.111
30
0.0
11
973.535
21
548.825
31
0.0
0
LINE
5
1b9f
8
0-0
6
CONTINUOUS
62
  7
10
973.535
20
548.825
30
0.0
11
973.878
21
548.520
31
0.0
0
LINE
5
1ba0
8
0-0
6
CONTINUOUS
62
  7
10
973.878
20
548.520
30
0.0
11
974.240
21
548.197
31
0.0
0
LINE
5
1ba1
8
0-0
6
CONTINUOUS
62
  7
10
974.240
20
548.197
30
0.0
11
974.611
21
547.870
31
0.0
0
LINE
5
1ba2
8
0-0
6
CONTINUOUS
62
  7
10
974.611
20
547.870
30
0.0
11
974.991
21
547.541
31
0.0
0
LINE
5
1ba3
8
0-0
6
CONTINUOUS
62
  7
10
974.991
20
547.541
30
0.0
11
975.381
21
547.213
31
0.0
0
LINE
5
1ba4
8
0-0
6
CONTINUOUS
62
  7
10
975.381
20
547.213
30
0.0
11
975.782
21
546.887
31
0.0
0
LINE
5
1ba5
8
0-0
6
CONTINUOUS
62
  7
10
975.782
20
546.887
30
0.0
11
976.191
21
546.569
31
0.0
0
LINE
5
1ba6
8
0-0
6
CONTINUOUS
62
  7
10
976.191
20
546.569
30
0.0
11
976.608
21
546.260
31
0.0
0
LINE
5
1ba7
8
0-0
6
CONTINUOUS
62
  7
10
976.608
20
546.260
30
0.0
11
977.033
21
545.961
31
0.0
0
LINE
5
1ba8
8
0-0
6
CONTINUOUS
62
  7
10
977.033
20
545.961
30
0.0
11
977.463
21
545.676
31
0.0
0
LINE
5
1ba9
8
0-0
6
CONTINUOUS
62
  7
10
977.463
20
545.676
30
0.0
11
977.894
21
545.406
31
0.0
0
LINE
5
1baa
8
0-0
6
CONTINUOUS
62
  7
10
977.894
20
545.406
30
0.0
11
978.328
21
545.150
31
0.0
0
LINE
5
1bab
8
0-0
6
CONTINUOUS
62
  7
10
978.328
20
545.150
30
0.0
11
978.763
21
544.909
31
0.0
0
LINE
5
1bac
8
0-0
6
CONTINUOUS
62
  7
10
978.763
20
544.909
30
0.0
11
979.193
21
544.686
31
0.0
0
LINE
5
1bad
8
0-0
6
CONTINUOUS
62
  7
10
979.193
20
544.686
30
0.0
11
979.621
21
544.475
31
0.0
0
LINE
5
1bae
8
0-0
6
CONTINUOUS
62
  7
10
979.621
20
544.475
30
0.0
11
980.042
21
544.280
31
0.0
0
LINE
5
1baf
8
0-0
6
CONTINUOUS
62
  7
10
980.042
20
544.280
30
0.0
11
980.457
21
544.095
31
0.0
0
LINE
5
1bb0
8
0-0
6
CONTINUOUS
62
  7
10
980.457
20
544.095
30
0.0
11
980.862
21
543.922
31
0.0
0
LINE
5
1bb1
8
0-0
6
CONTINUOUS
62
  7
10
980.862
20
543.922
30
0.0
11
981.260
21
543.757
31
0.0
0
LINE
5
1bb2
8
0-0
6
CONTINUOUS
62
  7
10
981.260
20
543.757
30
0.0
11
981.643
21
543.602
31
0.0
0
LINE
5
1bb3
8
0-0
6
CONTINUOUS
62
  7
10
981.643
20
543.602
30
0.0
11
981.996
21
543.459
31
0.0
0
LINE
5
1bb4
8
0-0
6
CONTINUOUS
62
  7
10
981.996
20
543.459
30
0.0
11
982.410
21
543.292
31
0.0
0
LINE
5
1bb5
8
0-0
6
CONTINUOUS
62
  7
10
982.410
20
543.292
30
0.0
11
982.782
21
543.140
31
0.0
0
LINE
5
1bb6
8
0-0
6
CONTINUOUS
62
  7
10
982.782
20
543.140
30
0.0
11
983.150
21
542.987
31
0.0
0
LINE
5
1bb7
8
0-0
6
CONTINUOUS
62
  7
10
983.150
20
542.987
30
0.0
11
983.524
21
542.828
31
0.0
0
LINE
5
1bb8
8
0-0
6
CONTINUOUS
62
  7
10
983.524
20
542.828
30
0.0
11
983.901
21
542.662
31
0.0
0
LINE
5
1bb9
8
0-0
6
CONTINUOUS
62
  7
10
983.901
20
542.662
30
0.0
11
984.287
21
542.488
31
0.0
0
LINE
5
1bba
8
0-0
6
CONTINUOUS
62
  7
10
984.287
20
542.488
30
0.0
11
984.686
21
542.303
31
0.0
0
LINE
5
1bbb
8
0-0
6
CONTINUOUS
62
  7
10
984.686
20
542.303
30
0.0
11
985.098
21
542.106
31
0.0
0
LINE
5
1bbc
8
0-0
6
CONTINUOUS
62
  7
10
985.098
20
542.106
30
0.0
11
985.529
21
541.895
31
0.0
0
LINE
5
1bbd
8
0-0
6
CONTINUOUS
62
  7
10
985.529
20
541.895
30
0.0
11
985.974
21
541.673
31
0.0
0
LINE
5
1bbe
8
0-0
6
CONTINUOUS
62
  7
10
985.974
20
541.673
30
0.0
11
986.449
21
541.432
31
0.0
0
LINE
5
1bbf
8
0-0
6
CONTINUOUS
62
  7
10
986.449
20
541.432
30
0.0
11
986.941
21
541.180
31
0.0
0
LINE
5
1bc0
8
0-0
6
CONTINUOUS
62
  7
10
986.941
20
541.180
30
0.0
11
987.467
21
540.910
31
0.0
0
LINE
5
1bc1
8
0-0
6
CONTINUOUS
62
  7
10
987.467
20
540.910
30
0.0
11
988.023
21
540.626
31
0.0
0
LINE
5
1bc2
8
0-0
6
CONTINUOUS
62
  7
10
988.023
20
540.626
30
0.0
11
988.608
21
540.329
31
0.0
0
LINE
5
1bc3
8
0-0
6
CONTINUOUS
62
  7
10
988.608
20
540.329
30
0.0
11
989.219
21
540.024
31
0.0
0
LINE
5
1bc4
8
0-0
6
CONTINUOUS
62
  7
10
989.219
20
540.024
30
0.0
11
989.865
21
539.708
31
0.0
0
LINE
5
1bc5
8
0-0
6
CONTINUOUS
62
  7
10
989.865
20
539.708
30
0.0
11
990.546
21
539.385
31
0.0
0
LINE
5
1bc6
8
0-0
6
CONTINUOUS
62
  7
10
990.546
20
539.385
30
0.0
11
991.257
21
539.059
31
0.0
0
LINE
5
1bc7
8
0-0
6
CONTINUOUS
62
  7
10
991.257
20
539.059
30
0.0
11
992.005
21
538.730
31
0.0
0
LINE
5
1bc8
8
0-0
6
CONTINUOUS
62
  7
10
992.005
20
538.730
30
0.0
11
992.781
21
538.404
31
0.0
0
LINE
5
1bc9
8
0-0
6
CONTINUOUS
62
  7
10
992.781
20
538.404
30
0.0
11
993.594
21
538.081
31
0.0
0
LINE
5
1bca
8
0-0
6
CONTINUOUS
62
  7
10
993.594
20
538.081
30
0.0
11
994.439
21
537.765
31
0.0
0
LINE
5
1bcb
8
0-0
6
CONTINUOUS
62
  7
10
994.439
20
537.765
30
0.0
11
995.315
21
537.459
31
0.0
0
LINE
5
1bcc
8
0-0
6
CONTINUOUS
62
  7
10
995.315
20
537.459
30
0.0
11
996.223
21
537.167
31
0.0
0
LINE
5
1bcd
8
0-0
6
CONTINUOUS
62
  7
10
996.223
20
537.167
30
0.0
11
997.158
21
536.890
31
0.0
0
LINE
5
1bce
8
0-0
6
CONTINUOUS
62
  7
10
997.158
20
536.890
30
0.0
11
998.123
21
536.632
31
0.0
0
LINE
5
1bcf
8
0-0
6
CONTINUOUS
62
  7
10
998.123
20
536.632
30
0.0
11
999.110
21
536.396
31
0.0
0
LINE
5
1bd0
8
0-0
6
CONTINUOUS
62
  7
10
999.110
20
536.396
30
0.0
11
1000.125
21
536.183
31
0.0
0
LINE
5
1bd1
8
0-0
6
CONTINUOUS
62
  7
10
1000.125
20
536.183
30
0.0
11
1001.157
21
535.997
31
0.0
0
LINE
5
1bd2
8
0-0
6
CONTINUOUS
62
  7
10
1001.157
20
535.997
30
0.0
11
1002.210
21
535.839
31
0.0
0
LINE
5
1bd3
8
0-0
6
CONTINUOUS
62
  7
10
1002.210
20
535.839
30
0.0
11
1003.277
21
535.710
31
0.0
0
LINE
5
1bd4
8
0-0
6
CONTINUOUS
62
  7
10
1003.277
20
535.710
30
0.0
11
1004.358
21
535.613
31
0.0
0
LINE
5
1bd5
8
0-0
6
CONTINUOUS
62
  7
10
1004.358
20
535.613
30
0.0
11
1005.448
21
535.548
31
0.0
0
LINE
5
1bd6
8
0-0
6
CONTINUOUS
62
  7
10
1005.448
20
535.548
30
0.0
11
1006.546
21
535.516
31
0.0
0
LINE
5
1bd7
8
0-0
6
CONTINUOUS
62
  7
10
1006.546
20
535.516
30
0.0
11
1007.647
21
535.519
31
0.0
0
LINE
5
1bd8
8
0-0
6
CONTINUOUS
62
  7
10
1007.647
20
535.519
30
0.0
11
1008.750
21
535.556
31
0.0
0
LINE
5
1bd9
8
0-0
6
CONTINUOUS
62
  7
10
1008.750
20
535.556
30
0.0
11
1009.849
21
535.628
31
0.0
0
LINE
5
1bda
8
0-0
6
CONTINUOUS
62
  7
10
1009.849
20
535.628
30
0.0
11
1010.944
21
535.734
31
0.0
0
LINE
5
1bdb
8
0-0
6
CONTINUOUS
62
  7
10
1010.944
20
535.734
30
0.0
11
1012.030
21
535.875
31
0.0
0
LINE
5
1bdc
8
0-0
6
CONTINUOUS
62
  7
10
1012.030
20
535.875
30
0.0
11
1013.107
21
536.050
31
0.0
0
LINE
5
1bdd
8
0-0
6
CONTINUOUS
62
  7
10
1013.107
20
536.050
30
0.0
11
1014.170
21
536.258
31
0.0
0
LINE
5
1bde
8
0-0
6
CONTINUOUS
62
  7
10
1014.170
20
536.258
30
0.0
11
1015.218
21
536.499
31
0.0
0
LINE
5
1bdf
8
0-0
6
CONTINUOUS
62
  7
10
1015.218
20
536.499
30
0.0
11
1016.247
21
536.773
31
0.0
0
LINE
5
1be0
8
0-0
6
CONTINUOUS
62
  7
10
1016.247
20
536.773
30
0.0
11
1017.258
21
537.078
31
0.0
0
LINE
5
1be1
8
0-0
6
CONTINUOUS
62
  7
10
1017.258
20
537.078
30
0.0
11
1018.248
21
537.415
31
0.0
0
LINE
5
1be2
8
0-0
6
CONTINUOUS
62
  7
10
1018.248
20
537.415
30
0.0
11
1019.213
21
537.782
31
0.0
0
LINE
5
1be3
8
0-0
6
CONTINUOUS
62
  7
10
1019.213
20
537.782
30
0.0
11
1020.156
21
538.180
31
0.0
0
LINE
5
1be4
8
0-0
6
CONTINUOUS
62
  7
10
1020.156
20
538.180
30
0.0
11
1021.072
21
538.607
31
0.0
0
LINE
5
1be5
8
0-0
6
CONTINUOUS
62
  7
10
1021.072
20
538.607
30
0.0
11
1021.963
21
539.064
31
0.0
0
LINE
5
1be6
8
0-0
6
CONTINUOUS
62
  7
10
1021.963
20
539.064
30
0.0
11
1022.825
21
539.550
31
0.0
0
LINE
5
1be7
8
0-0
6
CONTINUOUS
62
  7
10
1022.825
20
539.550
30
0.0
11
1023.661
21
540.066
31
0.0
0
LINE
5
1be8
8
0-0
6
CONTINUOUS
62
  7
10
1023.661
20
540.066
30
0.0
11
1024.467
21
540.610
31
0.0
0
LINE
5
1be9
8
0-0
6
CONTINUOUS
62
  7
10
1024.467
20
540.610
30
0.0
11
1025.244
21
541.184
31
0.0
0
LINE
5
1bea
8
0-0
6
CONTINUOUS
62
  7
10
1025.244
20
541.184
30
0.0
11
1025.992
21
541.787
31
0.0
0
LINE
5
1beb
8
0-0
6
CONTINUOUS
62
  7
10
1025.992
20
541.787
30
0.0
11
1026.709
21
542.418
31
0.0
0
LINE
5
1bec
8
0-0
6
CONTINUOUS
62
  7
10
1026.709
20
542.418
30
0.0
11
1027.397
21
543.079
31
0.0
0
LINE
5
1bed
8
0-0
6
CONTINUOUS
62
  7
10
1027.397
20
543.079
30
0.0
11
1028.055
21
543.768
31
0.0
0
LINE
5
1bee
8
0-0
6
CONTINUOUS
62
  7
10
1028.055
20
543.768
30
0.0
11
1028.683
21
544.486
31
0.0
0
LINE
5
1bef
8
0-0
6
CONTINUOUS
62
  7
10
1028.683
20
544.486
30
0.0
11
1029.281
21
545.233
31
0.0
0
LINE
5
1bf0
8
0-0
6
CONTINUOUS
62
  7
10
1029.281
20
545.233
30
0.0
11
1029.848
21
546.007
31
0.0
0
LINE
5
1bf1
8
0-0
6
CONTINUOUS
62
  7
10
1029.848
20
546.007
30
0.0
11
1030.387
21
546.812
31
0.0
0
LINE
5
1bf2
8
0-0
6
CONTINUOUS
62
  7
10
1030.387
20
546.812
30
0.0
11
1030.898
21
547.647
31
0.0
0
LINE
5
1bf3
8
0-0
6
CONTINUOUS
62
  7
10
1030.898
20
547.647
30
0.0
11
1031.379
21
548.510
31
0.0
0
LINE
5
1bf4
8
0-0
6
CONTINUOUS
62
  7
10
1031.379
20
548.510
30
0.0
11
1031.830
21
549.406
31
0.0
0
LINE
5
1bf5
8
0-0
6
CONTINUOUS
62
  7
10
1031.830
20
549.406
30
0.0
11
1032.252
21
550.333
31
0.0
0
LINE
5
1bf6
8
0-0
6
CONTINUOUS
62
  7
10
1032.252
20
550.333
30
0.0
11
1032.643
21
551.295
31
0.0
0
LINE
5
1bf7
8
0-0
6
CONTINUOUS
62
  7
10
1032.643
20
551.295
30
0.0
11
1033.001
21
552.292
31
0.0
0
LINE
5
1bf8
8
0-0
6
CONTINUOUS
62
  7
10
1033.001
20
552.292
30
0.0
11
1033.325
21
553.323
31
0.0
0
LINE
5
1bf9
8
0-0
6
CONTINUOUS
62
  7
10
1033.325
20
553.323
30
0.0
11
1033.613
21
554.394
31
0.0
0
LINE
5
1bfa
8
0-0
6
CONTINUOUS
62
  7
10
1033.613
20
554.394
30
0.0
11
1033.865
21
555.502
31
0.0
0
LINE
5
1bfb
8
0-0
6
CONTINUOUS
62
  7
10
1033.865
20
555.502
30
0.0
11
1034.080
21
556.651
31
0.0
0
LINE
5
1bfc
8
0-0
6
CONTINUOUS
62
  7
10
1034.080
20
556.651
30
0.0
11
1034.262
21
557.845
31
0.0
0
LINE
5
1bfd
8
0-0
6
CONTINUOUS
62
  7
10
1034.262
20
557.845
30
0.0
11
1034.416
21
559.094
31
0.0
0
LINE
5
1bfe
8
0-0
6
CONTINUOUS
62
  7
10
1034.416
20
559.094
30
0.0
11
1034.552
21
560.392
31
0.0
0
LINE
5
1bff
8
0-0
6
CONTINUOUS
62
  7
10
950.254
20
554.567
30
0.0
11
948.057
21
556.025
31
0.0
0
LINE
5
1c00
8
0-0
6
CONTINUOUS
62
  7
10
953.262
20
556.510
30
0.0
11
954.562
21
555.953
31
0.0
0
LINE
5
1c01
8
0-0
6
CONTINUOUS
62
  7
10
954.562
20
555.953
30
0.0
11
955.907
21
555.418
31
0.0
0
LINE
5
1c02
8
0-0
6
CONTINUOUS
62
  7
10
955.907
20
555.418
30
0.0
11
957.156
21
554.969
31
0.0
0
LINE
5
1c03
8
0-0
6
CONTINUOUS
62
  7
10
957.156
20
554.969
30
0.0
11
958.326
21
554.600
31
0.0
0
LINE
5
1c04
8
0-0
6
CONTINUOUS
62
  7
10
958.326
20
554.600
30
0.0
11
959.430
21
554.306
31
0.0
0
LINE
5
1c05
8
0-0
6
CONTINUOUS
62
  7
10
959.430
20
554.306
30
0.0
11
960.477
21
554.080
31
0.0
0
LINE
5
1c06
8
0-0
6
CONTINUOUS
62
  7
10
960.477
20
554.080
30
0.0
11
961.472
21
553.915
31
0.0
0
LINE
5
1c07
8
0-0
6
CONTINUOUS
62
  7
10
961.472
20
553.915
30
0.0
11
962.421
21
553.805
31
0.0
0
LINE
5
1c08
8
0-0
6
CONTINUOUS
62
  7
10
962.421
20
553.805
30
0.0
11
963.325
21
553.740
31
0.0
0
LINE
5
1c09
8
0-0
6
CONTINUOUS
62
  7
10
963.325
20
553.740
30
0.0
11
964.187
21
553.712
31
0.0
0
LINE
5
1c0a
8
0-0
6
CONTINUOUS
62
  7
10
964.187
20
553.712
30
0.0
11
965.007
21
553.713
31
0.0
0
LINE
5
1c0b
8
0-0
6
CONTINUOUS
62
  7
10
965.007
20
553.713
30
0.0
11
965.787
21
553.733
31
0.0
0
LINE
5
1c0c
8
0-0
6
CONTINUOUS
62
  7
10
965.787
20
553.733
30
0.0
11
966.528
21
553.765
31
0.0
0
LINE
5
1c0d
8
0-0
6
CONTINUOUS
62
  7
10
966.528
20
553.765
30
0.0
11
967.231
21
553.801
31
0.0
0
LINE
5
1c0e
8
0-0
6
CONTINUOUS
62
  7
10
967.231
20
553.801
30
0.0
11
967.897
21
553.834
31
0.0
0
LINE
5
1c0f
8
0-0
6
CONTINUOUS
62
  7
10
967.897
20
553.834
30
0.0
11
968.527
21
553.856
31
0.0
0
LINE
5
1c10
8
0-0
6
CONTINUOUS
62
  7
10
968.527
20
553.856
30
0.0
11
969.124
21
553.863
31
0.0
0
LINE
5
1c11
8
0-0
6
CONTINUOUS
62
  7
10
969.124
20
553.863
30
0.0
11
969.689
21
553.850
31
0.0
0
LINE
5
1c12
8
0-0
6
CONTINUOUS
62
  7
10
969.689
20
553.850
30
0.0
11
970.223
21
553.813
31
0.0
0
LINE
5
1c13
8
0-0
6
CONTINUOUS
62
  7
10
970.223
20
553.813
30
0.0
11
970.731
21
553.750
31
0.0
0
LINE
5
1c14
8
0-0
6
CONTINUOUS
62
  7
10
970.731
20
553.750
30
0.0
11
971.213
21
553.658
31
0.0
0
LINE
5
1c15
8
0-0
6
CONTINUOUS
62
  7
10
971.213
20
553.658
30
0.0
11
971.672
21
553.538
31
0.0
0
LINE
5
1c16
8
0-0
6
CONTINUOUS
62
  7
10
971.672
20
553.538
30
0.0
11
972.111
21
553.389
31
0.0
0
LINE
5
1c17
8
0-0
6
CONTINUOUS
62
  7
10
972.111
20
553.389
30
0.0
11
972.532
21
553.213
31
0.0
0
LINE
5
1c18
8
0-0
6
CONTINUOUS
62
  7
10
972.532
20
553.213
30
0.0
11
972.938
21
553.010
31
0.0
0
LINE
5
1c19
8
0-0
6
CONTINUOUS
62
  7
10
972.938
20
553.010
30
0.0
11
973.331
21
552.783
31
0.0
0
LINE
5
1c1a
8
0-0
6
CONTINUOUS
62
  7
10
973.331
20
552.783
30
0.0
11
973.713
21
552.534
31
0.0
0
LINE
5
1c1b
8
0-0
6
CONTINUOUS
62
  7
10
973.713
20
552.534
30
0.0
11
974.086
21
552.266
31
0.0
0
LINE
5
1c1c
8
0-0
6
CONTINUOUS
62
  7
10
974.086
20
552.266
30
0.0
11
974.453
21
551.982
31
0.0
0
LINE
5
1c1d
8
0-0
6
CONTINUOUS
62
  7
10
974.453
20
551.982
30
0.0
11
974.814
21
551.686
31
0.0
0
LINE
5
1c1e
8
0-0
6
CONTINUOUS
62
  7
10
974.814
20
551.686
30
0.0
11
975.171
21
551.381
31
0.0
0
LINE
5
1c1f
8
0-0
6
CONTINUOUS
62
  7
10
975.171
20
551.381
30
0.0
11
975.526
21
551.069
31
0.0
0
LINE
5
1c20
8
0-0
6
CONTINUOUS
62
  7
10
975.526
20
551.069
30
0.0
11
975.879
21
550.755
31
0.0
0
LINE
5
1c21
8
0-0
6
CONTINUOUS
62
  7
10
975.879
20
550.755
30
0.0
11
976.232
21
550.441
31
0.0
0
LINE
5
1c22
8
0-0
6
CONTINUOUS
62
  7
10
976.232
20
550.441
30
0.0
11
976.585
21
550.130
31
0.0
0
LINE
5
1c23
8
0-0
6
CONTINUOUS
62
  7
10
976.585
20
550.130
30
0.0
11
976.938
21
549.824
31
0.0
0
LINE
5
1c24
8
0-0
6
CONTINUOUS
62
  7
10
976.938
20
549.824
30
0.0
11
977.293
21
549.525
31
0.0
0
LINE
5
1c25
8
0-0
6
CONTINUOUS
62
  7
10
977.293
20
549.525
30
0.0
11
977.649
21
549.236
31
0.0
0
LINE
5
1c26
8
0-0
6
CONTINUOUS
62
  7
10
977.649
20
549.236
30
0.0
11
978.006
21
548.958
31
0.0
0
LINE
5
1c27
8
0-0
6
CONTINUOUS
62
  7
10
978.006
20
548.958
30
0.0
11
978.365
21
548.692
31
0.0
0
LINE
5
1c28
8
0-0
6
CONTINUOUS
62
  7
10
978.365
20
548.692
30
0.0
11
978.726
21
548.438
31
0.0
0
LINE
5
1c29
8
0-0
6
CONTINUOUS
62
  7
10
978.726
20
548.438
30
0.0
11
979.088
21
548.198
31
0.0
0
LINE
5
1c2a
8
0-0
6
CONTINUOUS
62
  7
10
979.088
20
548.198
30
0.0
11
979.451
21
547.970
31
0.0
0
LINE
5
1c2b
8
0-0
6
CONTINUOUS
62
  7
10
979.451
20
547.970
30
0.0
11
979.816
21
547.756
31
0.0
0
LINE
5
1c2c
8
0-0
6
CONTINUOUS
62
  7
10
979.816
20
547.756
30
0.0
11
980.181
21
547.554
31
0.0
0
LINE
5
1c2d
8
0-0
6
CONTINUOUS
62
  7
10
980.181
20
547.554
30
0.0
11
980.548
21
547.363
31
0.0
0
LINE
5
1c2e
8
0-0
6
CONTINUOUS
62
  7
10
980.548
20
547.363
30
0.0
11
980.916
21
547.182
31
0.0
0
LINE
5
1c2f
8
0-0
6
CONTINUOUS
62
  7
10
980.916
20
547.182
30
0.0
11
981.284
21
547.010
31
0.0
0
LINE
5
1c30
8
0-0
6
CONTINUOUS
62
  7
10
981.284
20
547.010
30
0.0
11
981.654
21
546.846
31
0.0
0
LINE
5
1c31
8
0-0
6
CONTINUOUS
62
  7
10
981.654
20
546.846
30
0.0
11
982.026
21
546.687
31
0.0
0
LINE
5
1c32
8
0-0
6
CONTINUOUS
62
  7
10
982.026
20
546.687
30
0.0
11
982.399
21
546.532
31
0.0
0
LINE
5
1c33
8
0-0
6
CONTINUOUS
62
  7
10
982.399
20
546.532
30
0.0
11
982.775
21
546.380
31
0.0
0
LINE
5
1c34
8
0-0
6
CONTINUOUS
62
  7
10
982.775
20
546.380
30
0.0
11
983.154
21
546.227
31
0.0
0
LINE
5
1c35
8
0-0
6
CONTINUOUS
62
  7
10
983.154
20
546.227
30
0.0
11
983.536
21
546.073
31
0.0
0
LINE
5
1c36
8
0-0
6
CONTINUOUS
62
  7
10
983.536
20
546.073
30
0.0
11
983.923
21
545.915
31
0.0
0
LINE
5
1c37
8
0-0
6
CONTINUOUS
62
  7
10
983.923
20
545.915
30
0.0
11
984.315
21
545.752
31
0.0
0
LINE
5
1c38
8
0-0
6
CONTINUOUS
62
  7
10
984.315
20
545.752
30
0.0
11
984.714
21
545.582
31
0.0
0
LINE
5
1c39
8
0-0
6
CONTINUOUS
62
  7
10
984.714
20
545.582
30
0.0
11
985.121
21
545.403
31
0.0
0
LINE
5
1c3a
8
0-0
6
CONTINUOUS
62
  7
10
985.121
20
545.403
30
0.0
11
985.537
21
545.216
31
0.0
0
LINE
5
1c3b
8
0-0
6
CONTINUOUS
62
  7
10
985.537
20
545.216
30
0.0
11
985.964
21
545.017
31
0.0
0
LINE
5
1c3c
8
0-0
6
CONTINUOUS
62
  7
10
985.964
20
545.017
30
0.0
11
986.404
21
544.807
31
0.0
0
LINE
5
1c3d
8
0-0
6
CONTINUOUS
62
  7
10
986.404
20
544.807
30
0.0
11
986.857
21
544.585
31
0.0
0
LINE
5
1c3e
8
0-0
6
CONTINUOUS
62
  7
10
986.857
20
544.585
30
0.0
11
987.325
21
544.351
31
0.0
0
LINE
5
1c3f
8
0-0
6
CONTINUOUS
62
  7
10
987.325
20
544.351
30
0.0
11
987.811
21
544.105
31
0.0
0
LINE
5
1c40
8
0-0
6
CONTINUOUS
62
  7
10
987.811
20
544.105
30
0.0
11
988.315
21
543.847
31
0.0
0
LINE
5
1c41
8
0-0
6
CONTINUOUS
62
  7
10
988.315
20
543.847
30
0.0
11
988.839
21
543.578
31
0.0
0
LINE
5
1c42
8
0-0
6
CONTINUOUS
62
  7
10
988.839
20
543.578
30
0.0
11
989.386
21
543.298
31
0.0
0
LINE
5
1c43
8
0-0
6
CONTINUOUS
62
  7
10
989.386
20
543.298
30
0.0
11
989.955
21
543.010
31
0.0
0
LINE
5
1c44
8
0-0
6
CONTINUOUS
62
  7
10
989.955
20
543.010
30
0.0
11
990.549
21
542.713
31
0.0
0
LINE
5
1c45
8
0-0
6
CONTINUOUS
62
  7
10
990.549
20
542.713
30
0.0
11
991.168
21
542.411
31
0.0
0
LINE
5
1c46
8
0-0
6
CONTINUOUS
62
  7
10
991.168
20
542.411
30
0.0
11
991.814
21
542.104
31
0.0
0
LINE
5
1c47
8
0-0
6
CONTINUOUS
62
  7
10
991.814
20
542.104
30
0.0
11
992.487
21
541.795
31
0.0
0
LINE
5
1c48
8
0-0
6
CONTINUOUS
62
  7
10
992.487
20
541.795
30
0.0
11
993.188
21
541.487
31
0.0
0
LINE
5
1c49
8
0-0
6
CONTINUOUS
62
  7
10
993.188
20
541.487
30
0.0
11
993.917
21
541.181
31
0.0
0
LINE
5
1c4a
8
0-0
6
CONTINUOUS
62
  7
10
993.917
20
541.181
30
0.0
11
994.674
21
540.880
31
0.0
0
LINE
5
1c4b
8
0-0
6
CONTINUOUS
62
  7
10
994.674
20
540.880
30
0.0
11
995.458
21
540.586
31
0.0
0
LINE
5
1c4c
8
0-0
6
CONTINUOUS
62
  7
10
995.458
20
540.586
30
0.0
11
996.270
21
540.304
31
0.0
0
LINE
5
1c4d
8
0-0
6
CONTINUOUS
62
  7
10
996.270
20
540.304
30
0.0
11
997.108
21
540.033
31
0.0
0
LINE
5
1c4e
8
0-0
6
CONTINUOUS
62
  7
10
997.108
20
540.033
30
0.0
11
997.971
21
539.778
31
0.0
0
LINE
5
1c4f
8
0-0
6
CONTINUOUS
62
  7
10
997.971
20
539.778
30
0.0
11
998.859
21
539.541
31
0.0
0
LINE
5
1c50
8
0-0
6
CONTINUOUS
62
  7
10
998.859
20
539.541
30
0.0
11
999.768
21
539.324
31
0.0
0
LINE
5
1c51
8
0-0
6
CONTINUOUS
62
  7
10
999.768
20
539.324
30
0.0
11
1000.699
21
539.128
31
0.0
0
LINE
5
1c52
8
0-0
6
CONTINUOUS
62
  7
10
1000.699
20
539.128
30
0.0
11
1001.647
21
538.957
31
0.0
0
LINE
5
1c53
8
0-0
6
CONTINUOUS
62
  7
10
1001.647
20
538.957
30
0.0
11
1002.612
21
538.812
31
0.0
0
LINE
5
1c54
8
0-0
6
CONTINUOUS
62
  7
10
1002.612
20
538.812
30
0.0
11
1003.591
21
538.694
31
0.0
0
LINE
5
1c55
8
0-0
6
CONTINUOUS
62
  7
10
1003.591
20
538.694
30
0.0
11
1004.582
21
538.605
31
0.0
0
LINE
5
1c56
8
0-0
6
CONTINUOUS
62
  7
10
1004.582
20
538.605
30
0.0
11
1005.581
21
538.545
31
0.0
0
LINE
5
1c57
8
0-0
6
CONTINUOUS
62
  7
10
1005.581
20
538.545
30
0.0
11
1006.585
21
538.516
31
0.0
0
LINE
5
1c58
8
0-0
6
CONTINUOUS
62
  7
10
1006.585
20
538.516
30
0.0
11
1007.593
21
538.519
31
0.0
0
LINE
5
1c59
8
0-0
6
CONTINUOUS
62
  7
10
1007.593
20
538.519
30
0.0
11
1008.601
21
538.553
31
0.0
0
LINE
5
1c5a
8
0-0
6
CONTINUOUS
62
  7
10
1008.601
20
538.553
30
0.0
11
1009.606
21
538.618
31
0.0
0
LINE
5
1c5b
8
0-0
6
CONTINUOUS
62
  7
10
1009.606
20
538.618
30
0.0
11
1010.606
21
538.715
31
0.0
0
LINE
5
1c5c
8
0-0
6
CONTINUOUS
62
  7
10
1010.606
20
538.715
30
0.0
11
1011.597
21
538.844
31
0.0
0
LINE
5
1c5d
8
0-0
6
CONTINUOUS
62
  7
10
1011.597
20
538.844
30
0.0
11
1012.578
21
539.003
31
0.0
0
LINE
5
1c5e
8
0-0
6
CONTINUOUS
62
  7
10
1012.578
20
539.003
30
0.0
11
1013.545
21
539.192
31
0.0
0
LINE
5
1c5f
8
0-0
6
CONTINUOUS
62
  7
10
1013.545
20
539.192
30
0.0
11
1014.495
21
539.411
31
0.0
0
LINE
5
1c60
8
0-0
6
CONTINUOUS
62
  7
10
1014.495
20
539.411
30
0.0
11
1015.428
21
539.659
31
0.0
0
LINE
5
1c61
8
0-0
6
CONTINUOUS
62
  7
10
1015.428
20
539.659
30
0.0
11
1016.340
21
539.935
31
0.0
0
LINE
5
1c62
8
0-0
6
CONTINUOUS
62
  7
10
1016.340
20
539.935
30
0.0
11
1017.231
21
540.238
31
0.0
0
LINE
5
1c63
8
0-0
6
CONTINUOUS
62
  7
10
1017.231
20
540.238
30
0.0
11
1018.097
21
540.567
31
0.0
0
LINE
5
1c64
8
0-0
6
CONTINUOUS
62
  7
10
1018.097
20
540.567
30
0.0
11
1018.938
21
540.922
31
0.0
0
LINE
5
1c65
8
0-0
6
CONTINUOUS
62
  7
10
1018.938
20
540.922
30
0.0
11
1019.753
21
541.302
31
0.0
0
LINE
5
1c66
8
0-0
6
CONTINUOUS
62
  7
10
1019.753
20
541.302
30
0.0
11
1020.541
21
541.706
31
0.0
0
LINE
5
1c67
8
0-0
6
CONTINUOUS
62
  7
10
1020.541
20
541.706
30
0.0
11
1021.301
21
542.135
31
0.0
0
LINE
5
1c68
8
0-0
6
CONTINUOUS
62
  7
10
1021.301
20
542.135
30
0.0
11
1022.032
21
542.586
31
0.0
0
LINE
5
1c69
8
0-0
6
CONTINUOUS
62
  7
10
1022.032
20
542.586
30
0.0
11
1022.736
21
543.061
31
0.0
0
LINE
5
1c6a
8
0-0
6
CONTINUOUS
62
  7
10
1022.736
20
543.061
30
0.0
11
1023.411
21
543.560
31
0.0
0
LINE
5
1c6b
8
0-0
6
CONTINUOUS
62
  7
10
1023.411
20
543.560
30
0.0
11
1024.058
21
544.082
31
0.0
0
LINE
5
1c6c
8
0-0
6
CONTINUOUS
62
  7
10
1024.058
20
544.082
30
0.0
11
1024.679
21
544.627
31
0.0
0
LINE
5
1c6d
8
0-0
6
CONTINUOUS
62
  7
10
1024.679
20
544.627
30
0.0
11
1025.272
21
545.197
31
0.0
0
LINE
5
1c6e
8
0-0
6
CONTINUOUS
62
  7
10
1025.272
20
545.197
30
0.0
11
1025.839
21
545.792
31
0.0
0
LINE
5
1c6f
8
0-0
6
CONTINUOUS
62
  7
10
1025.839
20
545.792
30
0.0
11
1026.381
21
546.412
31
0.0
0
LINE
5
1c70
8
0-0
6
CONTINUOUS
62
  7
10
1026.381
20
546.412
30
0.0
11
1026.898
21
547.058
31
0.0
0
LINE
5
1c71
8
0-0
6
CONTINUOUS
62
  7
10
1026.898
20
547.058
30
0.0
11
1027.391
21
547.731
31
0.0
0
LINE
5
1c72
8
0-0
6
CONTINUOUS
62
  7
10
1027.391
20
547.731
30
0.0
11
1027.861
21
548.431
31
0.0
0
LINE
5
1c73
8
0-0
6
CONTINUOUS
62
  7
10
1027.861
20
548.431
30
0.0
11
1028.306
21
549.159
31
0.0
0
LINE
5
1c74
8
0-0
6
CONTINUOUS
62
  7
10
1028.306
20
549.159
30
0.0
11
1028.728
21
549.916
31
0.0
0
LINE
5
1c75
8
0-0
6
CONTINUOUS
62
  7
10
1028.728
20
549.916
30
0.0
11
1029.125
21
550.703
31
0.0
0
LINE
5
1c76
8
0-0
6
CONTINUOUS
62
  7
10
1029.125
20
550.703
30
0.0
11
1029.496
21
551.520
31
0.0
0
LINE
5
1c77
8
0-0
6
CONTINUOUS
62
  7
10
1029.496
20
551.520
30
0.0
11
1029.841
21
552.368
31
0.0
0
LINE
5
1c78
8
0-0
6
CONTINUOUS
62
  7
10
1029.841
20
552.368
30
0.0
11
1030.157
21
553.248
31
0.0
0
LINE
5
1c79
8
0-0
6
CONTINUOUS
62
  7
10
1030.157
20
553.248
30
0.0
11
1030.444
21
554.163
31
0.0
0
LINE
5
1c7a
8
0-0
6
CONTINUOUS
62
  7
10
1030.444
20
554.163
30
0.0
11
1030.701
21
555.116
31
0.0
0
LINE
5
1c7b
8
0-0
6
CONTINUOUS
62
  7
10
1030.701
20
555.116
30
0.0
11
1030.927
21
556.110
31
0.0
0
LINE
5
1c7c
8
0-0
6
CONTINUOUS
62
  7
10
1030.927
20
556.110
30
0.0
11
1031.122
21
557.153
31
0.0
0
LINE
5
1c7d
8
0-0
6
CONTINUOUS
62
  7
10
1031.122
20
557.153
30
0.0
11
1031.290
21
558.255
31
0.0
0
LINE
5
1c7e
8
0-0
6
CONTINUOUS
62
  7
10
1031.290
20
558.255
30
0.0
11
1031.435
21
559.432
31
0.0
0
LINE
5
1c7f
8
0-0
6
CONTINUOUS
62
  7
10
1031.435
20
559.432
30
0.0
11
1031.568
21
560.703
31
0.0
0
LINE
5
1c80
8
0-0
6
CONTINUOUS
62
  7
10
913.677
20
572.835
30
0.0
11
913.872
21
571.612
31
0.0
0
LINE
5
1c81
8
0-0
6
CONTINUOUS
62
  7
10
913.872
20
571.612
30
0.0
11
914.117
21
570.413
31
0.0
0
LINE
5
1c82
8
0-0
6
CONTINUOUS
62
  7
10
914.117
20
570.413
30
0.0
11
914.410
21
569.240
31
0.0
0
LINE
5
1c83
8
0-0
6
CONTINUOUS
62
  7
10
914.410
20
569.240
30
0.0
11
914.750
21
568.097
31
0.0
0
LINE
5
1c84
8
0-0
6
CONTINUOUS
62
  7
10
914.750
20
568.097
30
0.0
11
915.133
21
566.984
31
0.0
0
LINE
5
1c85
8
0-0
6
CONTINUOUS
62
  7
10
915.133
20
566.984
30
0.0
11
915.557
21
565.902
31
0.0
0
LINE
5
1c86
8
0-0
6
CONTINUOUS
62
  7
10
915.557
20
565.902
30
0.0
11
916.020
21
564.852
31
0.0
0
LINE
5
1c87
8
0-0
6
CONTINUOUS
62
  7
10
916.020
20
564.852
30
0.0
11
916.522
21
563.833
31
0.0
0
LINE
5
1c88
8
0-0
6
CONTINUOUS
62
  7
10
916.522
20
563.833
30
0.0
11
917.061
21
562.845
31
0.0
0
LINE
5
1c89
8
0-0
6
CONTINUOUS
62
  7
10
917.061
20
562.845
30
0.0
11
917.639
21
561.887
31
0.0
0
LINE
5
1c8a
8
0-0
6
CONTINUOUS
62
  7
10
917.639
20
561.887
30
0.0
11
918.256
21
560.959
31
0.0
0
LINE
5
1c8b
8
0-0
6
CONTINUOUS
62
  7
10
918.256
20
560.959
30
0.0
11
918.913
21
560.060
31
0.0
0
LINE
5
1c8c
8
0-0
6
CONTINUOUS
62
  7
10
918.913
20
560.060
30
0.0
11
919.612
21
559.188
31
0.0
0
LINE
5
1c8d
8
0-0
6
CONTINUOUS
62
  7
10
919.612
20
559.188
30
0.0
11
920.353
21
558.344
31
0.0
0
LINE
5
1c8e
8
0-0
6
CONTINUOUS
62
  7
10
920.353
20
558.344
30
0.0
11
921.138
21
557.526
31
0.0
0
LINE
5
1c8f
8
0-0
6
CONTINUOUS
62
  7
10
921.138
20
557.526
30
0.0
11
921.968
21
556.735
31
0.0
0
LINE
5
1c90
8
0-0
6
CONTINUOUS
62
  7
10
921.968
20
556.735
30
0.0
11
922.843
21
555.970
31
0.0
0
LINE
5
1c91
8
0-0
6
CONTINUOUS
62
  7
10
922.843
20
555.970
30
0.0
11
923.763
21
555.233
31
0.0
0
LINE
5
1c92
8
0-0
6
CONTINUOUS
62
  7
10
923.763
20
555.233
30
0.0
11
924.728
21
554.522
31
0.0
0
LINE
5
1c93
8
0-0
6
CONTINUOUS
62
  7
10
924.728
20
554.522
30
0.0
11
925.737
21
553.840
31
0.0
0
LINE
5
1c94
8
0-0
6
CONTINUOUS
62
  7
10
925.737
20
553.840
30
0.0
11
926.787
21
553.185
31
0.0
0
LINE
5
1c95
8
0-0
6
CONTINUOUS
62
  7
10
926.787
20
553.185
30
0.0
11
927.877
21
552.559
31
0.0
0
LINE
5
1c96
8
0-0
6
CONTINUOUS
62
  7
10
927.877
20
552.559
30
0.0
11
929.005
21
551.963
31
0.0
0
LINE
5
1c97
8
0-0
6
CONTINUOUS
62
  7
10
929.005
20
551.963
30
0.0
11
930.166
21
551.397
31
0.0
0
LINE
5
1c98
8
0-0
6
CONTINUOUS
62
  7
10
930.166
20
551.397
30
0.0
11
931.358
21
550.861
31
0.0
0
LINE
5
1c99
8
0-0
6
CONTINUOUS
62
  7
10
931.358
20
550.861
30
0.0
11
932.578
21
550.356
31
0.0
0
LINE
5
1c9a
8
0-0
6
CONTINUOUS
62
  7
10
932.578
20
550.356
30
0.0
11
933.821
21
549.883
31
0.0
0
LINE
5
1c9b
8
0-0
6
CONTINUOUS
62
  7
10
933.821
20
549.883
30
0.0
11
935.084
21
549.441
31
0.0
0
LINE
5
1c9c
8
0-0
6
CONTINUOUS
62
  7
10
935.084
20
549.441
30
0.0
11
936.363
21
549.029
31
0.0
0
LINE
5
1c9d
8
0-0
6
CONTINUOUS
62
  7
10
936.363
20
549.029
30
0.0
11
937.654
21
548.649
31
0.0
0
LINE
5
1c9e
8
0-0
6
CONTINUOUS
62
  7
10
937.654
20
548.649
30
0.0
11
938.956
21
548.298
31
0.0
0
LINE
5
1c9f
8
0-0
6
CONTINUOUS
62
  7
10
938.956
20
548.298
30
0.0
11
940.263
21
547.977
31
0.0
0
LINE
5
1ca0
8
0-0
6
CONTINUOUS
62
  7
10
940.263
20
547.977
30
0.0
11
941.574
21
547.684
31
0.0
0
LINE
5
1ca1
8
0-0
6
CONTINUOUS
62
  7
10
941.574
20
547.684
30
0.0
11
942.887
21
547.419
31
0.0
0
LINE
5
1ca2
8
0-0
6
CONTINUOUS
62
  7
10
942.887
20
547.419
30
0.0
11
944.198
21
547.181
31
0.0
0
LINE
5
1ca3
8
0-0
6
CONTINUOUS
62
  7
10
944.198
20
547.181
30
0.0
11
945.505
21
546.968
31
0.0
0
LINE
5
1ca4
8
0-0
6
CONTINUOUS
62
  7
10
945.505
20
546.968
30
0.0
11
946.807
21
546.779
31
0.0
0
LINE
5
1ca5
8
0-0
6
CONTINUOUS
62
  7
10
946.807
20
546.779
30
0.0
11
948.101
21
546.614
31
0.0
0
LINE
5
1ca6
8
0-0
6
CONTINUOUS
62
  7
10
948.101
20
546.614
30
0.0
11
949.384
21
546.471
31
0.0
0
LINE
5
1ca7
8
0-0
6
CONTINUOUS
62
  7
10
949.384
20
546.471
30
0.0
11
950.654
21
546.351
31
0.0
0
LINE
5
1ca8
8
0-0
6
CONTINUOUS
62
  7
10
950.654
20
546.351
30
0.0
11
951.908
21
546.252
31
0.0
0
LINE
5
1ca9
8
0-0
6
CONTINUOUS
62
  7
10
951.908
20
546.252
30
0.0
11
953.142
21
546.175
31
0.0
0
LINE
5
1caa
8
0-0
6
CONTINUOUS
62
  7
10
953.142
20
546.175
30
0.0
11
954.350
21
546.119
31
0.0
0
LINE
5
1cab
8
0-0
6
CONTINUOUS
62
  7
10
954.350
20
546.119
30
0.0
11
955.529
21
546.085
31
0.0
0
LINE
5
1cac
8
0-0
6
CONTINUOUS
62
  7
10
955.529
20
546.085
30
0.0
11
956.671
21
546.072
31
0.0
0
LINE
5
1cad
8
0-0
6
CONTINUOUS
62
  7
10
956.671
20
546.072
30
0.0
11
957.769
21
546.083
31
0.0
0
LINE
5
1cae
8
0-0
6
CONTINUOUS
62
  7
10
957.769
20
546.083
30
0.0
11
958.817
21
546.116
31
0.0
0
LINE
5
1caf
8
0-0
6
CONTINUOUS
62
  7
10
958.817
20
546.116
30
0.0
11
959.805
21
546.172
31
0.0
0
LINE
5
1cb0
8
0-0
6
CONTINUOUS
62
  7
10
959.805
20
546.172
30
0.0
11
960.725
21
546.252
31
0.0
0
LINE
5
1cb1
8
0-0
6
CONTINUOUS
62
  7
10
960.725
20
546.252
30
0.0
11
961.569
21
546.355
31
0.0
0
LINE
5
1cb2
8
0-0
6
CONTINUOUS
62
  7
10
961.569
20
546.355
30
0.0
11
962.330
21
546.479
31
0.0
0
LINE
5
1cb3
8
0-0
6
CONTINUOUS
62
  7
10
962.330
20
546.479
30
0.0
11
963.003
21
546.622
31
0.0
0
LINE
5
1cb4
8
0-0
6
CONTINUOUS
62
  7
10
963.003
20
546.622
30
0.0
11
963.584
21
546.781
31
0.0
0
LINE
5
1cb5
8
0-0
6
CONTINUOUS
62
  7
10
963.584
20
546.781
30
0.0
11
964.076
21
546.947
31
0.0
0
LINE
5
1cb6
8
0-0
6
CONTINUOUS
62
  7
10
913.677
20
572.835
30
0.0
11
913.872
21
570.557
31
0.0
0
LINE
5
1cb7
8
0-0
6
CONTINUOUS
62
  7
10
913.872
20
570.557
30
0.0
11
914.121
21
568.459
31
0.0
0
LINE
5
1cb8
8
0-0
6
CONTINUOUS
62
  7
10
914.121
20
568.459
30
0.0
11
914.424
21
566.520
31
0.0
0
LINE
5
1cb9
8
0-0
6
CONTINUOUS
62
  7
10
914.424
20
566.520
30
0.0
11
914.784
21
564.721
31
0.0
0
LINE
5
1cba
8
0-0
6
CONTINUOUS
62
  7
10
914.784
20
564.721
30
0.0
11
915.201
21
563.046
31
0.0
0
LINE
5
1cbb
8
0-0
6
CONTINUOUS
62
  7
10
915.201
20
563.046
30
0.0
11
915.674
21
561.482
31
0.0
0
LINE
5
1cbc
8
0-0
6
CONTINUOUS
62
  7
10
915.674
20
561.482
30
0.0
11
916.203
21
560.016
31
0.0
0
LINE
5
1cbd
8
0-0
6
CONTINUOUS
62
  7
10
916.203
20
560.016
30
0.0
11
916.788
21
558.638
31
0.0
0
LINE
5
1cbe
8
0-0
6
CONTINUOUS
62
  7
10
916.788
20
558.638
30
0.0
11
917.428
21
557.340
31
0.0
0
LINE
5
1cbf
8
0-0
6
CONTINUOUS
62
  7
10
917.428
20
557.340
30
0.0
11
918.122
21
556.113
31
0.0
0
LINE
5
1cc0
8
0-0
6
CONTINUOUS
62
  7
10
918.122
20
556.113
30
0.0
11
918.868
21
554.952
31
0.0
0
LINE
5
1cc1
8
0-0
6
CONTINUOUS
62
  7
10
918.868
20
554.952
30
0.0
11
919.665
21
553.851
31
0.0
0
LINE
5
1cc2
8
0-0
6
CONTINUOUS
62
  7
10
919.665
20
553.851
30
0.0
11
920.509
21
552.806
31
0.0
0
LINE
5
1cc3
8
0-0
6
CONTINUOUS
62
  7
10
920.509
20
552.806
30
0.0
11
921.399
21
551.813
31
0.0
0
LINE
5
1cc4
8
0-0
6
CONTINUOUS
62
  7
10
921.399
20
551.813
30
0.0
11
922.331
21
550.869
31
0.0
0
LINE
5
1cc5
8
0-0
6
CONTINUOUS
62
  7
10
922.331
20
550.869
30
0.0
11
923.302
21
549.972
31
0.0
0
LINE
5
1cc6
8
0-0
6
CONTINUOUS
62
  7
10
923.302
20
549.972
30
0.0
11
924.309
21
549.120
31
0.0
0
LINE
5
1cc7
8
0-0
6
CONTINUOUS
62
  7
10
924.309
20
549.120
30
0.0
11
925.346
21
548.313
31
0.0
0
LINE
5
1cc8
8
0-0
6
CONTINUOUS
62
  7
10
925.346
20
548.313
30
0.0
11
926.411
21
547.550
31
0.0
0
LINE
5
1cc9
8
0-0
6
CONTINUOUS
62
  7
10
926.411
20
547.550
30
0.0
11
927.498
21
546.830
31
0.0
0
LINE
5
1cca
8
0-0
6
CONTINUOUS
62
  7
10
927.498
20
546.830
30
0.0
11
928.605
21
546.153
31
0.0
0
LINE
5
1ccb
8
0-0
6
CONTINUOUS
62
  7
10
928.605
20
546.153
30
0.0
11
929.727
21
545.519
31
0.0
0
LINE
5
1ccc
8
0-0
6
CONTINUOUS
62
  7
10
929.727
20
545.519
30
0.0
11
930.861
21
544.928
31
0.0
0
LINE
5
1ccd
8
0-0
6
CONTINUOUS
62
  7
10
930.861
20
544.928
30
0.0
11
932.002
21
544.379
31
0.0
0
LINE
5
1cce
8
0-0
6
CONTINUOUS
62
  7
10
932.002
20
544.379
30
0.0
11
933.148
21
543.874
31
0.0
0
LINE
5
1ccf
8
0-0
6
CONTINUOUS
62
  7
10
933.148
20
543.874
30
0.0
11
934.296
21
543.411
31
0.0
0
LINE
5
1cd0
8
0-0
6
CONTINUOUS
62
  7
10
934.296
20
543.411
30
0.0
11
935.443
21
542.992
31
0.0
0
LINE
5
1cd1
8
0-0
6
CONTINUOUS
62
  7
10
935.443
20
542.992
30
0.0
11
936.589
21
542.615
31
0.0
0
LINE
5
1cd2
8
0-0
6
CONTINUOUS
62
  7
10
936.589
20
542.615
30
0.0
11
937.730
21
542.280
31
0.0
0
LINE
5
1cd3
8
0-0
6
CONTINUOUS
62
  7
10
937.730
20
542.280
30
0.0
11
938.866
21
541.987
31
0.0
0
LINE
5
1cd4
8
0-0
6
CONTINUOUS
62
  7
10
938.866
20
541.987
30
0.0
11
939.997
21
541.735
31
0.0
0
LINE
5
1cd5
8
0-0
6
CONTINUOUS
62
  7
10
939.997
20
541.735
30
0.0
11
941.121
21
541.524
31
0.0
0
LINE
5
1cd6
8
0-0
6
CONTINUOUS
62
  7
10
941.121
20
541.524
30
0.0
11
942.239
21
541.353
31
0.0
0
LINE
5
1cd7
8
0-0
6
CONTINUOUS
62
  7
10
942.239
20
541.353
30
0.0
11
943.351
21
541.221
31
0.0
0
LINE
5
1cd8
8
0-0
6
CONTINUOUS
62
  7
10
943.351
20
541.221
30
0.0
11
944.458
21
541.127
31
0.0
0
LINE
5
1cd9
8
0-0
6
CONTINUOUS
62
  7
10
944.458
20
541.127
30
0.0
11
945.558
21
541.071
31
0.0
0
LINE
5
1cda
8
0-0
6
CONTINUOUS
62
  7
10
945.558
20
541.071
30
0.0
11
946.654
21
541.051
31
0.0
0
LINE
5
1cdb
8
0-0
6
CONTINUOUS
62
  7
10
946.654
20
541.051
30
0.0
11
947.744
21
541.067
31
0.0
0
LINE
5
1cdc
8
0-0
6
CONTINUOUS
62
  7
10
947.744
20
541.067
30
0.0
11
948.830
21
541.117
31
0.0
0
LINE
5
1cdd
8
0-0
6
CONTINUOUS
62
  7
10
948.830
20
541.117
30
0.0
11
949.909
21
541.202
31
0.0
0
LINE
5
1cde
8
0-0
6
CONTINUOUS
62
  7
10
949.909
20
541.202
30
0.0
11
950.982
21
541.319
31
0.0
0
LINE
5
1cdf
8
0-0
6
CONTINUOUS
62
  7
10
950.982
20
541.319
30
0.0
11
952.048
21
541.469
31
0.0
0
LINE
5
1ce0
8
0-0
6
CONTINUOUS
62
  7
10
952.048
20
541.469
30
0.0
11
953.103
21
541.651
31
0.0
0
LINE
5
1ce1
8
0-0
6
CONTINUOUS
62
  7
10
953.103
20
541.651
30
0.0
11
954.147
21
541.864
31
0.0
0
LINE
5
1ce2
8
0-0
6
CONTINUOUS
62
  7
10
954.147
20
541.864
30
0.0
11
955.176
21
542.107
31
0.0
0
LINE
5
1ce3
8
0-0
6
CONTINUOUS
62
  7
10
955.176
20
542.107
30
0.0
11
956.187
21
542.379
31
0.0
0
LINE
5
1ce4
8
0-0
6
CONTINUOUS
62
  7
10
956.187
20
542.379
30
0.0
11
957.176
21
542.680
31
0.0
0
LINE
5
1ce5
8
0-0
6
CONTINUOUS
62
  7
10
957.176
20
542.680
30
0.0
11
958.138
21
543.008
31
0.0
0
LINE
5
1ce6
8
0-0
6
CONTINUOUS
62
  7
10
958.138
20
543.008
30
0.0
11
959.069
21
543.362
31
0.0
0
LINE
5
1ce7
8
0-0
6
CONTINUOUS
62
  7
10
959.069
20
543.362
30
0.0
11
959.964
21
543.739
31
0.0
0
LINE
5
1ce8
8
0-0
6
CONTINUOUS
62
  7
10
959.964
20
543.739
30
0.0
11
960.818
21
544.139
31
0.0
0
LINE
5
1ce9
8
0-0
6
CONTINUOUS
62
  7
10
960.818
20
544.139
30
0.0
11
961.627
21
544.558
31
0.0
0
LINE
5
1cea
8
0-0
6
CONTINUOUS
62
  7
10
961.627
20
544.558
30
0.0
11
962.385
21
544.994
31
0.0
0
LINE
5
1ceb
8
0-0
6
CONTINUOUS
62
  7
10
962.385
20
544.994
30
0.0
11
963.088
21
545.442
31
0.0
0
LINE
5
1cec
8
0-0
6
CONTINUOUS
62
  7
10
963.088
20
545.442
30
0.0
11
963.732
21
545.897
31
0.0
0
LINE
5
1ced
8
0-0
6
CONTINUOUS
62
  7
10
963.732
20
545.897
30
0.0
11
964.310
21
546.355
31
0.0
0
LINE
5
1cee
8
0-0
6
CONTINUOUS
62
  7
10
964.310
20
546.355
30
0.0
11
964.817
21
546.808
31
0.0
0
LINE
5
1cef
8
0-0
6
CONTINUOUS
62
  7
10
964.817
20
546.808
30
0.0
11
965.247
21
547.248
31
0.0
0
LINE
5
1cf0
8
0-0
6
CONTINUOUS
62
  7
10
965.247
20
547.248
30
0.0
11
965.588
21
547.665
31
0.0
0
LINE
5
1cf1
8
0-0
6
CONTINUOUS
62
  7
10
930.387
20
520.497
30
0.0
11
932.525
21
520.378
31
0.0
0
LINE
5
1cf2
8
0-0
6
CONTINUOUS
62
  7
10
932.525
20
520.378
30
0.0
11
934.607
21
520.310
31
0.0
0
LINE
5
1cf3
8
0-0
6
CONTINUOUS
62
  7
10
934.607
20
520.310
30
0.0
11
936.633
21
520.288
31
0.0
0
LINE
5
1cf4
8
0-0
6
CONTINUOUS
62
  7
10
936.633
20
520.288
30
0.0
11
938.600
21
520.310
31
0.0
0
LINE
5
1cf5
8
0-0
6
CONTINUOUS
62
  7
10
938.600
20
520.310
30
0.0
11
940.506
21
520.373
31
0.0
0
LINE
5
1cf6
8
0-0
6
CONTINUOUS
62
  7
10
940.506
20
520.373
30
0.0
11
942.350
21
520.473
31
0.0
0
LINE
5
1cf7
8
0-0
6
CONTINUOUS
62
  7
10
942.350
20
520.473
30
0.0
11
944.133
21
520.606
31
0.0
0
LINE
5
1cf8
8
0-0
6
CONTINUOUS
62
  7
10
944.133
20
520.606
30
0.0
11
945.854
21
520.770
31
0.0
0
LINE
5
1cf9
8
0-0
6
CONTINUOUS
62
  7
10
945.854
20
520.770
30
0.0
11
947.514
21
520.963
31
0.0
0
LINE
5
1cfa
8
0-0
6
CONTINUOUS
62
  7
10
947.514
20
520.963
30
0.0
11
949.117
21
521.181
31
0.0
0
LINE
5
1cfb
8
0-0
6
CONTINUOUS
62
  7
10
949.117
20
521.181
30
0.0
11
950.662
21
521.423
31
0.0
0
LINE
5
1cfc
8
0-0
6
CONTINUOUS
62
  7
10
950.662
20
521.423
30
0.0
11
952.154
21
521.687
31
0.0
0
LINE
5
1cfd
8
0-0
6
CONTINUOUS
62
  7
10
952.154
20
521.687
30
0.0
11
953.593
21
521.972
31
0.0
0
LINE
5
1cfe
8
0-0
6
CONTINUOUS
62
  7
10
953.593
20
521.972
30
0.0
11
954.984
21
522.275
31
0.0
0
LINE
5
1cff
8
0-0
6
CONTINUOUS
62
  7
10
954.984
20
522.275
30
0.0
11
956.328
21
522.598
31
0.0
0
LINE
5
1d00
8
0-0
6
CONTINUOUS
62
  7
10
956.328
20
522.598
30
0.0
11
957.628
21
522.938
31
0.0
0
LINE
5
1d01
8
0-0
6
CONTINUOUS
62
  7
10
957.628
20
522.938
30
0.0
11
958.885
21
523.297
31
0.0
0
LINE
5
1d02
8
0-0
6
CONTINUOUS
62
  7
10
958.885
20
523.297
30
0.0
11
960.101
21
523.672
31
0.0
0
LINE
5
1d03
8
0-0
6
CONTINUOUS
62
  7
10
960.101
20
523.672
30
0.0
11
961.278
21
524.066
31
0.0
0
LINE
5
1d04
8
0-0
6
CONTINUOUS
62
  7
10
961.278
20
524.066
30
0.0
11
962.417
21
524.478
31
0.0
0
LINE
5
1d05
8
0-0
6
CONTINUOUS
62
  7
10
962.417
20
524.478
30
0.0
11
963.517
21
524.908
31
0.0
0
LINE
5
1d06
8
0-0
6
CONTINUOUS
62
  7
10
963.517
20
524.908
30
0.0
11
964.579
21
525.358
31
0.0
0
LINE
5
1d07
8
0-0
6
CONTINUOUS
62
  7
10
964.579
20
525.358
30
0.0
11
965.604
21
525.829
31
0.0
0
LINE
5
1d08
8
0-0
6
CONTINUOUS
62
  7
10
965.604
20
525.829
30
0.0
11
966.588
21
526.322
31
0.0
0
LINE
5
1d09
8
0-0
6
CONTINUOUS
62
  7
10
966.588
20
526.322
30
0.0
11
967.534
21
526.838
31
0.0
0
LINE
5
1d0a
8
0-0
6
CONTINUOUS
62
  7
10
967.534
20
526.838
30
0.0
11
968.438
21
527.379
31
0.0
0
LINE
5
1d0b
8
0-0
6
CONTINUOUS
62
  7
10
968.438
20
527.379
30
0.0
11
969.301
21
527.946
31
0.0
0
LINE
5
1d0c
8
0-0
6
CONTINUOUS
62
  7
10
969.301
20
527.946
30
0.0
11
970.121
21
528.540
31
0.0
0
LINE
5
1d0d
8
0-0
6
CONTINUOUS
62
  7
10
970.121
20
528.540
30
0.0
11
970.897
21
529.162
31
0.0
0
LINE
5
1d0e
8
0-0
6
CONTINUOUS
62
  7
10
970.897
20
529.162
30
0.0
11
971.628
21
529.815
31
0.0
0
LINE
5
1d0f
8
0-0
6
CONTINUOUS
62
  7
10
971.628
20
529.815
30
0.0
11
972.313
21
530.497
31
0.0
0
LINE
5
1d10
8
0-0
6
CONTINUOUS
62
  7
10
972.313
20
530.497
30
0.0
11
972.953
21
531.210
31
0.0
0
LINE
5
1d11
8
0-0
6
CONTINUOUS
62
  7
10
972.953
20
531.210
30
0.0
11
973.547
21
531.952
31
0.0
0
LINE
5
1d12
8
0-0
6
CONTINUOUS
62
  7
10
973.547
20
531.952
30
0.0
11
974.095
21
532.722
31
0.0
0
LINE
5
1d13
8
0-0
6
CONTINUOUS
62
  7
10
974.095
20
532.722
30
0.0
11
974.596
21
533.516
31
0.0
0
LINE
5
1d14
8
0-0
6
CONTINUOUS
62
  7
10
974.596
20
533.516
30
0.0
11
975.052
21
534.332
31
0.0
0
LINE
5
1d15
8
0-0
6
CONTINUOUS
62
  7
10
975.052
20
534.332
30
0.0
11
975.462
21
535.161
31
0.0
0
LINE
5
1d16
8
0-0
6
CONTINUOUS
62
  7
10
975.462
20
535.161
30
0.0
11
975.826
21
535.996
31
0.0
0
LINE
5
1d17
8
0-0
6
CONTINUOUS
62
  7
10
975.826
20
535.996
30
0.0
11
976.144
21
536.825
31
0.0
0
LINE
5
1d18
8
0-0
6
CONTINUOUS
62
  7
10
976.144
20
536.825
30
0.0
11
976.414
21
537.635
31
0.0
0
LINE
5
1d19
8
0-0
6
CONTINUOUS
62
  7
10
976.414
20
537.635
30
0.0
11
976.633
21
538.406
31
0.0
0
LINE
5
1d1a
8
0-0
6
CONTINUOUS
62
  7
10
976.633
20
538.406
30
0.0
11
976.799
21
539.118
31
0.0
0
LINE
5
1d1b
8
0-0
6
CONTINUOUS
62
  7
10
976.799
20
539.118
30
0.0
11
976.904
21
539.742
31
0.0
0
LINE
5
1d1c
8
0-0
6
CONTINUOUS
62
  7
10
976.904
20
539.742
30
0.0
11
976.941
21
540.247
31
0.0
0
LINE
5
1d1d
8
0-0
6
CONTINUOUS
62
  7
10
930.387
20
520.497
30
0.0
11
933.129
21
519.708
31
0.0
0
LINE
5
1d1e
8
0-0
6
CONTINUOUS
62
  7
10
933.129
20
519.708
30
0.0
11
935.744
21
519.058
31
0.0
0
LINE
5
1d1f
8
0-0
6
CONTINUOUS
62
  7
10
935.744
20
519.058
30
0.0
11
938.241
21
518.528
31
0.0
0
LINE
5
1d20
8
0-0
6
CONTINUOUS
62
  7
10
938.241
20
518.528
30
0.0
11
940.627
21
518.105
31
0.0
0
LINE
5
1d21
8
0-0
6
CONTINUOUS
62
  7
10
940.627
20
518.105
30
0.0
11
942.913
21
517.778
31
0.0
0
LINE
5
1d22
8
0-0
6
CONTINUOUS
62
  7
10
942.913
20
517.778
30
0.0
11
945.108
21
517.538
31
0.0
0
LINE
5
1d23
8
0-0
6
CONTINUOUS
62
  7
10
945.108
20
517.538
30
0.0
11
947.221
21
517.378
31
0.0
0
LINE
5
1d24
8
0-0
6
CONTINUOUS
62
  7
10
947.221
20
517.378
30
0.0
11
949.263
21
517.292
31
0.0
0
LINE
5
1d25
8
0-0
6
CONTINUOUS
62
  7
10
949.263
20
517.292
30
0.0
11
951.240
21
517.276
31
0.0
0
LINE
5
1d26
8
0-0
6
CONTINUOUS
62
  7
10
951.240
20
517.276
30
0.0
11
953.161
21
517.327
31
0.0
0
LINE
5
1d27
8
0-0
6
CONTINUOUS
62
  7
10
953.161
20
517.327
30
0.0
11
955.030
21
517.441
31
0.0
0
LINE
5
1d28
8
0-0
6
CONTINUOUS
62
  7
10
955.030
20
517.441
30
0.0
11
956.853
21
517.615
31
0.0
0
LINE
5
1d29
8
0-0
6
CONTINUOUS
62
  7
10
956.853
20
517.615
30
0.0
11
958.632
21
517.848
31
0.0
0
LINE
5
1d2a
8
0-0
6
CONTINUOUS
62
  7
10
958.632
20
517.848
30
0.0
11
960.370
21
518.137
31
0.0
0
LINE
5
1d2b
8
0-0
6
CONTINUOUS
62
  7
10
960.370
20
518.137
30
0.0
11
962.067
21
518.480
31
0.0
0
LINE
5
1d2c
8
0-0
6
CONTINUOUS
62
  7
10
962.067
20
518.480
30
0.0
11
963.722
21
518.876
31
0.0
0
LINE
5
1d2d
8
0-0
6
CONTINUOUS
62
  7
10
963.722
20
518.876
30
0.0
11
965.333
21
519.322
31
0.0
0
LINE
5
1d2e
8
0-0
6
CONTINUOUS
62
  7
10
965.333
20
519.322
30
0.0
11
966.898
21
519.816
31
0.0
0
LINE
5
1d2f
8
0-0
6
CONTINUOUS
62
  7
10
966.898
20
519.816
30
0.0
11
968.413
21
520.356
31
0.0
0
LINE
5
1d30
8
0-0
6
CONTINUOUS
62
  7
10
968.413
20
520.356
30
0.0
11
969.873
21
520.939
31
0.0
0
LINE
5
1d31
8
0-0
6
CONTINUOUS
62
  7
10
969.873
20
520.939
30
0.0
11
971.275
21
521.562
31
0.0
0
LINE
5
1d32
8
0-0
6
CONTINUOUS
62
  7
10
971.275
20
521.562
30
0.0
11
972.611
21
522.222
31
0.0
0
LINE
5
1d33
8
0-0
6
CONTINUOUS
62
  7
10
972.611
20
522.222
30
0.0
11
973.878
21
522.916
31
0.0
0
LINE
5
1d34
8
0-0
6
CONTINUOUS
62
  7
10
973.878
20
522.916
30
0.0
11
975.070
21
523.639
31
0.0
0
LINE
5
1d35
8
0-0
6
CONTINUOUS
62
  7
10
975.070
20
523.639
30
0.0
11
976.183
21
524.389
31
0.0
0
LINE
5
1d36
8
0-0
6
CONTINUOUS
62
  7
10
976.183
20
524.389
30
0.0
11
977.211
21
525.161
31
0.0
0
LINE
5
1d37
8
0-0
6
CONTINUOUS
62
  7
10
977.211
20
525.161
30
0.0
11
978.151
21
525.952
31
0.0
0
LINE
5
1d38
8
0-0
6
CONTINUOUS
62
  7
10
978.151
20
525.952
30
0.0
11
978.999
21
526.756
31
0.0
0
LINE
5
1d39
8
0-0
6
CONTINUOUS
62
  7
10
978.999
20
526.756
30
0.0
11
979.752
21
527.571
31
0.0
0
LINE
5
1d3a
8
0-0
6
CONTINUOUS
62
  7
10
979.752
20
527.571
30
0.0
11
980.409
21
528.393
31
0.0
0
LINE
5
1d3b
8
0-0
6
CONTINUOUS
62
  7
10
980.409
20
528.393
30
0.0
11
980.967
21
529.218
31
0.0
0
LINE
5
1d3c
8
0-0
6
CONTINUOUS
62
  7
10
980.967
20
529.218
30
0.0
11
981.428
21
530.043
31
0.0
0
LINE
5
1d3d
8
0-0
6
CONTINUOUS
62
  7
10
981.428
20
530.043
30
0.0
11
981.792
21
530.866
31
0.0
0
LINE
5
1d3e
8
0-0
6
CONTINUOUS
62
  7
10
981.792
20
530.866
30
0.0
11
982.060
21
531.683
31
0.0
0
LINE
5
1d3f
8
0-0
6
CONTINUOUS
62
  7
10
982.060
20
531.683
30
0.0
11
982.234
21
532.492
31
0.0
0
LINE
5
1d40
8
0-0
6
CONTINUOUS
62
  7
10
982.234
20
532.492
30
0.0
11
982.317
21
533.293
31
0.0
0
LINE
5
1d41
8
0-0
6
CONTINUOUS
62
  7
10
982.317
20
533.293
30
0.0
11
982.313
21
534.083
31
0.0
0
LINE
5
1d42
8
0-0
6
CONTINUOUS
62
  7
10
982.313
20
534.083
30
0.0
11
982.226
21
534.861
31
0.0
0
LINE
5
1d43
8
0-0
6
CONTINUOUS
62
  7
10
982.226
20
534.861
30
0.0
11
982.062
21
535.625
31
0.0
0
LINE
5
1d44
8
0-0
6
CONTINUOUS
62
  7
10
982.062
20
535.625
30
0.0
11
981.826
21
536.375
31
0.0
0
LINE
5
1d45
8
0-0
6
CONTINUOUS
62
  7
10
981.826
20
536.375
30
0.0
11
981.524
21
537.107
31
0.0
0
LINE
5
1d46
8
0-0
6
CONTINUOUS
62
  7
10
981.524
20
537.107
30
0.0
11
981.164
21
537.819
31
0.0
0
LINE
5
1d47
8
0-0
6
CONTINUOUS
62
  7
10
981.164
20
537.819
30
0.0
11
980.755
21
538.507
31
0.0
0
LINE
5
1d48
8
0-0
6
CONTINUOUS
62
  7
10
980.755
20
538.507
30
0.0
11
980.306
21
539.165
31
0.0
0
LINE
5
1d49
8
0-0
6
CONTINUOUS
62
  7
10
980.306
20
539.165
30
0.0
11
979.830
21
539.787
31
0.0
0
LINE
5
1d4a
8
0-0
6
CONTINUOUS
62
  7
10
979.830
20
539.787
30
0.0
11
979.340
21
540.361
31
0.0
0
LINE
5
1d4b
8
0-0
6
CONTINUOUS
62
  7
10
979.340
20
540.361
30
0.0
11
978.856
21
540.876
31
0.0
0
LINE
5
1d4c
8
0-0
6
CONTINUOUS
62
  7
10
978.856
20
540.876
30
0.0
11
978.399
21
541.314
31
0.0
0
LINE
5
1d4d
8
0-0
6
CONTINUOUS
62
  7
10
978.399
20
541.314
30
0.0
11
977.999
21
541.658
31
0.0
0
LINE
5
1d4e
8
0-0
6
CONTINUOUS
62
  7
10
976.937
20
542.537
30
0.0
11
977.999
21
541.658
31
0.0
0
LINE
5
1d4f
8
0-0
6
CONTINUOUS
62
  7
10
1001.545
20
530.958
30
0.0
11
1001.639
21
530.091
31
0.0
0
LINE
5
1d50
8
0-0
6
CONTINUOUS
62
  7
10
1001.639
20
530.091
30
0.0
11
1001.699
21
529.248
31
0.0
0
LINE
5
1d51
8
0-0
6
CONTINUOUS
62
  7
10
1001.699
20
529.248
30
0.0
11
1001.723
21
528.422
31
0.0
0
LINE
5
1d52
8
0-0
6
CONTINUOUS
62
  7
10
1001.723
20
528.422
30
0.0
11
1001.709
21
527.612
31
0.0
0
LINE
5
1d53
8
0-0
6
CONTINUOUS
62
  7
10
1001.709
20
527.612
30
0.0
11
1001.656
21
526.814
31
0.0
0
LINE
5
1d54
8
0-0
6
CONTINUOUS
62
  7
10
1001.656
20
526.814
30
0.0
11
1001.565
21
526.027
31
0.0
0
LINE
5
1d55
8
0-0
6
CONTINUOUS
62
  7
10
1001.565
20
526.027
30
0.0
11
1001.434
21
525.253
31
0.0
0
LINE
5
1d56
8
0-0
6
CONTINUOUS
62
  7
10
1001.434
20
525.253
30
0.0
11
1001.265
21
524.491
31
0.0
0
LINE
5
1d57
8
0-0
6
CONTINUOUS
62
  7
10
1001.265
20
524.491
30
0.0
11
1001.057
21
523.744
31
0.0
0
LINE
5
1d58
8
0-0
6
CONTINUOUS
62
  7
10
1001.057
20
523.744
30
0.0
11
1000.810
21
523.011
31
0.0
0
LINE
5
1d59
8
0-0
6
CONTINUOUS
62
  7
10
1000.810
20
523.011
30
0.0
11
1000.525
21
522.297
31
0.0
0
LINE
5
1d5a
8
0-0
6
CONTINUOUS
62
  7
10
1000.525
20
522.297
30
0.0
11
1000.201
21
521.602
31
0.0
0
LINE
5
1d5b
8
0-0
6
CONTINUOUS
62
  7
10
1000.201
20
521.602
30
0.0
11
999.841
21
520.929
31
0.0
0
LINE
5
1d5c
8
0-0
6
CONTINUOUS
62
  7
10
999.841
20
520.929
30
0.0
11
999.444
21
520.279
31
0.0
0
LINE
5
1d5d
8
0-0
6
CONTINUOUS
62
  7
10
999.444
20
520.279
30
0.0
11
999.011
21
519.655
31
0.0
0
LINE
5
1d5e
8
0-0
6
CONTINUOUS
62
  7
10
999.011
20
519.655
30
0.0
11
998.545
21
519.059
31
0.0
0
LINE
5
1d5f
8
0-0
6
CONTINUOUS
62
  7
10
998.545
20
519.059
30
0.0
11
998.047
21
518.491
31
0.0
0
LINE
5
1d60
8
0-0
6
CONTINUOUS
62
  7
10
998.047
20
518.491
30
0.0
11
997.519
21
517.952
31
0.0
0
LINE
5
1d61
8
0-0
6
CONTINUOUS
62
  7
10
997.519
20
517.952
30
0.0
11
996.964
21
517.444
31
0.0
0
LINE
5
1d62
8
0-0
6
CONTINUOUS
62
  7
10
996.964
20
517.444
30
0.0
11
996.384
21
516.966
31
0.0
0
LINE
5
1d63
8
0-0
6
CONTINUOUS
62
  7
10
996.384
20
516.966
30
0.0
11
995.782
21
516.519
31
0.0
0
LINE
5
1d64
8
0-0
6
CONTINUOUS
62
  7
10
995.782
20
516.519
30
0.0
11
995.160
21
516.102
31
0.0
0
LINE
5
1d65
8
0-0
6
CONTINUOUS
62
  7
10
995.160
20
516.102
30
0.0
11
994.523
21
515.716
31
0.0
0
LINE
5
1d66
8
0-0
6
CONTINUOUS
62
  7
10
994.523
20
515.716
30
0.0
11
993.872
21
515.358
31
0.0
0
LINE
5
1d67
8
0-0
6
CONTINUOUS
62
  7
10
993.872
20
515.358
30
0.0
11
993.211
21
515.028
31
0.0
0
LINE
5
1d68
8
0-0
6
CONTINUOUS
62
  7
10
993.211
20
515.028
30
0.0
11
992.543
21
514.725
31
0.0
0
LINE
5
1d69
8
0-0
6
CONTINUOUS
62
  7
10
992.543
20
514.725
30
0.0
11
991.870
21
514.447
31
0.0
0
LINE
5
1d6a
8
0-0
6
CONTINUOUS
62
  7
10
991.870
20
514.447
30
0.0
11
991.194
21
514.192
31
0.0
0
LINE
5
1d6b
8
0-0
6
CONTINUOUS
62
  7
10
991.194
20
514.192
30
0.0
11
990.517
21
513.960
31
0.0
0
LINE
5
1d6c
8
0-0
6
CONTINUOUS
62
  7
10
990.517
20
513.960
30
0.0
11
989.841
21
513.749
31
0.0
0
LINE
5
1d6d
8
0-0
6
CONTINUOUS
62
  7
10
989.841
20
513.749
30
0.0
11
989.167
21
513.556
31
0.0
0
LINE
5
1d6e
8
0-0
6
CONTINUOUS
62
  7
10
989.167
20
513.556
30
0.0
11
988.494
21
513.382
31
0.0
0
LINE
5
1d6f
8
0-0
6
CONTINUOUS
62
  7
10
988.494
20
513.382
30
0.0
11
987.823
21
513.224
31
0.0
0
LINE
5
1d70
8
0-0
6
CONTINUOUS
62
  7
10
987.823
20
513.224
30
0.0
11
987.153
21
513.082
31
0.0
0
LINE
5
1d71
8
0-0
6
CONTINUOUS
62
  7
10
987.153
20
513.082
30
0.0
11
986.484
21
512.954
31
0.0
0
LINE
5
1d72
8
0-0
6
CONTINUOUS
62
  7
10
986.484
20
512.954
30
0.0
11
985.813
21
512.841
31
0.0
0
LINE
5
1d73
8
0-0
6
CONTINUOUS
62
  7
10
985.813
20
512.841
30
0.0
11
985.137
21
512.741
31
0.0
0
LINE
5
1d74
8
0-0
6
CONTINUOUS
62
  7
10
985.137
20
512.741
30
0.0
11
984.455
21
512.655
31
0.0
0
LINE
5
1d75
8
0-0
6
CONTINUOUS
62
  7
10
984.455
20
512.655
30
0.0
11
983.763
21
512.583
31
0.0
0
LINE
5
1d76
8
0-0
6
CONTINUOUS
62
  7
10
983.763
20
512.583
30
0.0
11
983.057
21
512.525
31
0.0
0
LINE
5
1d77
8
0-0
6
CONTINUOUS
62
  7
10
983.057
20
512.525
30
0.0
11
982.334
21
512.483
31
0.0
0
LINE
5
1d78
8
0-0
6
CONTINUOUS
62
  7
10
982.334
20
512.483
30
0.0
11
981.588
21
512.457
31
0.0
0
LINE
5
1d79
8
0-0
6
CONTINUOUS
62
  7
10
981.588
20
512.457
30
0.0
11
980.815
21
512.448
31
0.0
0
LINE
5
1d7a
8
0-0
6
CONTINUOUS
62
  7
10
980.815
20
512.448
30
0.0
11
980.012
21
512.458
31
0.0
0
LINE
5
1d7b
8
0-0
6
CONTINUOUS
62
  7
10
980.012
20
512.458
30
0.0
11
979.172
21
512.490
31
0.0
0
LINE
5
1d7c
8
0-0
6
CONTINUOUS
62
  7
10
979.172
20
512.490
30
0.0
11
978.292
21
512.544
31
0.0
0
LINE
5
1d7d
8
0-0
6
CONTINUOUS
62
  7
10
978.292
20
512.544
30
0.0
11
977.368
21
512.626
31
0.0
0
LINE
5
1d7e
8
0-0
6
CONTINUOUS
62
  7
10
977.368
20
512.626
30
0.0
11
976.397
21
512.737
31
0.0
0
LINE
5
1d7f
8
0-0
6
CONTINUOUS
62
  7
10
976.397
20
512.737
30
0.0
11
975.376
21
512.883
31
0.0
0
LINE
5
1d80
8
0-0
6
CONTINUOUS
62
  7
10
1002.354
20
530.689
30
0.0
11
1003.118
21
529.547
31
0.0
0
LINE
5
1d81
8
0-0
6
CONTINUOUS
62
  7
10
1003.118
20
529.547
30
0.0
11
1003.766
21
528.435
31
0.0
0
LINE
5
1d82
8
0-0
6
CONTINUOUS
62
  7
10
1003.766
20
528.435
30
0.0
11
1004.312
21
527.350
31
0.0
0
LINE
5
1d83
8
0-0
6
CONTINUOUS
62
  7
10
1004.312
20
527.350
30
0.0
11
1004.764
21
526.292
31
0.0
0
LINE
5
1d84
8
0-0
6
CONTINUOUS
62
  7
10
1004.764
20
526.292
30
0.0
11
1005.127
21
525.261
31
0.0
0
LINE
5
1d85
8
0-0
6
CONTINUOUS
62
  7
10
1005.127
20
525.261
30
0.0
11
1005.406
21
524.257
31
0.0
0
LINE
5
1d86
8
0-0
6
CONTINUOUS
62
  7
10
1005.406
20
524.257
30
0.0
11
1005.601
21
523.279
31
0.0
0
LINE
5
1d87
8
0-0
6
CONTINUOUS
62
  7
10
1005.601
20
523.279
30
0.0
11
1005.714
21
522.330
31
0.0
0
LINE
5
1d88
8
0-0
6
CONTINUOUS
62
  7
10
1005.714
20
522.330
30
0.0
11
1005.745
21
521.410
31
0.0
0
LINE
5
1d89
8
0-0
6
CONTINUOUS
62
  7
10
1005.745
20
521.410
30
0.0
11
1005.694
21
520.520
31
0.0
0
LINE
5
1d8a
8
0-0
6
CONTINUOUS
62
  7
10
1005.694
20
520.520
30
0.0
11
1005.562
21
519.661
31
0.0
0
LINE
5
1d8b
8
0-0
6
CONTINUOUS
62
  7
10
1005.562
20
519.661
30
0.0
11
1005.349
21
518.836
31
0.0
0
LINE
5
1d8c
8
0-0
6
CONTINUOUS
62
  7
10
1005.349
20
518.836
30
0.0
11
1005.058
21
518.046
31
0.0
0
LINE
5
1d8d
8
0-0
6
CONTINUOUS
62
  7
10
1005.058
20
518.046
30
0.0
11
1004.688
21
517.292
31
0.0
0
LINE
5
1d8e
8
0-0
6
CONTINUOUS
62
  7
10
1004.688
20
517.292
30
0.0
11
1004.244
21
516.576
31
0.0
0
LINE
5
1d8f
8
0-0
6
CONTINUOUS
62
  7
10
1004.244
20
516.576
30
0.0
11
1003.728
21
515.898
31
0.0
0
LINE
5
1d90
8
0-0
6
CONTINUOUS
62
  7
10
1003.728
20
515.898
30
0.0
11
1003.144
21
515.260
31
0.0
0
LINE
5
1d91
8
0-0
6
CONTINUOUS
62
  7
10
1003.144
20
515.260
30
0.0
11
1002.496
21
514.663
31
0.0
0
LINE
5
1d92
8
0-0
6
CONTINUOUS
62
  7
10
1002.496
20
514.663
30
0.0
11
1001.789
21
514.107
31
0.0
0
LINE
5
1d93
8
0-0
6
CONTINUOUS
62
  7
10
1001.789
20
514.107
30
0.0
11
1001.028
21
513.592
31
0.0
0
LINE
5
1d94
8
0-0
6
CONTINUOUS
62
  7
10
1001.028
20
513.592
30
0.0
11
1000.219
21
513.119
31
0.0
0
LINE
5
1d95
8
0-0
6
CONTINUOUS
62
  7
10
1000.219
20
513.119
30
0.0
11
999.366
21
512.687
31
0.0
0
LINE
5
1d96
8
0-0
6
CONTINUOUS
62
  7
10
999.366
20
512.687
30
0.0
11
998.475
21
512.297
31
0.0
0
LINE
5
1d97
8
0-0
6
CONTINUOUS
62
  7
10
998.475
20
512.297
30
0.0
11
997.553
21
511.947
31
0.0
0
LINE
5
1d98
8
0-0
6
CONTINUOUS
62
  7
10
997.553
20
511.947
30
0.0
11
996.603
21
511.636
31
0.0
0
LINE
5
1d99
8
0-0
6
CONTINUOUS
62
  7
10
996.603
20
511.636
30
0.0
11
995.632
21
511.364
31
0.0
0
LINE
5
1d9a
8
0-0
6
CONTINUOUS
62
  7
10
995.632
20
511.364
30
0.0
11
994.644
21
511.129
31
0.0
0
LINE
5
1d9b
8
0-0
6
CONTINUOUS
62
  7
10
994.644
20
511.129
30
0.0
11
993.644
21
510.930
31
0.0
0
LINE
5
1d9c
8
0-0
6
CONTINUOUS
62
  7
10
993.644
20
510.930
30
0.0
11
992.637
21
510.766
31
0.0
0
LINE
5
1d9d
8
0-0
6
CONTINUOUS
62
  7
10
992.637
20
510.766
30
0.0
11
991.626
21
510.634
31
0.0
0
LINE
5
1d9e
8
0-0
6
CONTINUOUS
62
  7
10
991.626
20
510.634
30
0.0
11
990.616
21
510.534
31
0.0
0
LINE
5
1d9f
8
0-0
6
CONTINUOUS
62
  7
10
990.616
20
510.534
30
0.0
11
989.610
21
510.463
31
0.0
0
LINE
5
1da0
8
0-0
6
CONTINUOUS
62
  7
10
989.610
20
510.463
30
0.0
11
988.612
21
510.420
31
0.0
0
LINE
5
1da1
8
0-0
6
CONTINUOUS
62
  7
10
988.612
20
510.420
30
0.0
11
987.624
21
510.403
31
0.0
0
LINE
5
1da2
8
0-0
6
CONTINUOUS
62
  7
10
987.624
20
510.403
30
0.0
11
986.650
21
510.411
31
0.0
0
LINE
5
1da3
8
0-0
6
CONTINUOUS
62
  7
10
986.650
20
510.411
30
0.0
11
985.693
21
510.441
31
0.0
0
LINE
5
1da4
8
0-0
6
CONTINUOUS
62
  7
10
985.693
20
510.441
30
0.0
11
984.756
21
510.494
31
0.0
0
LINE
5
1da5
8
0-0
6
CONTINUOUS
62
  7
10
984.756
20
510.494
30
0.0
11
983.841
21
510.566
31
0.0
0
LINE
5
1da6
8
0-0
6
CONTINUOUS
62
  7
10
983.841
20
510.566
30
0.0
11
982.953
21
510.658
31
0.0
0
LINE
5
1da7
8
0-0
6
CONTINUOUS
62
  7
10
982.953
20
510.658
30
0.0
11
982.094
21
510.769
31
0.0
0
LINE
5
1da8
8
0-0
6
CONTINUOUS
62
  7
10
982.094
20
510.769
30
0.0
11
981.268
21
510.898
31
0.0
0
LINE
5
1da9
8
0-0
6
CONTINUOUS
62
  7
10
981.268
20
510.898
30
0.0
11
980.479
21
511.046
31
0.0
0
LINE
5
1daa
8
0-0
6
CONTINUOUS
62
  7
10
980.479
20
511.046
30
0.0
11
979.731
21
511.213
31
0.0
0
LINE
5
1dab
8
0-0
6
CONTINUOUS
62
  7
10
979.731
20
511.213
30
0.0
11
979.028
21
511.400
31
0.0
0
LINE
5
1dac
8
0-0
6
CONTINUOUS
62
  7
10
979.028
20
511.400
30
0.0
11
978.375
21
511.610
31
0.0
0
LINE
5
1dad
8
0-0
6
CONTINUOUS
62
  7
10
978.375
20
511.610
30
0.0
11
977.779
21
511.844
31
0.0
0
LINE
5
1dae
8
0-0
6
CONTINUOUS
62
  7
10
977.779
20
511.844
30
0.0
11
977.245
21
512.107
31
0.0
0
LINE
5
1daf
8
0-0
6
CONTINUOUS
62
  7
10
977.245
20
512.107
30
0.0
11
976.782
21
512.403
31
0.0
0
LINE
5
1db0
8
0-0
6
CONTINUOUS
62
  7
10
976.782
20
512.403
30
0.0
11
976.397
21
512.737
31
0.0
0
LINE
5
1db1
8
0-0
6
CONTINUOUS
62
  7
10
1001.359
20
531.606
30
0.0
11
1001.545
21
530.958
31
0.0
0
LINE
5
1db2
8
0-0
6
CONTINUOUS
62
  7
10
1153.446
20
610.643
30
0.0
11
1155.853
21
610.494
31
0.0
0
LINE
5
1db3
8
0-0
6
CONTINUOUS
62
  7
10
1155.853
20
610.494
30
0.0
11
1158.071
21
610.293
31
0.0
0
LINE
5
1db4
8
0-0
6
CONTINUOUS
62
  7
10
1158.071
20
610.293
30
0.0
11
1160.123
21
610.046
31
0.0
0
LINE
5
1db5
8
0-0
6
CONTINUOUS
62
  7
10
1160.123
20
610.046
30
0.0
11
1162.027
21
609.759
31
0.0
0
LINE
5
1db6
8
0-0
6
CONTINUOUS
62
  7
10
1162.027
20
609.759
30
0.0
11
1163.802
21
609.438
31
0.0
0
LINE
5
1db7
8
0-0
6
CONTINUOUS
62
  7
10
1163.802
20
609.438
30
0.0
11
1165.461
21
609.086
31
0.0
0
LINE
5
1db8
8
0-0
6
CONTINUOUS
62
  7
10
1165.461
20
609.086
30
0.0
11
1167.016
21
608.708
31
0.0
0
LINE
5
1db9
8
0-0
6
CONTINUOUS
62
  7
10
1167.016
20
608.708
30
0.0
11
1168.480
21
608.308
31
0.0
0
LINE
5
1dba
8
0-0
6
CONTINUOUS
62
  7
10
1168.480
20
608.308
30
0.0
11
1169.860
21
607.888
31
0.0
0
LINE
5
1dbb
8
0-0
6
CONTINUOUS
62
  7
10
1169.860
20
607.888
30
0.0
11
1171.164
21
607.451
31
0.0
0
LINE
5
1dbc
8
0-0
6
CONTINUOUS
62
  7
10
1171.164
20
607.451
30
0.0
11
1172.399
21
607.000
31
0.0
0
LINE
5
1dbd
8
0-0
6
CONTINUOUS
62
  7
10
1172.399
20
607.000
30
0.0
11
1173.571
21
606.537
31
0.0
0
LINE
5
1dbe
8
0-0
6
CONTINUOUS
62
  7
10
1173.571
20
606.537
30
0.0
11
1174.683
21
606.064
31
0.0
0
LINE
5
1dbf
8
0-0
6
CONTINUOUS
62
  7
10
1174.683
20
606.064
30
0.0
11
1175.739
21
605.583
31
0.0
0
LINE
5
1dc0
8
0-0
6
CONTINUOUS
62
  7
10
1175.739
20
605.583
30
0.0
11
1176.744
21
605.095
31
0.0
0
LINE
5
1dc1
8
0-0
6
CONTINUOUS
62
  7
10
1176.744
20
605.095
30
0.0
11
1177.699
21
604.601
31
0.0
0
LINE
5
1dc2
8
0-0
6
CONTINUOUS
62
  7
10
1177.699
20
604.601
30
0.0
11
1178.607
21
604.103
31
0.0
0
LINE
5
1dc3
8
0-0
6
CONTINUOUS
62
  7
10
1178.607
20
604.103
30
0.0
11
1179.469
21
603.601
31
0.0
0
LINE
5
1dc4
8
0-0
6
CONTINUOUS
62
  7
10
1179.469
20
603.601
30
0.0
11
1180.289
21
603.095
31
0.0
0
LINE
5
1dc5
8
0-0
6
CONTINUOUS
62
  7
10
1180.289
20
603.095
30
0.0
11
1181.067
21
602.587
31
0.0
0
LINE
5
1dc6
8
0-0
6
CONTINUOUS
62
  7
10
1181.067
20
602.587
30
0.0
11
1181.804
21
602.076
31
0.0
0
LINE
5
1dc7
8
0-0
6
CONTINUOUS
62
  7
10
1181.804
20
602.076
30
0.0
11
1182.503
21
601.562
31
0.0
0
LINE
5
1dc8
8
0-0
6
CONTINUOUS
62
  7
10
1182.503
20
601.562
30
0.0
11
1183.164
21
601.047
31
0.0
0
LINE
5
1dc9
8
0-0
6
CONTINUOUS
62
  7
10
1183.164
20
601.047
30
0.0
11
1183.789
21
600.528
31
0.0
0
LINE
5
1dca
8
0-0
6
CONTINUOUS
62
  7
10
1183.789
20
600.528
30
0.0
11
1184.379
21
600.007
31
0.0
0
LINE
5
1dcb
8
0-0
6
CONTINUOUS
62
  7
10
1184.379
20
600.007
30
0.0
11
1184.935
21
599.481
31
0.0
0
LINE
5
1dcc
8
0-0
6
CONTINUOUS
62
  7
10
1184.935
20
599.481
30
0.0
11
1185.458
21
598.951
31
0.0
0
LINE
5
1dcd
8
0-0
6
CONTINUOUS
62
  7
10
1185.458
20
598.951
30
0.0
11
1185.949
21
598.416
31
0.0
0
LINE
5
1dce
8
0-0
6
CONTINUOUS
62
  7
10
1185.949
20
598.416
30
0.0
11
1186.410
21
597.874
31
0.0
0
LINE
5
1dcf
8
0-0
6
CONTINUOUS
62
  7
10
1186.410
20
597.874
30
0.0
11
1186.840
21
597.325
31
0.0
0
LINE
5
1dd0
8
0-0
6
CONTINUOUS
62
  7
10
1186.840
20
597.325
30
0.0
11
1187.242
21
596.766
31
0.0
0
LINE
5
1dd1
8
0-0
6
CONTINUOUS
62
  7
10
1187.242
20
596.766
30
0.0
11
1187.615
21
596.197
31
0.0
0
LINE
5
1dd2
8
0-0
6
CONTINUOUS
62
  7
10
1187.615
20
596.197
30
0.0
11
1187.960
21
595.617
31
0.0
0
LINE
5
1dd3
8
0-0
6
CONTINUOUS
62
  7
10
1187.960
20
595.617
30
0.0
11
1188.278
21
595.022
31
0.0
0
LINE
5
1dd4
8
0-0
6
CONTINUOUS
62
  7
10
1188.278
20
595.022
30
0.0
11
1188.570
21
594.414
31
0.0
0
LINE
5
1dd5
8
0-0
6
CONTINUOUS
62
  7
10
1188.570
20
594.414
30
0.0
11
1188.836
21
593.791
31
0.0
0
LINE
5
1dd6
8
0-0
6
CONTINUOUS
62
  7
10
1188.836
20
593.791
30
0.0
11
1189.077
21
593.152
31
0.0
0
LINE
5
1dd7
8
0-0
6
CONTINUOUS
62
  7
10
1189.077
20
593.152
30
0.0
11
1189.295
21
592.498
31
0.0
0
LINE
5
1dd8
8
0-0
6
CONTINUOUS
62
  7
10
1189.295
20
592.498
30
0.0
11
1189.490
21
591.829
31
0.0
0
LINE
5
1dd9
8
0-0
6
CONTINUOUS
62
  7
10
1189.490
20
591.829
30
0.0
11
1189.666
21
591.148
31
0.0
0
LINE
5
1dda
8
0-0
6
CONTINUOUS
62
  7
10
1189.666
20
591.148
30
0.0
11
1189.824
21
590.458
31
0.0
0
LINE
5
1ddb
8
0-0
6
CONTINUOUS
62
  7
10
1189.824
20
590.458
30
0.0
11
1189.970
21
589.765
31
0.0
0
LINE
5
1ddc
8
0-0
6
CONTINUOUS
62
  7
10
1189.970
20
589.765
30
0.0
11
1190.111
21
589.076
31
0.0
0
LINE
5
1ddd
8
0-0
6
CONTINUOUS
62
  7
10
1190.111
20
589.076
30
0.0
11
1190.254
21
588.401
31
0.0
0
LINE
5
1dde
8
0-0
6
CONTINUOUS
62
  7
10
1190.254
20
588.401
30
0.0
11
1191.602
21
588.016
31
0.0
0
LINE
5
1ddf
8
0-0
6
CONTINUOUS
62
  7
10
1191.602
20
588.016
30
0.0
11
1192.905
21
587.617
31
0.0
0
LINE
5
1de0
8
0-0
6
CONTINUOUS
62
  7
10
1192.905
20
587.617
30
0.0
11
1194.154
21
587.207
31
0.0
0
LINE
5
1de1
8
0-0
6
CONTINUOUS
62
  7
10
1194.154
20
587.207
30
0.0
11
1195.344
21
586.790
31
0.0
0
LINE
5
1de2
8
0-0
6
CONTINUOUS
62
  7
10
1195.344
20
586.790
30
0.0
11
1196.474
21
586.366
31
0.0
0
LINE
5
1de3
8
0-0
6
CONTINUOUS
62
  7
10
1196.474
20
586.366
30
0.0
11
1197.545
21
585.935
31
0.0
0
LINE
5
1de4
8
0-0
6
CONTINUOUS
62
  7
10
1197.545
20
585.935
30
0.0
11
1198.559
21
585.497
31
0.0
0
LINE
5
1de5
8
0-0
6
CONTINUOUS
62
  7
10
1198.559
20
585.497
30
0.0
11
1199.518
21
585.051
31
0.0
0
LINE
5
1de6
8
0-0
6
CONTINUOUS
62
  7
10
1199.518
20
585.051
30
0.0
11
1200.426
21
584.594
31
0.0
0
LINE
5
1de7
8
0-0
6
CONTINUOUS
62
  7
10
1200.426
20
584.594
30
0.0
11
1201.286
21
584.124
31
0.0
0
LINE
5
1de8
8
0-0
6
CONTINUOUS
62
  7
10
1201.286
20
584.124
30
0.0
11
1202.100
21
583.640
31
0.0
0
LINE
5
1de9
8
0-0
6
CONTINUOUS
62
  7
10
1202.100
20
583.640
30
0.0
11
1202.871
21
583.141
31
0.0
0
LINE
5
1dea
8
0-0
6
CONTINUOUS
62
  7
10
1202.871
20
583.141
30
0.0
11
1203.601
21
582.625
31
0.0
0
LINE
5
1deb
8
0-0
6
CONTINUOUS
62
  7
10
1203.601
20
582.625
30
0.0
11
1204.293
21
582.090
31
0.0
0
LINE
5
1dec
8
0-0
6
CONTINUOUS
62
  7
10
1204.293
20
582.090
30
0.0
11
1204.949
21
581.537
31
0.0
0
LINE
5
1ded
8
0-0
6
CONTINUOUS
62
  7
10
1204.949
20
581.537
30
0.0
11
1205.568
21
580.964
31
0.0
0
LINE
5
1dee
8
0-0
6
CONTINUOUS
62
  7
10
1205.568
20
580.964
30
0.0
11
1206.154
21
580.371
31
0.0
0
LINE
5
1def
8
0-0
6
CONTINUOUS
62
  7
10
1206.154
20
580.371
30
0.0
11
1206.706
21
579.758
31
0.0
0
LINE
5
1df0
8
0-0
6
CONTINUOUS
62
  7
10
1206.706
20
579.758
30
0.0
11
1207.227
21
579.125
31
0.0
0
LINE
5
1df1
8
0-0
6
CONTINUOUS
62
  7
10
1207.227
20
579.125
30
0.0
11
1207.715
21
578.472
31
0.0
0
LINE
5
1df2
8
0-0
6
CONTINUOUS
62
  7
10
1207.715
20
578.472
30
0.0
11
1208.172
21
577.799
31
0.0
0
LINE
5
1df3
8
0-0
6
CONTINUOUS
62
  7
10
1208.172
20
577.799
30
0.0
11
1208.599
21
577.106
31
0.0
0
LINE
5
1df4
8
0-0
6
CONTINUOUS
62
  7
10
1208.599
20
577.106
30
0.0
11
1208.995
21
576.395
31
0.0
0
LINE
5
1df5
8
0-0
6
CONTINUOUS
62
  7
10
1208.995
20
576.395
30
0.0
11
1209.360
21
575.665
31
0.0
0
LINE
5
1df6
8
0-0
6
CONTINUOUS
62
  7
10
1209.360
20
575.665
30
0.0
11
1209.696
21
574.916
31
0.0
0
LINE
5
1df7
8
0-0
6
CONTINUOUS
62
  7
10
1209.696
20
574.916
30
0.0
11
1210.002
21
574.149
31
0.0
0
LINE
5
1df8
8
0-0
6
CONTINUOUS
62
  7
10
1210.002
20
574.149
30
0.0
11
1210.278
21
573.365
31
0.0
0
LINE
5
1df9
8
0-0
6
CONTINUOUS
62
  7
10
1210.278
20
573.365
30
0.0
11
1210.525
21
572.564
31
0.0
0
LINE
5
1dfa
8
0-0
6
CONTINUOUS
62
  7
10
1210.525
20
572.564
30
0.0
11
1210.742
21
571.746
31
0.0
0
LINE
5
1dfb
8
0-0
6
CONTINUOUS
62
  7
10
1210.742
20
571.746
30
0.0
11
1210.929
21
570.911
31
0.0
0
LINE
5
1dfc
8
0-0
6
CONTINUOUS
62
  7
10
1210.929
20
570.911
30
0.0
11
1211.085
21
570.061
31
0.0
0
LINE
5
1dfd
8
0-0
6
CONTINUOUS
62
  7
10
1211.085
20
570.061
30
0.0
11
1211.212
21
569.195
31
0.0
0
LINE
5
1dfe
8
0-0
6
CONTINUOUS
62
  7
10
1211.212
20
569.195
30
0.0
11
1211.308
21
568.314
31
0.0
0
LINE
5
1dff
8
0-0
6
CONTINUOUS
62
  7
10
1211.308
20
568.314
30
0.0
11
1211.374
21
567.419
31
0.0
0
LINE
5
1e00
8
0-0
6
CONTINUOUS
62
  7
10
1211.374
20
567.419
30
0.0
11
1211.408
21
566.511
31
0.0
0
LINE
5
1e01
8
0-0
6
CONTINUOUS
62
  7
10
1211.408
20
566.511
30
0.0
11
1211.411
21
565.589
31
0.0
0
LINE
5
1e02
8
0-0
6
CONTINUOUS
62
  7
10
1211.411
20
565.589
30
0.0
11
1211.383
21
564.656
31
0.0
0
LINE
5
1e03
8
0-0
6
CONTINUOUS
62
  7
10
1211.383
20
564.656
30
0.0
11
1211.322
21
563.711
31
0.0
0
LINE
5
1e04
8
0-0
6
CONTINUOUS
62
  7
10
1211.322
20
563.711
30
0.0
11
1211.229
21
562.757
31
0.0
0
LINE
5
1e05
8
0-0
6
CONTINUOUS
62
  7
10
1211.229
20
562.757
30
0.0
11
1211.103
21
561.793
31
0.0
0
LINE
5
1e06
8
0-0
6
CONTINUOUS
62
  7
10
1211.103
20
561.793
30
0.0
11
1210.943
21
560.820
31
0.0
0
LINE
5
1e07
8
0-0
6
CONTINUOUS
62
  7
10
1210.943
20
560.820
30
0.0
11
1210.750
21
559.841
31
0.0
0
LINE
5
1e08
8
0-0
6
CONTINUOUS
62
  7
10
1210.750
20
559.841
30
0.0
11
1210.522
21
558.857
31
0.0
0
LINE
5
1e09
8
0-0
6
CONTINUOUS
62
  7
10
1210.522
20
558.857
30
0.0
11
1210.260
21
557.867
31
0.0
0
LINE
5
1e0a
8
0-0
6
CONTINUOUS
62
  7
10
1210.260
20
557.867
30
0.0
11
1209.964
21
556.875
31
0.0
0
LINE
5
1e0b
8
0-0
6
CONTINUOUS
62
  7
10
1209.964
20
556.875
30
0.0
11
1209.632
21
555.881
31
0.0
0
LINE
5
1e0c
8
0-0
6
CONTINUOUS
62
  7
10
1209.632
20
555.881
30
0.0
11
1209.266
21
554.886
31
0.0
0
LINE
5
1e0d
8
0-0
6
CONTINUOUS
62
  7
10
1209.266
20
554.886
30
0.0
11
1208.865
21
553.892
31
0.0
0
LINE
5
1e0e
8
0-0
6
CONTINUOUS
62
  7
10
1208.865
20
553.892
30
0.0
11
1208.429
21
552.900
31
0.0
0
LINE
5
1e0f
8
0-0
6
CONTINUOUS
62
  7
10
1208.429
20
552.900
30
0.0
11
1207.959
21
551.912
31
0.0
0
LINE
5
1e10
8
0-0
6
CONTINUOUS
62
  7
10
1207.959
20
551.912
30
0.0
11
1207.454
21
550.929
31
0.0
0
LINE
5
1e11
8
0-0
6
CONTINUOUS
62
  7
10
1207.454
20
550.929
30
0.0
11
1206.916
21
549.952
31
0.0
0
LINE
5
1e12
8
0-0
6
CONTINUOUS
62
  7
10
1206.916
20
549.952
30
0.0
11
1206.345
21
548.982
31
0.0
0
LINE
5
1e13
8
0-0
6
CONTINUOUS
62
  7
10
1206.345
20
548.982
30
0.0
11
1205.741
21
548.020
31
0.0
0
LINE
5
1e14
8
0-0
6
CONTINUOUS
62
  7
10
1205.741
20
548.020
30
0.0
11
1205.106
21
547.068
31
0.0
0
LINE
5
1e15
8
0-0
6
CONTINUOUS
62
  7
10
1205.106
20
547.068
30
0.0
11
1204.441
21
546.127
31
0.0
0
LINE
5
1e16
8
0-0
6
CONTINUOUS
62
  7
10
1204.441
20
546.127
30
0.0
11
1203.747
21
545.197
31
0.0
0
LINE
5
1e17
8
0-0
6
CONTINUOUS
62
  7
10
1203.747
20
545.197
30
0.0
11
1203.025
21
544.279
31
0.0
0
LINE
5
1e18
8
0-0
6
CONTINUOUS
62
  7
10
1203.025
20
544.279
30
0.0
11
1202.277
21
543.375
31
0.0
0
LINE
5
1e19
8
0-0
6
CONTINUOUS
62
  7
10
1202.277
20
543.375
30
0.0
11
1201.504
21
542.485
31
0.0
0
LINE
5
1e1a
8
0-0
6
CONTINUOUS
62
  7
10
1201.504
20
542.485
30
0.0
11
1200.707
21
541.610
31
0.0
0
LINE
5
1e1b
8
0-0
6
CONTINUOUS
62
  7
10
1200.707
20
541.610
30
0.0
11
1199.888
21
540.750
31
0.0
0
LINE
5
1e1c
8
0-0
6
CONTINUOUS
62
  7
10
1199.888
20
540.750
30
0.0
11
1199.050
21
539.905
31
0.0
0
LINE
5
1e1d
8
0-0
6
CONTINUOUS
62
  7
10
1199.050
20
539.905
30
0.0
11
1198.193
21
539.077
31
0.0
0
LINE
5
1e1e
8
0-0
6
CONTINUOUS
62
  7
10
1198.193
20
539.077
30
0.0
11
1197.320
21
538.266
31
0.0
0
LINE
5
1e1f
8
0-0
6
CONTINUOUS
62
  7
10
1197.320
20
538.266
30
0.0
11
1196.431
21
537.472
31
0.0
0
LINE
5
1e20
8
0-0
6
CONTINUOUS
62
  7
10
1196.431
20
537.472
30
0.0
11
1195.529
21
536.695
31
0.0
0
LINE
5
1e21
8
0-0
6
CONTINUOUS
62
  7
10
1195.529
20
536.695
30
0.0
11
1194.615
21
535.936
31
0.0
0
LINE
5
1e22
8
0-0
6
CONTINUOUS
62
  7
10
1194.615
20
535.936
30
0.0
11
1193.690
21
535.195
31
0.0
0
LINE
5
1e23
8
0-0
6
CONTINUOUS
62
  7
10
1193.690
20
535.195
30
0.0
11
1192.756
21
534.471
31
0.0
0
LINE
5
1e24
8
0-0
6
CONTINUOUS
62
  7
10
1192.756
20
534.471
30
0.0
11
1191.815
21
533.766
31
0.0
0
LINE
5
1e25
8
0-0
6
CONTINUOUS
62
  7
10
1191.815
20
533.766
30
0.0
11
1190.867
21
533.079
31
0.0
0
LINE
5
1e26
8
0-0
6
CONTINUOUS
62
  7
10
1190.867
20
533.079
30
0.0
11
1189.914
21
532.411
31
0.0
0
LINE
5
1e27
8
0-0
6
CONTINUOUS
62
  7
10
1189.914
20
532.411
30
0.0
11
1188.957
21
531.761
31
0.0
0
LINE
5
1e28
8
0-0
6
CONTINUOUS
62
  7
10
1188.957
20
531.761
30
0.0
11
1187.997
21
531.130
31
0.0
0
LINE
5
1e29
8
0-0
6
CONTINUOUS
62
  7
10
1187.997
20
531.130
30
0.0
11
1187.035
21
530.518
31
0.0
0
LINE
5
1e2a
8
0-0
6
CONTINUOUS
62
  7
10
1187.035
20
530.518
30
0.0
11
1186.072
21
529.925
31
0.0
0
LINE
5
1e2b
8
0-0
6
CONTINUOUS
62
  7
10
1186.072
20
529.925
30
0.0
11
1185.109
21
529.352
31
0.0
0
LINE
5
1e2c
8
0-0
6
CONTINUOUS
62
  7
10
1185.109
20
529.352
30
0.0
11
1184.147
21
528.799
31
0.0
0
LINE
5
1e2d
8
0-0
6
CONTINUOUS
62
  7
10
1184.147
20
528.799
30
0.0
11
1183.187
21
528.267
31
0.0
0
LINE
5
1e2e
8
0-0
6
CONTINUOUS
62
  7
10
1183.187
20
528.267
30
0.0
11
1182.230
21
527.755
31
0.0
0
LINE
5
1e2f
8
0-0
6
CONTINUOUS
62
  7
10
1182.230
20
527.755
30
0.0
11
1181.278
21
527.264
31
0.0
0
LINE
5
1e30
8
0-0
6
CONTINUOUS
62
  7
10
1181.278
20
527.264
30
0.0
11
1180.331
21
526.795
31
0.0
0
LINE
5
1e31
8
0-0
6
CONTINUOUS
62
  7
10
1180.331
20
526.795
30
0.0
11
1179.392
21
526.347
31
0.0
0
LINE
5
1e32
8
0-0
6
CONTINUOUS
62
  7
10
1179.392
20
526.347
30
0.0
11
1178.461
21
525.922
31
0.0
0
LINE
5
1e33
8
0-0
6
CONTINUOUS
62
  7
10
1178.461
20
525.922
30
0.0
11
1177.541
21
525.518
31
0.0
0
LINE
5
1e34
8
0-0
6
CONTINUOUS
62
  7
10
1177.541
20
525.518
30
0.0
11
1176.635
21
525.136
31
0.0
0
LINE
5
1e35
8
0-0
6
CONTINUOUS
62
  7
10
1176.635
20
525.136
30
0.0
11
1175.744
21
524.776
31
0.0
0
LINE
5
1e36
8
0-0
6
CONTINUOUS
62
  7
10
1175.744
20
524.776
30
0.0
11
1174.875
21
524.436
31
0.0
0
LINE
5
1e37
8
0-0
6
CONTINUOUS
62
  7
10
1174.875
20
524.436
30
0.0
11
1174.032
21
524.117
31
0.0
0
LINE
5
1e38
8
0-0
6
CONTINUOUS
62
  7
10
1174.032
20
524.117
30
0.0
11
1173.223
21
523.818
31
0.0
0
LINE
5
1e39
8
0-0
6
CONTINUOUS
62
  7
10
1173.223
20
523.818
30
0.0
11
1172.458
21
523.540
31
0.0
0
LINE
5
1e3a
8
0-0
6
CONTINUOUS
62
  7
10
1172.458
20
523.540
30
0.0
11
1171.752
21
523.281
31
0.0
0
LINE
5
1e3b
8
0-0
6
CONTINUOUS
62
  7
10
1171.752
20
523.281
30
0.0
11
1171.124
21
523.046
31
0.0
0
LINE
5
1e3c
8
0-0
6
CONTINUOUS
62
  7
10
1171.124
20
523.046
30
0.0
11
1170.453
21
521.433
31
0.0
0
LINE
5
1e3d
8
0-0
6
CONTINUOUS
62
  7
10
1170.453
20
521.433
30
0.0
11
1169.781
21
519.936
31
0.0
0
LINE
5
1e3e
8
0-0
6
CONTINUOUS
62
  7
10
1169.781
20
519.936
30
0.0
11
1169.110
21
518.544
31
0.0
0
LINE
5
1e3f
8
0-0
6
CONTINUOUS
62
  7
10
1169.110
20
518.544
30
0.0
11
1168.442
21
517.251
31
0.0
0
LINE
5
1e40
8
0-0
6
CONTINUOUS
62
  7
10
1168.442
20
517.251
30
0.0
11
1167.774
21
516.050
31
0.0
0
LINE
5
1e41
8
0-0
6
CONTINUOUS
62
  7
10
1167.774
20
516.050
30
0.0
11
1167.105
21
514.931
31
0.0
0
LINE
5
1e42
8
0-0
6
CONTINUOUS
62
  7
10
1167.105
20
514.931
30
0.0
11
1166.432
21
513.890
31
0.0
0
LINE
5
1e43
8
0-0
6
CONTINUOUS
62
  7
10
1166.432
20
513.890
30
0.0
11
1165.753
21
512.919
31
0.0
0
LINE
5
1e44
8
0-0
6
CONTINUOUS
62
  7
10
1165.753
20
512.919
30
0.0
11
1165.063
21
512.013
31
0.0
0
LINE
5
1e45
8
0-0
6
CONTINUOUS
62
  7
10
1165.063
20
512.013
30
0.0
11
1164.360
21
511.166
31
0.0
0
LINE
5
1e46
8
0-0
6
CONTINUOUS
62
  7
10
1164.360
20
511.166
30
0.0
11
1163.641
21
510.374
31
0.0
0
LINE
5
1e47
8
0-0
6
CONTINUOUS
62
  7
10
1163.641
20
510.374
30
0.0
11
1162.906
21
509.634
31
0.0
0
LINE
5
1e48
8
0-0
6
CONTINUOUS
62
  7
10
1162.906
20
509.634
30
0.0
11
1162.151
21
508.942
31
0.0
0
LINE
5
1e49
8
0-0
6
CONTINUOUS
62
  7
10
1162.151
20
508.942
30
0.0
11
1161.376
21
508.295
31
0.0
0
LINE
5
1e4a
8
0-0
6
CONTINUOUS
62
  7
10
1161.376
20
508.295
30
0.0
11
1160.581
21
507.692
31
0.0
0
LINE
5
1e4b
8
0-0
6
CONTINUOUS
62
  7
10
1160.581
20
507.692
30
0.0
11
1159.766
21
507.131
31
0.0
0
LINE
5
1e4c
8
0-0
6
CONTINUOUS
62
  7
10
1159.766
20
507.131
30
0.0
11
1158.931
21
506.610
31
0.0
0
LINE
5
1e4d
8
0-0
6
CONTINUOUS
62
  7
10
1158.931
20
506.610
30
0.0
11
1158.075
21
506.129
31
0.0
0
LINE
5
1e4e
8
0-0
6
CONTINUOUS
62
  7
10
1158.075
20
506.129
30
0.0
11
1157.199
21
505.685
31
0.0
0
LINE
5
1e4f
8
0-0
6
CONTINUOUS
62
  7
10
1157.199
20
505.685
30
0.0
11
1156.301
21
505.279
31
0.0
0
LINE
5
1e50
8
0-0
6
CONTINUOUS
62
  7
10
1156.301
20
505.279
30
0.0
11
1155.379
21
504.908
31
0.0
0
LINE
5
1e51
8
0-0
6
CONTINUOUS
62
  7
10
1155.379
20
504.908
30
0.0
11
1154.428
21
504.570
31
0.0
0
LINE
5
1e52
8
0-0
6
CONTINUOUS
62
  7
10
1154.428
20
504.570
30
0.0
11
1153.442
21
504.262
31
0.0
0
LINE
5
1e53
8
0-0
6
CONTINUOUS
62
  7
10
1153.442
20
504.262
30
0.0
11
1152.411
21
503.980
31
0.0
0
LINE
5
1e54
8
0-0
6
CONTINUOUS
62
  7
10
1152.411
20
503.980
30
0.0
11
1151.322
21
503.719
31
0.0
0
LINE
5
1e55
8
0-0
6
CONTINUOUS
62
  7
10
1151.322
20
503.719
30
0.0
11
1150.157
21
503.471
31
0.0
0
LINE
5
1e56
8
0-0
6
CONTINUOUS
62
  7
10
1150.157
20
503.471
30
0.0
11
1148.893
21
503.227
31
0.0
0
LINE
5
1e57
8
0-0
6
CONTINUOUS
62
  7
10
1148.893
20
503.227
30
0.0
11
1147.501
21
502.976
31
0.0
0
LINE
5
1e58
8
0-0
6
CONTINUOUS
62
  7
10
1147.501
20
502.976
30
0.0
11
1145.946
21
502.703
31
0.0
0
LINE
5
1e59
8
0-0
6
CONTINUOUS
62
  7
10
1153.446
20
610.643
30
0.0
11
1151.418
21
610.047
31
0.0
0
LINE
5
1e5a
8
0-0
6
CONTINUOUS
62
  7
10
1151.418
20
610.047
30
0.0
11
1149.394
21
609.304
31
0.0
0
LINE
5
1e5b
8
0-0
6
CONTINUOUS
62
  7
10
1149.394
20
609.304
30
0.0
11
1147.384
21
608.425
31
0.0
0
LINE
5
1e5c
8
0-0
6
CONTINUOUS
62
  7
10
1147.384
20
608.425
30
0.0
11
1145.405
21
607.421
31
0.0
0
LINE
5
1e5d
8
0-0
6
CONTINUOUS
62
  7
10
1145.405
20
607.421
30
0.0
11
1143.471
21
606.302
31
0.0
0
LINE
5
1e5e
8
0-0
6
CONTINUOUS
62
  7
10
1143.471
20
606.302
30
0.0
11
1141.595
21
605.079
31
0.0
0
LINE
5
1e5f
8
0-0
6
CONTINUOUS
62
  7
10
1141.595
20
605.079
30
0.0
11
1139.790
21
603.762
31
0.0
0
LINE
5
1e60
8
0-0
6
CONTINUOUS
62
  7
10
1139.790
20
603.762
30
0.0
11
1138.066
21
602.361
31
0.0
0
LINE
5
1e61
8
0-0
6
CONTINUOUS
62
  7
10
1138.066
20
602.361
30
0.0
11
1136.432
21
600.885
31
0.0
0
LINE
5
1e62
8
0-0
6
CONTINUOUS
62
  7
10
1136.432
20
600.885
30
0.0
11
1134.894
21
599.345
31
0.0
0
LINE
5
1e63
8
0-0
6
CONTINUOUS
62
  7
10
1134.894
20
599.345
30
0.0
11
1133.457
21
597.750
31
0.0
0
LINE
5
1e64
8
0-0
6
CONTINUOUS
62
  7
10
1133.457
20
597.750
30
0.0
11
1132.125
21
596.109
31
0.0
0
LINE
5
1e65
8
0-0
6
CONTINUOUS
62
  7
10
1132.125
20
596.109
30
0.0
11
1130.900
21
594.431
31
0.0
0
LINE
5
1e66
8
0-0
6
CONTINUOUS
62
  7
10
1130.900
20
594.431
30
0.0
11
1129.783
21
592.724
31
0.0
0
LINE
5
1e67
8
0-0
6
CONTINUOUS
62
  7
10
1129.783
20
592.724
30
0.0
11
1128.774
21
590.997
31
0.0
0
LINE
5
1e68
8
0-0
6
CONTINUOUS
62
  7
10
1128.774
20
590.997
30
0.0
11
1127.873
21
589.259
31
0.0
0
LINE
5
1e69
8
0-0
6
CONTINUOUS
62
  7
10
1127.873
20
589.259
30
0.0
11
1127.079
21
587.516
31
0.0
0
LINE
5
1e6a
8
0-0
6
CONTINUOUS
62
  7
10
1127.079
20
587.516
30
0.0
11
1126.390
21
585.776
31
0.0
0
LINE
5
1e6b
8
0-0
6
CONTINUOUS
62
  7
10
1126.390
20
585.776
30
0.0
11
1125.805
21
584.047
31
0.0
0
LINE
5
1e6c
8
0-0
6
CONTINUOUS
62
  7
10
1125.805
20
584.047
30
0.0
11
1125.322
21
582.334
31
0.0
0
LINE
5
1e6d
8
0-0
6
CONTINUOUS
62
  7
10
1125.322
20
582.334
30
0.0
11
1124.938
21
580.646
31
0.0
0
LINE
5
1e6e
8
0-0
6
CONTINUOUS
62
  7
10
1124.938
20
580.646
30
0.0
11
1124.652
21
578.986
31
0.0
0
LINE
5
1e6f
8
0-0
6
CONTINUOUS
62
  7
10
1124.652
20
578.986
30
0.0
11
1124.460
21
577.363
31
0.0
0
LINE
5
1e70
8
0-0
6
CONTINUOUS
62
  7
10
1124.460
20
577.363
30
0.0
11
1124.361
21
575.779
31
0.0
0
LINE
5
1e71
8
0-0
6
CONTINUOUS
62
  7
10
1124.361
20
575.779
30
0.0
11
1124.352
21
574.241
31
0.0
0
LINE
5
1e72
8
0-0
6
CONTINUOUS
62
  7
10
1124.352
20
574.241
30
0.0
11
1124.430
21
572.752
31
0.0
0
LINE
5
1e73
8
0-0
6
CONTINUOUS
62
  7
10
1124.430
20
572.752
30
0.0
11
1124.594
21
571.317
31
0.0
0
LINE
5
1e74
8
0-0
6
CONTINUOUS
62
  7
10
1124.594
20
571.317
30
0.0
11
1124.839
21
569.938
31
0.0
0
LINE
5
1e75
8
0-0
6
CONTINUOUS
62
  7
10
1124.839
20
569.938
30
0.0
11
1125.164
21
568.619
31
0.0
0
LINE
5
1e76
8
0-0
6
CONTINUOUS
62
  7
10
1125.164
20
568.619
30
0.0
11
1125.565
21
567.362
31
0.0
0
LINE
5
1e77
8
0-0
6
CONTINUOUS
62
  7
10
1125.565
20
567.362
30
0.0
11
1126.040
21
566.170
31
0.0
0
LINE
5
1e78
8
0-0
6
CONTINUOUS
62
  7
10
1126.040
20
566.170
30
0.0
11
1126.586
21
565.044
31
0.0
0
LINE
5
1e79
8
0-0
6
CONTINUOUS
62
  7
10
1126.586
20
565.044
30
0.0
11
1127.198
21
563.985
31
0.0
0
LINE
5
1e7a
8
0-0
6
CONTINUOUS
62
  7
10
1127.198
20
563.985
30
0.0
11
1127.875
21
562.994
31
0.0
0
LINE
5
1e7b
8
0-0
6
CONTINUOUS
62
  7
10
1127.875
20
562.994
30
0.0
11
1128.613
21
562.071
31
0.0
0
LINE
5
1e7c
8
0-0
6
CONTINUOUS
62
  7
10
1128.613
20
562.071
30
0.0
11
1129.407
21
561.218
31
0.0
0
LINE
5
1e7d
8
0-0
6
CONTINUOUS
62
  7
10
1129.407
20
561.218
30
0.0
11
1130.256
21
560.433
31
0.0
0
LINE
5
1e7e
8
0-0
6
CONTINUOUS
62
  7
10
1130.256
20
560.433
30
0.0
11
1131.154
21
559.717
31
0.0
0
LINE
5
1e7f
8
0-0
6
CONTINUOUS
62
  7
10
1131.154
20
559.717
30
0.0
11
1132.097
21
559.068
31
0.0
0
LINE
5
1e80
8
0-0
6
CONTINUOUS
62
  7
10
1132.097
20
559.068
30
0.0
11
1133.083
21
558.486
31
0.0
0
LINE
5
1e81
8
0-0
6
CONTINUOUS
62
  7
10
1133.083
20
558.486
30
0.0
11
1134.107
21
557.970
31
0.0
0
LINE
5
1e82
8
0-0
6
CONTINUOUS
62
  7
10
1134.107
20
557.970
30
0.0
11
1135.165
21
557.518
31
0.0
0
LINE
5
1e83
8
0-0
6
CONTINUOUS
62
  7
10
1135.165
20
557.518
30
0.0
11
1136.253
21
557.129
31
0.0
0
LINE
5
1e84
8
0-0
6
CONTINUOUS
62
  7
10
1136.253
20
557.129
30
0.0
11
1137.366
21
556.801
31
0.0
0
LINE
5
1e85
8
0-0
6
CONTINUOUS
62
  7
10
1137.366
20
556.801
30
0.0
11
1138.502
21
556.533
31
0.0
0
LINE
5
1e86
8
0-0
6
CONTINUOUS
62
  7
10
1138.502
20
556.533
30
0.0
11
1139.655
21
556.323
31
0.0
0
LINE
5
1e87
8
0-0
6
CONTINUOUS
62
  7
10
1139.655
20
556.323
30
0.0
11
1140.821
21
556.170
31
0.0
0
LINE
5
1e88
8
0-0
6
CONTINUOUS
62
  7
10
1140.821
20
556.170
30
0.0
11
1141.997
21
556.070
31
0.0
0
LINE
5
1e89
8
0-0
6
CONTINUOUS
62
  7
10
1141.997
20
556.070
30
0.0
11
1143.178
21
556.023
31
0.0
0
LINE
5
1e8a
8
0-0
6
CONTINUOUS
62
  7
10
1143.178
20
556.023
30
0.0
11
1144.361
21
556.026
31
0.0
0
LINE
5
1e8b
8
0-0
6
CONTINUOUS
62
  7
10
1144.361
20
556.026
30
0.0
11
1145.541
21
556.078
31
0.0
0
LINE
5
1e8c
8
0-0
6
CONTINUOUS
62
  7
10
1145.541
20
556.078
30
0.0
11
1146.715
21
556.176
31
0.0
0
LINE
5
1e8d
8
0-0
6
CONTINUOUS
62
  7
10
1146.715
20
556.176
30
0.0
11
1147.879
21
556.318
31
0.0
0
LINE
5
1e8e
8
0-0
6
CONTINUOUS
62
  7
10
1147.879
20
556.318
30
0.0
11
1149.030
21
556.503
31
0.0
0
LINE
5
1e8f
8
0-0
6
CONTINUOUS
62
  7
10
1149.030
20
556.503
30
0.0
11
1150.164
21
556.729
31
0.0
0
LINE
5
1e90
8
0-0
6
CONTINUOUS
62
  7
10
1150.164
20
556.729
30
0.0
11
1151.278
21
556.993
31
0.0
0
LINE
5
1e91
8
0-0
6
CONTINUOUS
62
  7
10
1151.278
20
556.993
30
0.0
11
1152.369
21
557.294
31
0.0
0
LINE
5
1e92
8
0-0
6
CONTINUOUS
62
  7
10
1152.369
20
557.294
30
0.0
11
1153.433
21
557.629
31
0.0
0
LINE
5
1e93
8
0-0
6
CONTINUOUS
62
  7
10
1153.433
20
557.629
30
0.0
11
1154.468
21
557.998
31
0.0
0
LINE
5
1e94
8
0-0
6
CONTINUOUS
62
  7
10
1154.468
20
557.998
30
0.0
11
1155.471
21
558.397
31
0.0
0
LINE
5
1e95
8
0-0
6
CONTINUOUS
62
  7
10
1155.471
20
558.397
30
0.0
11
1156.440
21
558.826
31
0.0
0
LINE
5
1e96
8
0-0
6
CONTINUOUS
62
  7
10
1156.440
20
558.826
30
0.0
11
1157.370
21
559.282
31
0.0
0
LINE
5
1e97
8
0-0
6
CONTINUOUS
62
  7
10
1157.370
20
559.282
30
0.0
11
1158.262
21
559.764
31
0.0
0
LINE
5
1e98
8
0-0
6
CONTINUOUS
62
  7
10
1158.262
20
559.764
30
0.0
11
1159.112
21
560.270
31
0.0
0
LINE
5
1e99
8
0-0
6
CONTINUOUS
62
  7
10
1159.112
20
560.270
30
0.0
11
1159.919
21
560.798
31
0.0
0
LINE
5
1e9a
8
0-0
6
CONTINUOUS
62
  7
10
1159.919
20
560.798
30
0.0
11
1160.680
21
561.347
31
0.0
0
LINE
5
1e9b
8
0-0
6
CONTINUOUS
62
  7
10
1160.680
20
561.347
30
0.0
11
1161.394
21
561.914
31
0.0
0
LINE
5
1e9c
8
0-0
6
CONTINUOUS
62
  7
10
1161.394
20
561.914
30
0.0
11
1162.060
21
562.498
31
0.0
0
LINE
5
1e9d
8
0-0
6
CONTINUOUS
62
  7
10
1162.060
20
562.498
30
0.0
11
1162.675
21
563.098
31
0.0
0
LINE
5
1e9e
8
0-0
6
CONTINUOUS
62
  7
10
1162.675
20
563.098
30
0.0
11
1163.240
21
563.711
31
0.0
0
LINE
5
1e9f
8
0-0
6
CONTINUOUS
62
  7
10
1163.240
20
563.711
30
0.0
11
1163.752
21
564.335
31
0.0
0
LINE
5
1ea0
8
0-0
6
CONTINUOUS
62
  7
10
1163.752
20
564.335
30
0.0
11
1164.212
21
564.969
31
0.0
0
LINE
5
1ea1
8
0-0
6
CONTINUOUS
62
  7
10
1164.212
20
564.969
30
0.0
11
1164.618
21
565.611
31
0.0
0
LINE
5
1ea2
8
0-0
6
CONTINUOUS
62
  7
10
1164.618
20
565.611
30
0.0
11
1164.971
21
566.259
31
0.0
0
LINE
5
1ea3
8
0-0
6
CONTINUOUS
62
  7
10
1164.971
20
566.259
30
0.0
11
1165.269
21
566.912
31
0.0
0
LINE
5
1ea4
8
0-0
6
CONTINUOUS
62
  7
10
1165.269
20
566.912
30
0.0
11
1165.512
21
567.567
31
0.0
0
LINE
5
1ea5
8
0-0
6
CONTINUOUS
62
  7
10
1165.512
20
567.567
30
0.0
11
1165.702
21
568.223
31
0.0
0
LINE
5
1ea6
8
0-0
6
CONTINUOUS
62
  7
10
1165.702
20
568.223
30
0.0
11
1165.838
21
568.878
31
0.0
0
LINE
5
1ea7
8
0-0
6
CONTINUOUS
62
  7
10
1165.838
20
568.878
30
0.0
11
1165.920
21
569.529
31
0.0
0
LINE
5
1ea8
8
0-0
6
CONTINUOUS
62
  7
10
1165.920
20
569.529
30
0.0
11
1165.950
21
570.175
31
0.0
0
LINE
5
1ea9
8
0-0
6
CONTINUOUS
62
  7
10
1165.950
20
570.175
30
0.0
11
1165.928
21
570.815
31
0.0
0
LINE
5
1eaa
8
0-0
6
CONTINUOUS
62
  7
10
1165.928
20
570.815
30
0.0
11
1165.854
21
571.445
31
0.0
0
LINE
5
1eab
8
0-0
6
CONTINUOUS
62
  7
10
1165.854
20
571.445
30
0.0
11
1165.732
21
572.064
31
0.0
0
LINE
5
1eac
8
0-0
6
CONTINUOUS
62
  7
10
1165.732
20
572.064
30
0.0
11
1165.561
21
572.671
31
0.0
0
LINE
5
1ead
8
0-0
6
CONTINUOUS
62
  7
10
1165.561
20
572.671
30
0.0
11
1165.344
21
573.264
31
0.0
0
LINE
5
1eae
8
0-0
6
CONTINUOUS
62
  7
10
1165.344
20
573.264
30
0.0
11
1165.082
21
573.840
31
0.0
0
LINE
5
1eaf
8
0-0
6
CONTINUOUS
62
  7
10
1165.082
20
573.840
30
0.0
11
1164.776
21
574.398
31
0.0
0
LINE
5
1eb0
8
0-0
6
CONTINUOUS
62
  7
10
1164.776
20
574.398
30
0.0
11
1164.430
21
574.936
31
0.0
0
LINE
5
1eb1
8
0-0
6
CONTINUOUS
62
  7
10
1164.430
20
574.936
30
0.0
11
1164.046
21
575.452
31
0.0
0
LINE
5
1eb2
8
0-0
6
CONTINUOUS
62
  7
10
1164.046
20
575.452
30
0.0
11
1163.625
21
575.946
31
0.0
0
LINE
5
1eb3
8
0-0
6
CONTINUOUS
62
  7
10
1163.625
20
575.946
30
0.0
11
1163.170
21
576.415
31
0.0
0
LINE
5
1eb4
8
0-0
6
CONTINUOUS
62
  7
10
1163.170
20
576.415
30
0.0
11
1162.683
21
576.858
31
0.0
0
LINE
5
1eb5
8
0-0
6
CONTINUOUS
62
  7
10
1162.683
20
576.858
30
0.0
11
1162.168
21
577.274
31
0.0
0
LINE
5
1eb6
8
0-0
6
CONTINUOUS
62
  7
10
1162.168
20
577.274
30
0.0
11
1161.628
21
577.662
31
0.0
0
LINE
5
1eb7
8
0-0
6
CONTINUOUS
62
  7
10
1161.628
20
577.662
30
0.0
11
1161.064
21
578.020
31
0.0
0
LINE
5
1eb8
8
0-0
6
CONTINUOUS
62
  7
10
1161.064
20
578.020
30
0.0
11
1160.480
21
578.348
31
0.0
0
LINE
5
1eb9
8
0-0
6
CONTINUOUS
62
  7
10
1160.480
20
578.348
30
0.0
11
1159.879
21
578.645
31
0.0
0
LINE
5
1eba
8
0-0
6
CONTINUOUS
62
  7
10
1159.879
20
578.645
30
0.0
11
1159.264
21
578.909
31
0.0
0
LINE
5
1ebb
8
0-0
6
CONTINUOUS
62
  7
10
1159.264
20
578.909
30
0.0
11
1158.637
21
579.142
31
0.0
0
LINE
5
1ebc
8
0-0
6
CONTINUOUS
62
  7
10
1158.637
20
579.142
30
0.0
11
1158.002
21
579.342
31
0.0
0
LINE
5
1ebd
8
0-0
6
CONTINUOUS
62
  7
10
1158.002
20
579.342
30
0.0
11
1157.362
21
579.510
31
0.0
0
LINE
5
1ebe
8
0-0
6
CONTINUOUS
62
  7
10
1157.362
20
579.510
30
0.0
11
1156.719
21
579.645
31
0.0
0
LINE
5
1ebf
8
0-0
6
CONTINUOUS
62
  7
10
1156.719
20
579.645
30
0.0
11
1156.077
21
579.747
31
0.0
0
LINE
5
1ec0
8
0-0
6
CONTINUOUS
62
  7
10
1156.077
20
579.747
30
0.0
11
1155.437
21
579.817
31
0.0
0
LINE
5
1ec1
8
0-0
6
CONTINUOUS
62
  7
10
1155.437
20
579.817
30
0.0
11
1154.804
21
579.856
31
0.0
0
LINE
5
1ec2
8
0-0
6
CONTINUOUS
62
  7
10
1154.804
20
579.856
30
0.0
11
1154.179
21
579.864
31
0.0
0
LINE
5
1ec3
8
0-0
6
CONTINUOUS
62
  7
10
1154.179
20
579.864
30
0.0
11
1153.566
21
579.842
31
0.0
0
LINE
5
1ec4
8
0-0
6
CONTINUOUS
62
  7
10
1153.566
20
579.842
30
0.0
11
1152.965
21
579.792
31
0.0
0
LINE
5
1ec5
8
0-0
6
CONTINUOUS
62
  7
10
1152.965
20
579.792
30
0.0
11
1152.380
21
579.713
31
0.0
0
LINE
5
1ec6
8
0-0
6
CONTINUOUS
62
  7
10
1152.380
20
579.713
30
0.0
11
1151.813
21
579.608
31
0.0
0
LINE
5
1ec7
8
0-0
6
CONTINUOUS
62
  7
10
1151.813
20
579.608
30
0.0
11
1151.266
21
579.479
31
0.0
0
LINE
5
1ec8
8
0-0
6
CONTINUOUS
62
  7
10
1151.266
20
579.479
30
0.0
11
1150.740
21
579.326
31
0.0
0
LINE
5
1ec9
8
0-0
6
CONTINUOUS
62
  7
10
1150.740
20
579.326
30
0.0
11
1150.238
21
579.152
31
0.0
0
LINE
5
1eca
8
0-0
6
CONTINUOUS
62
  7
10
1150.238
20
579.152
30
0.0
11
1149.760
21
578.958
31
0.0
0
LINE
5
1ecb
8
0-0
6
CONTINUOUS
62
  7
10
1149.760
20
578.958
30
0.0
11
1149.308
21
578.746
31
0.0
0
LINE
5
1ecc
8
0-0
6
CONTINUOUS
62
  7
10
1149.308
20
578.746
30
0.0
11
1148.882
21
578.518
31
0.0
0
LINE
5
1ecd
8
0-0
6
CONTINUOUS
62
  7
10
1148.882
20
578.518
30
0.0
11
1148.485
21
578.277
31
0.0
0
LINE
5
1ece
8
0-0
6
CONTINUOUS
62
  7
10
1148.485
20
578.277
30
0.0
11
1148.115
21
578.024
31
0.0
0
LINE
5
1ecf
8
0-0
6
CONTINUOUS
62
  7
10
1148.115
20
578.024
30
0.0
11
1147.775
21
577.761
31
0.0
0
LINE
5
1ed0
8
0-0
6
CONTINUOUS
62
  7
10
1147.775
20
577.761
30
0.0
11
1147.465
21
577.491
31
0.0
0
LINE
5
1ed1
8
0-0
6
CONTINUOUS
62
  7
10
1147.465
20
577.491
30
0.0
11
1147.184
21
577.215
31
0.0
0
LINE
5
1ed2
8
0-0
6
CONTINUOUS
62
  7
10
1147.184
20
577.215
30
0.0
11
1146.932
21
576.935
31
0.0
0
LINE
5
1ed3
8
0-0
6
CONTINUOUS
62
  7
10
1146.932
20
576.935
30
0.0
11
1146.709
21
576.654
31
0.0
0
LINE
5
1ed4
8
0-0
6
CONTINUOUS
62
  7
10
1146.709
20
576.654
30
0.0
11
1146.516
21
576.374
31
0.0
0
LINE
5
1ed5
8
0-0
6
CONTINUOUS
62
  7
10
1146.516
20
576.374
30
0.0
11
1146.350
21
576.095
31
0.0
0
LINE
5
1ed6
8
0-0
6
CONTINUOUS
62
  7
10
1146.350
20
576.095
30
0.0
11
1146.213
21
575.820
31
0.0
0
LINE
5
1ed7
8
0-0
6
CONTINUOUS
62
  7
10
1146.213
20
575.820
30
0.0
11
1146.102
21
575.551
31
0.0
0
LINE
5
1ed8
8
0-0
6
CONTINUOUS
62
  7
10
1146.102
20
575.551
30
0.0
11
1146.018
21
575.289
31
0.0
0
LINE
5
1ed9
8
0-0
6
CONTINUOUS
62
  7
10
1146.018
20
575.289
30
0.0
11
1145.958
21
575.034
31
0.0
0
LINE
5
1eda
8
0-0
6
CONTINUOUS
62
  7
10
1145.958
20
575.034
30
0.0
11
1145.922
21
574.789
31
0.0
0
LINE
5
1edb
8
0-0
6
CONTINUOUS
62
  7
10
1145.922
20
574.789
30
0.0
11
1145.909
21
574.554
31
0.0
0
LINE
5
1edc
8
0-0
6
CONTINUOUS
62
  7
10
1145.909
20
574.554
30
0.0
11
1145.917
21
574.330
31
0.0
0
LINE
5
1edd
8
0-0
6
CONTINUOUS
62
  7
10
1145.917
20
574.330
30
0.0
11
1145.945
21
574.117
31
0.0
0
LINE
5
1ede
8
0-0
6
CONTINUOUS
62
  7
10
1145.945
20
574.117
30
0.0
11
1145.991
21
573.917
31
0.0
0
LINE
5
1edf
8
0-0
6
CONTINUOUS
62
  7
10
1145.991
20
573.917
30
0.0
11
1146.053
21
573.728
31
0.0
0
LINE
5
1ee0
8
0-0
6
CONTINUOUS
62
  7
10
1146.053
20
573.728
30
0.0
11
1146.131
21
573.553
31
0.0
0
LINE
5
1ee1
8
0-0
6
CONTINUOUS
62
  7
10
1146.131
20
573.553
30
0.0
11
1146.222
21
573.389
31
0.0
0
LINE
5
1ee2
8
0-0
6
CONTINUOUS
62
  7
10
1146.222
20
573.389
30
0.0
11
1146.325
21
573.238
31
0.0
0
LINE
5
1ee3
8
0-0
6
CONTINUOUS
62
  7
10
1146.325
20
573.238
30
0.0
11
1146.439
21
573.099
31
0.0
0
LINE
5
1ee4
8
0-0
6
CONTINUOUS
62
  7
10
1146.439
20
573.099
30
0.0
11
1146.560
21
572.971
31
0.0
0
LINE
5
1ee5
8
0-0
6
CONTINUOUS
62
  7
10
1146.560
20
572.971
30
0.0
11
1146.689
21
572.854
31
0.0
0
LINE
5
1ee6
8
0-0
6
CONTINUOUS
62
  7
10
1146.689
20
572.854
30
0.0
11
1146.822
21
572.746
31
0.0
0
LINE
5
1ee7
8
0-0
6
CONTINUOUS
62
  7
10
1146.822
20
572.746
30
0.0
11
1146.959
21
572.648
31
0.0
0
LINE
5
1ee8
8
0-0
6
CONTINUOUS
62
  7
10
1146.959
20
572.648
30
0.0
11
1147.097
21
572.557
31
0.0
0
LINE
5
1ee9
8
0-0
6
CONTINUOUS
62
  7
10
1147.097
20
572.557
30
0.0
11
1147.235
21
572.474
31
0.0
0
LINE
5
1eea
8
0-0
6
CONTINUOUS
62
  7
10
1147.235
20
572.474
30
0.0
11
1147.372
21
572.397
31
0.0
0
LINE
5
1eeb
8
0-0
6
CONTINUOUS
62
  7
10
1147.372
20
572.397
30
0.0
11
1147.504
21
572.326
31
0.0
0
LINE
5
1eec
8
0-0
6
CONTINUOUS
62
  7
10
1147.504
20
572.326
30
0.0
11
1147.632
21
572.258
31
0.0
0
LINE
5
1eed
8
0-0
6
CONTINUOUS
62
  7
10
1147.632
20
572.258
30
0.0
11
1147.753
21
572.193
31
0.0
0
LINE
5
1eee
8
0-0
6
CONTINUOUS
62
  7
10
1147.753
20
572.193
30
0.0
11
1147.865
21
572.131
31
0.0
0
LINE
5
1eef
8
0-0
6
CONTINUOUS
62
  7
10
1147.865
20
572.131
30
0.0
11
1147.967
21
572.070
31
0.0
0
LINE
5
1ef0
8
0-0
6
CONTINUOUS
62
  7
10
1147.967
20
572.070
30
0.0
11
1148.058
21
572.010
31
0.0
0
LINE
5
1ef1
8
0-0
6
CONTINUOUS
62
  7
10
1148.058
20
572.010
30
0.0
11
1148.135
21
571.950
31
0.0
0
LINE
5
1ef2
8
0-0
6
CONTINUOUS
62
  7
10
1148.135
20
571.950
30
0.0
11
1148.199
21
571.889
31
0.0
0
LINE
5
1ef3
8
0-0
6
CONTINUOUS
62
  7
10
1148.199
20
571.889
30
0.0
11
1148.246
21
571.827
31
0.0
0
LINE
5
1ef4
8
0-0
6
CONTINUOUS
62
  7
10
1148.246
20
571.827
30
0.0
11
1148.277
21
571.764
31
0.0
0
LINE
5
1ef5
8
0-0
6
CONTINUOUS
62
  7
10
1148.277
20
571.764
30
0.0
11
1148.289
21
571.700
31
0.0
0
LINE
5
1ef6
8
0-0
6
CONTINUOUS
62
  7
10
1148.289
20
571.700
30
0.0
11
1148.281
21
571.635
31
0.0
0
LINE
5
1ef7
8
0-0
6
CONTINUOUS
62
  7
10
1148.281
20
571.635
30
0.0
11
1148.254
21
571.569
31
0.0
0
LINE
5
1ef8
8
0-0
6
CONTINUOUS
62
  7
10
1148.254
20
571.569
30
0.0
11
1148.205
21
571.503
31
0.0
0
LINE
5
1ef9
8
0-0
6
CONTINUOUS
62
  7
10
1148.205
20
571.503
30
0.0
11
1148.134
21
571.438
31
0.0
0
LINE
5
1efa
8
0-0
6
CONTINUOUS
62
  7
10
1148.134
20
571.438
30
0.0
11
1148.040
21
571.375
31
0.0
0
LINE
5
1efb
8
0-0
6
CONTINUOUS
62
  7
10
1148.040
20
571.375
30
0.0
11
1147.924
21
571.315
31
0.0
0
LINE
5
1efc
8
0-0
6
CONTINUOUS
62
  7
10
1147.924
20
571.315
30
0.0
11
1147.784
21
571.258
31
0.0
0
LINE
5
1efd
8
0-0
6
CONTINUOUS
62
  7
10
1147.784
20
571.258
30
0.0
11
1147.621
21
571.208
31
0.0
0
LINE
5
1efe
8
0-0
6
CONTINUOUS
62
  7
10
1147.621
20
571.208
30
0.0
11
1147.436
21
571.165
31
0.0
0
LINE
5
1eff
8
0-0
6
CONTINUOUS
62
  7
10
1147.436
20
571.165
30
0.0
11
1147.227
21
571.131
31
0.0
0
LINE
5
1f00
8
0-0
6
CONTINUOUS
62
  7
10
1147.227
20
571.131
30
0.0
11
1146.997
21
571.109
31
0.0
0
LINE
5
1f01
8
0-0
6
CONTINUOUS
62
  7
10
1146.997
20
571.109
30
0.0
11
1146.746
21
571.099
31
0.0
0
LINE
5
1f02
8
0-0
6
CONTINUOUS
62
  7
10
1146.746
20
571.099
30
0.0
11
1146.475
21
571.106
31
0.0
0
LINE
5
1f03
8
0-0
6
CONTINUOUS
62
  7
10
1146.475
20
571.106
30
0.0
11
1146.186
21
571.129
31
0.0
0
LINE
5
1f04
8
0-0
6
CONTINUOUS
62
  7
10
1146.186
20
571.129
30
0.0
11
1145.881
21
571.173
31
0.0
0
LINE
5
1f05
8
0-0
6
CONTINUOUS
62
  7
10
1145.881
20
571.173
30
0.0
11
1145.561
21
571.238
31
0.0
0
LINE
5
1f06
8
0-0
6
CONTINUOUS
62
  7
10
1145.561
20
571.238
30
0.0
11
1145.230
21
571.328
31
0.0
0
LINE
5
1f07
8
0-0
6
CONTINUOUS
62
  7
10
1145.230
20
571.328
30
0.0
11
1144.888
21
571.444
31
0.0
0
LINE
5
1f08
8
0-0
6
CONTINUOUS
62
  7
10
1144.888
20
571.444
30
0.0
11
1144.540
21
571.587
31
0.0
0
LINE
5
1f09
8
0-0
6
CONTINUOUS
62
  7
10
1144.540
20
571.587
30
0.0
11
1144.188
21
571.760
31
0.0
0
LINE
5
1f0a
8
0-0
6
CONTINUOUS
62
  7
10
1144.188
20
571.760
30
0.0
11
1143.836
21
571.964
31
0.0
0
LINE
5
1f0b
8
0-0
6
CONTINUOUS
62
  7
10
1143.836
20
571.964
30
0.0
11
1143.487
21
572.201
31
0.0
0
LINE
5
1f0c
8
0-0
6
CONTINUOUS
62
  7
10
1143.487
20
572.201
30
0.0
11
1143.145
21
572.471
31
0.0
0
LINE
5
1f0d
8
0-0
6
CONTINUOUS
62
  7
10
1143.145
20
572.471
30
0.0
11
1142.813
21
572.776
31
0.0
0
LINE
5
1f0e
8
0-0
6
CONTINUOUS
62
  7
10
1142.813
20
572.776
30
0.0
11
1142.495
21
573.115
31
0.0
0
LINE
5
1f0f
8
0-0
6
CONTINUOUS
62
  7
10
1142.495
20
573.115
30
0.0
11
1142.195
21
573.489
31
0.0
0
LINE
5
1f10
8
0-0
6
CONTINUOUS
62
  7
10
1142.195
20
573.489
30
0.0
11
1141.917
21
573.897
31
0.0
0
LINE
5
1f11
8
0-0
6
CONTINUOUS
62
  7
10
1141.917
20
573.897
30
0.0
11
1141.665
21
574.340
31
0.0
0
LINE
5
1f12
8
0-0
6
CONTINUOUS
62
  7
10
1141.665
20
574.340
30
0.0
11
1141.443
21
574.816
31
0.0
0
LINE
5
1f13
8
0-0
6
CONTINUOUS
62
  7
10
1141.443
20
574.816
30
0.0
11
1141.254
21
575.323
31
0.0
0
LINE
5
1f14
8
0-0
6
CONTINUOUS
62
  7
10
1141.254
20
575.323
30
0.0
11
1141.101
21
575.861
31
0.0
0
LINE
5
1f15
8
0-0
6
CONTINUOUS
62
  7
10
1141.101
20
575.861
30
0.0
11
1140.989
21
576.427
31
0.0
0
LINE
5
1f16
8
0-0
6
CONTINUOUS
62
  7
10
1140.989
20
576.427
30
0.0
11
1140.921
21
577.019
31
0.0
0
LINE
5
1f17
8
0-0
6
CONTINUOUS
62
  7
10
1140.921
20
577.019
30
0.0
11
1140.898
21
577.635
31
0.0
0
LINE
5
1f18
8
0-0
6
CONTINUOUS
62
  7
10
1140.898
20
577.635
30
0.0
11
1140.925
21
578.271
31
0.0
0
LINE
5
1f19
8
0-0
6
CONTINUOUS
62
  7
10
1140.925
20
578.271
30
0.0
11
1141.003
21
578.923
31
0.0
0
LINE
5
1f1a
8
0-0
6
CONTINUOUS
62
  7
10
1141.003
20
578.923
30
0.0
11
1141.134
21
579.590
31
0.0
0
LINE
5
1f1b
8
0-0
6
CONTINUOUS
62
  7
10
1141.134
20
579.590
30
0.0
11
1141.319
21
580.267
31
0.0
0
LINE
5
1f1c
8
0-0
6
CONTINUOUS
62
  7
10
1141.319
20
580.267
30
0.0
11
1141.561
21
580.951
31
0.0
0
LINE
5
1f1d
8
0-0
6
CONTINUOUS
62
  7
10
1141.561
20
580.951
30
0.0
11
1141.860
21
581.637
31
0.0
0
LINE
5
1f1e
8
0-0
6
CONTINUOUS
62
  7
10
1141.860
20
581.637
30
0.0
11
1142.216
21
582.322
31
0.0
0
LINE
5
1f1f
8
0-0
6
CONTINUOUS
62
  7
10
1142.216
20
582.322
30
0.0
11
1142.630
21
583.002
31
0.0
0
LINE
5
1f20
8
0-0
6
CONTINUOUS
62
  7
10
1142.630
20
583.002
30
0.0
11
1143.102
21
583.672
31
0.0
0
LINE
5
1f21
8
0-0
6
CONTINUOUS
62
  7
10
1143.102
20
583.672
30
0.0
11
1143.630
21
584.329
31
0.0
0
LINE
5
1f22
8
0-0
6
CONTINUOUS
62
  7
10
1143.630
20
584.329
30
0.0
11
1144.215
21
584.969
31
0.0
0
LINE
5
1f23
8
0-0
6
CONTINUOUS
62
  7
10
1144.215
20
584.969
30
0.0
11
1144.855
21
585.589
31
0.0
0
LINE
5
1f24
8
0-0
6
CONTINUOUS
62
  7
10
1144.855
20
585.589
30
0.0
11
1145.549
21
586.184
31
0.0
0
LINE
5
1f25
8
0-0
6
CONTINUOUS
62
  7
10
1145.549
20
586.184
30
0.0
11
1146.295
21
586.751
31
0.0
0
LINE
5
1f26
8
0-0
6
CONTINUOUS
62
  7
10
1146.295
20
586.751
30
0.0
11
1147.092
21
587.288
31
0.0
0
LINE
5
1f27
8
0-0
6
CONTINUOUS
62
  7
10
1147.092
20
587.288
30
0.0
11
1147.937
21
587.791
31
0.0
0
LINE
5
1f28
8
0-0
6
CONTINUOUS
62
  7
10
1147.937
20
587.791
30
0.0
11
1148.828
21
588.257
31
0.0
0
LINE
5
1f29
8
0-0
6
CONTINUOUS
62
  7
10
1148.828
20
588.257
30
0.0
11
1149.763
21
588.684
31
0.0
0
LINE
5
1f2a
8
0-0
6
CONTINUOUS
62
  7
10
1149.763
20
588.684
30
0.0
11
1150.740
21
589.071
31
0.0
0
LINE
5
1f2b
8
0-0
6
CONTINUOUS
62
  7
10
1150.740
20
589.071
30
0.0
11
1151.755
21
589.414
31
0.0
0
LINE
5
1f2c
8
0-0
6
CONTINUOUS
62
  7
10
1151.755
20
589.414
30
0.0
11
1152.807
21
589.713
31
0.0
0
LINE
5
1f2d
8
0-0
6
CONTINUOUS
62
  7
10
1152.807
20
589.713
30
0.0
11
1153.892
21
589.966
31
0.0
0
LINE
5
1f2e
8
0-0
6
CONTINUOUS
62
  7
10
1153.892
20
589.966
30
0.0
11
1155.008
21
590.173
31
0.0
0
LINE
5
1f2f
8
0-0
6
CONTINUOUS
62
  7
10
1155.008
20
590.173
30
0.0
11
1156.152
21
590.333
31
0.0
0
LINE
5
1f30
8
0-0
6
CONTINUOUS
62
  7
10
1156.152
20
590.333
30
0.0
11
1157.320
21
590.444
31
0.0
0
LINE
5
1f31
8
0-0
6
CONTINUOUS
62
  7
10
1157.320
20
590.444
30
0.0
11
1158.511
21
590.508
31
0.0
0
LINE
5
1f32
8
0-0
6
CONTINUOUS
62
  7
10
1158.511
20
590.508
30
0.0
11
1159.720
21
590.524
31
0.0
0
LINE
5
1f33
8
0-0
6
CONTINUOUS
62
  7
10
1159.720
20
590.524
30
0.0
11
1160.944
21
590.493
31
0.0
0
LINE
5
1f34
8
0-0
6
CONTINUOUS
62
  7
10
1160.944
20
590.493
30
0.0
11
1162.181
21
590.415
31
0.0
0
LINE
5
1f35
8
0-0
6
CONTINUOUS
62
  7
10
1162.181
20
590.415
30
0.0
11
1163.428
21
590.292
31
0.0
0
LINE
5
1f36
8
0-0
6
CONTINUOUS
62
  7
10
1163.428
20
590.292
30
0.0
11
1164.681
21
590.124
31
0.0
0
LINE
5
1f37
8
0-0
6
CONTINUOUS
62
  7
10
1164.681
20
590.124
30
0.0
11
1165.938
21
589.913
31
0.0
0
LINE
5
1f38
8
0-0
6
CONTINUOUS
62
  7
10
1165.938
20
589.913
30
0.0
11
1167.196
21
589.660
31
0.0
0
LINE
5
1f39
8
0-0
6
CONTINUOUS
62
  7
10
1167.196
20
589.660
30
0.0
11
1168.452
21
589.367
31
0.0
0
LINE
5
1f3a
8
0-0
6
CONTINUOUS
62
  7
10
1168.452
20
589.367
30
0.0
11
1169.704
21
589.036
31
0.0
0
LINE
5
1f3b
8
0-0
6
CONTINUOUS
62
  7
10
1169.704
20
589.036
30
0.0
11
1170.951
21
588.669
31
0.0
0
LINE
5
1f3c
8
0-0
6
CONTINUOUS
62
  7
10
1170.951
20
588.669
30
0.0
11
1172.192
21
588.269
31
0.0
0
LINE
5
1f3d
8
0-0
6
CONTINUOUS
62
  7
10
1172.192
20
588.269
30
0.0
11
1173.427
21
587.838
31
0.0
0
LINE
5
1f3e
8
0-0
6
CONTINUOUS
62
  7
10
1173.427
20
587.838
30
0.0
11
1174.655
21
587.377
31
0.0
0
LINE
5
1f3f
8
0-0
6
CONTINUOUS
62
  7
10
1174.655
20
587.377
30
0.0
11
1175.879
21
586.891
31
0.0
0
LINE
5
1f40
8
0-0
6
CONTINUOUS
62
  7
10
1175.879
20
586.891
30
0.0
11
1177.100
21
586.381
31
0.0
0
LINE
5
1f41
8
0-0
6
CONTINUOUS
62
  7
10
1177.100
20
586.381
30
0.0
11
1178.325
21
585.850
31
0.0
0
LINE
5
1f42
8
0-0
6
CONTINUOUS
62
  7
10
1178.325
20
585.850
30
0.0
11
1179.558
21
585.301
31
0.0
0
LINE
5
1f43
8
0-0
6
CONTINUOUS
62
  7
10
1179.558
20
585.301
30
0.0
11
1180.806
21
584.736
31
0.0
0
LINE
5
1f44
8
0-0
6
CONTINUOUS
62
  7
10
1180.806
20
584.736
30
0.0
11
1181.974
21
584.206
31
0.0
0
LINE
5
1f45
8
0-0
6
CONTINUOUS
62
  7
10
1181.974
20
584.206
30
0.0
11
1183.549
21
583.322
31
0.0
0
LINE
5
1f46
8
0-0
6
CONTINUOUS
62
  7
10
1183.549
20
583.322
30
0.0
11
1185.026
21
582.373
31
0.0
0
LINE
5
1f47
8
0-0
6
CONTINUOUS
62
  7
10
1185.026
20
582.373
30
0.0
11
1186.408
21
581.364
31
0.0
0
LINE
5
1f48
8
0-0
6
CONTINUOUS
62
  7
10
1186.408
20
581.364
30
0.0
11
1187.694
21
580.296
31
0.0
0
LINE
5
1f49
8
0-0
6
CONTINUOUS
62
  7
10
1187.694
20
580.296
30
0.0
11
1188.882
21
579.170
31
0.0
0
LINE
5
1f4a
8
0-0
6
CONTINUOUS
62
  7
10
1188.882
20
579.170
30
0.0
11
1189.970
21
577.988
31
0.0
0
LINE
5
1f4b
8
0-0
6
CONTINUOUS
62
  7
10
1189.970
20
577.988
30
0.0
11
1190.955
21
576.752
31
0.0
0
LINE
5
1f4c
8
0-0
6
CONTINUOUS
62
  7
10
1190.955
20
576.752
30
0.0
11
1191.837
21
575.464
31
0.0
0
LINE
5
1f4d
8
0-0
6
CONTINUOUS
62
  7
10
1191.837
20
575.464
30
0.0
11
1192.613
21
574.127
31
0.0
0
LINE
5
1f4e
8
0-0
6
CONTINUOUS
62
  7
10
1192.613
20
574.127
30
0.0
11
1193.282
21
572.746
31
0.0
0
LINE
5
1f4f
8
0-0
6
CONTINUOUS
62
  7
10
1193.282
20
572.746
30
0.0
11
1193.845
21
571.326
31
0.0
0
LINE
5
1f50
8
0-0
6
CONTINUOUS
62
  7
10
1193.845
20
571.326
30
0.0
11
1194.304
21
569.872
31
0.0
0
LINE
5
1f51
8
0-0
6
CONTINUOUS
62
  7
10
1194.304
20
569.872
30
0.0
11
1194.659
21
568.390
31
0.0
0
LINE
5
1f52
8
0-0
6
CONTINUOUS
62
  7
10
1194.659
20
568.390
30
0.0
11
1194.914
21
566.887
31
0.0
0
LINE
5
1f53
8
0-0
6
CONTINUOUS
62
  7
10
1194.914
20
566.887
30
0.0
11
1195.073
21
565.370
31
0.0
0
LINE
5
1f54
8
0-0
6
CONTINUOUS
62
  7
10
1195.073
20
565.370
30
0.0
11
1195.138
21
563.845
31
0.0
0
LINE
5
1f55
8
0-0
6
CONTINUOUS
62
  7
10
1195.138
20
563.845
30
0.0
11
1195.115
21
562.320
31
0.0
0
LINE
5
1f56
8
0-0
6
CONTINUOUS
62
  7
10
1195.115
20
562.320
30
0.0
11
1195.009
21
560.800
31
0.0
0
LINE
5
1f57
8
0-0
6
CONTINUOUS
62
  7
10
1195.009
20
560.800
30
0.0
11
1194.826
21
559.291
31
0.0
0
LINE
5
1f58
8
0-0
6
CONTINUOUS
62
  7
10
1194.826
20
559.291
30
0.0
11
1194.570
21
557.799
31
0.0
0
LINE
5
1f59
8
0-0
6
CONTINUOUS
62
  7
10
1194.570
20
557.799
30
0.0
11
1194.247
21
556.327
31
0.0
0
LINE
5
1f5a
8
0-0
6
CONTINUOUS
62
  7
10
1194.247
20
556.327
30
0.0
11
1193.863
21
554.880
31
0.0
0
LINE
5
1f5b
8
0-0
6
CONTINUOUS
62
  7
10
1193.863
20
554.880
30
0.0
11
1193.423
21
553.460
31
0.0
0
LINE
5
1f5c
8
0-0
6
CONTINUOUS
62
  7
10
1193.423
20
553.460
30
0.0
11
1192.932
21
552.071
31
0.0
0
LINE
5
1f5d
8
0-0
6
CONTINUOUS
62
  7
10
1192.932
20
552.071
30
0.0
11
1192.395
21
550.712
31
0.0
0
LINE
5
1f5e
8
0-0
6
CONTINUOUS
62
  7
10
1192.395
20
550.712
30
0.0
11
1191.817
21
549.385
31
0.0
0
LINE
5
1f5f
8
0-0
6
CONTINUOUS
62
  7
10
1191.817
20
549.385
30
0.0
11
1191.201
21
548.090
31
0.0
0
LINE
5
1f60
8
0-0
6
CONTINUOUS
62
  7
10
1191.201
20
548.090
30
0.0
11
1190.551
21
546.827
31
0.0
0
LINE
5
1f61
8
0-0
6
CONTINUOUS
62
  7
10
1190.551
20
546.827
30
0.0
11
1189.870
21
545.593
31
0.0
0
LINE
5
1f62
8
0-0
6
CONTINUOUS
62
  7
10
1189.870
20
545.593
30
0.0
11
1189.162
21
544.388
31
0.0
0
LINE
5
1f63
8
0-0
6
CONTINUOUS
62
  7
10
1189.162
20
544.388
30
0.0
11
1188.428
21
543.211
31
0.0
0
LINE
5
1f64
8
0-0
6
CONTINUOUS
62
  7
10
1188.428
20
543.211
30
0.0
11
1187.671
21
542.058
31
0.0
0
LINE
5
1f65
8
0-0
6
CONTINUOUS
62
  7
10
1187.671
20
542.058
30
0.0
11
1186.893
21
540.929
31
0.0
0
LINE
5
1f66
8
0-0
6
CONTINUOUS
62
  7
10
1186.893
20
540.929
30
0.0
11
1186.095
21
539.821
31
0.0
0
LINE
5
1f67
8
0-0
6
CONTINUOUS
62
  7
10
1186.095
20
539.821
30
0.0
11
1185.278
21
538.733
31
0.0
0
LINE
5
1f68
8
0-0
6
CONTINUOUS
62
  7
10
1185.278
20
538.733
30
0.0
11
1184.445
21
537.663
31
0.0
0
LINE
5
1f69
8
0-0
6
CONTINUOUS
62
  7
10
1184.445
20
537.663
30
0.0
11
1183.597
21
536.612
31
0.0
0
LINE
5
1f6a
8
0-0
6
CONTINUOUS
62
  7
10
1183.597
20
536.612
30
0.0
11
1182.735
21
535.578
31
0.0
0
LINE
5
1f6b
8
0-0
6
CONTINUOUS
62
  7
10
1182.735
20
535.578
30
0.0
11
1181.862
21
534.562
31
0.0
0
LINE
5
1f6c
8
0-0
6
CONTINUOUS
62
  7
10
1181.862
20
534.562
30
0.0
11
1180.980
21
533.565
31
0.0
0
LINE
5
1f6d
8
0-0
6
CONTINUOUS
62
  7
10
1180.980
20
533.565
30
0.0
11
1180.094
21
532.587
31
0.0
0
LINE
5
1f6e
8
0-0
6
CONTINUOUS
62
  7
10
1180.094
20
532.587
30
0.0
11
1179.205
21
531.632
31
0.0
0
LINE
5
1f6f
8
0-0
6
CONTINUOUS
62
  7
10
1179.205
20
531.632
30
0.0
11
1178.320
21
530.701
31
0.0
0
LINE
5
1f70
8
0-0
6
CONTINUOUS
62
  7
10
1178.320
20
530.701
30
0.0
11
1177.444
21
529.799
31
0.0
0
LINE
5
1f71
8
0-0
6
CONTINUOUS
62
  7
10
1177.444
20
529.799
30
0.0
11
1176.585
21
528.928
31
0.0
0
LINE
5
1f72
8
0-0
6
CONTINUOUS
62
  7
10
1176.585
20
528.928
30
0.0
11
1175.749
21
528.092
31
0.0
0
LINE
5
1f73
8
0-0
6
CONTINUOUS
62
  7
10
1175.749
20
528.092
30
0.0
11
1174.946
21
527.295
31
0.0
0
LINE
5
1f74
8
0-0
6
CONTINUOUS
62
  7
10
1174.946
20
527.295
30
0.0
11
1174.186
21
526.541
31
0.0
0
LINE
5
1f75
8
0-0
6
CONTINUOUS
62
  7
10
1174.186
20
526.541
30
0.0
11
1173.480
21
525.833
31
0.0
0
LINE
5
1f76
8
0-0
6
CONTINUOUS
62
  7
10
1173.480
20
525.833
30
0.0
11
1172.838
21
525.175
31
0.0
0
LINE
5
1f77
8
0-0
6
CONTINUOUS
62
  7
10
1172.838
20
525.175
30
0.0
11
1172.272
21
524.568
31
0.0
0
LINE
5
1f78
8
0-0
6
CONTINUOUS
62
  7
10
1172.272
20
524.568
30
0.0
11
1171.792
21
524.012
31
0.0
0
LINE
5
1f79
8
0-0
6
CONTINUOUS
62
  7
10
1171.792
20
524.012
30
0.0
11
1171.407
21
523.506
31
0.0
0
LINE
5
1f7a
8
0-0
6
CONTINUOUS
62
  7
10
1171.407
20
523.506
30
0.0
11
1171.124
21
523.046
31
0.0
0
LINE
5
1f7b
8
0-0
6
CONTINUOUS
62
  7
10
1145.946
20
502.703
30
0.0
11
1070.946
21
502.703
31
0.0
0
LINE
5
1f7c
8
0-0
6
CONTINUOUS
62
  7
10
1045.946
20
537.703
30
0.0
11
1045.946
21
553.703
31
0.0
0
LINE
5
1f7d
8
0-0
6
CONTINUOUS
62
  7
10
1055.946
20
560.703
30
0.0
11
1055.001
21
560.385
31
0.0
0
LINE
5
1f7e
8
0-0
6
CONTINUOUS
62
  7
10
1055.001
20
560.385
30
0.0
11
1054.114
21
560.057
31
0.0
0
LINE
5
1f7f
8
0-0
6
CONTINUOUS
62
  7
10
1054.114
20
560.057
30
0.0
11
1053.278
21
559.715
31
0.0
0
LINE
5
1f80
8
0-0
6
CONTINUOUS
62
  7
10
1053.278
20
559.715
30
0.0
11
1052.489
21
559.352
31
0.0
0
LINE
5
1f81
8
0-0
6
CONTINUOUS
62
  7
10
1052.489
20
559.352
30
0.0
11
1051.741
21
558.967
31
0.0
0
LINE
5
1f82
8
0-0
6
CONTINUOUS
62
  7
10
1051.741
20
558.967
30
0.0
11
1051.029
21
558.553
31
0.0
0
LINE
5
1f83
8
0-0
6
CONTINUOUS
62
  7
10
1051.029
20
558.553
30
0.0
11
1050.346
21
558.106
31
0.0
0
LINE
5
1f84
8
0-0
6
CONTINUOUS
62
  7
10
1050.346
20
558.106
30
0.0
11
1049.688
21
557.623
31
0.0
0
LINE
5
1f85
8
0-0
6
CONTINUOUS
62
  7
10
1049.688
20
557.623
30
0.0
11
1049.049
21
557.098
31
0.0
0
LINE
5
1f86
8
0-0
6
CONTINUOUS
62
  7
10
1049.049
20
557.098
30
0.0
11
1048.424
21
556.528
31
0.0
0
LINE
5
1f87
8
0-0
6
CONTINUOUS
62
  7
10
1048.424
20
556.528
30
0.0
11
1047.806
21
555.908
31
0.0
0
LINE
5
1f88
8
0-0
6
CONTINUOUS
62
  7
10
1047.806
20
555.908
30
0.0
11
1047.191
21
555.233
31
0.0
0
LINE
5
1f89
8
0-0
6
CONTINUOUS
62
  7
10
1047.191
20
555.233
30
0.0
11
1046.573
21
554.500
31
0.0
0
LINE
5
1f8a
8
0-0
6
CONTINUOUS
62
  7
10
1046.573
20
554.500
30
0.0
11
1045.946
21
553.703
31
0.0
0
LINE
5
1f8b
8
0-0
6
CONTINUOUS
62
  7
10
1072.828
20
560.703
30
0.0
11
1055.946
21
560.703
31
0.0
0
LINE
5
1f8c
8
0-0
6
CONTINUOUS
62
  7
10
1141.638
20
554.567
30
0.0
11
1139.998
21
553.832
31
0.0
0
LINE
5
1f8d
8
0-0
6
CONTINUOUS
62
  7
10
1139.998
20
553.832
30
0.0
11
1138.476
21
553.180
31
0.0
0
LINE
5
1f8e
8
0-0
6
CONTINUOUS
62
  7
10
1138.476
20
553.180
30
0.0
11
1137.048
21
552.612
31
0.0
0
LINE
5
1f8f
8
0-0
6
CONTINUOUS
62
  7
10
1137.048
20
552.612
30
0.0
11
1135.696
21
552.125
31
0.0
0
LINE
5
1f90
8
0-0
6
CONTINUOUS
62
  7
10
1135.696
20
552.125
30
0.0
11
1134.404
21
551.718
31
0.0
0
LINE
5
1f91
8
0-0
6
CONTINUOUS
62
  7
10
1134.404
20
551.718
30
0.0
11
1133.165
21
551.388
31
0.0
0
LINE
5
1f92
8
0-0
6
CONTINUOUS
62
  7
10
1133.165
20
551.388
30
0.0
11
1131.976
21
551.132
31
0.0
0
LINE
5
1f93
8
0-0
6
CONTINUOUS
62
  7
10
1131.976
20
551.132
30
0.0
11
1130.838
21
550.944
31
0.0
0
LINE
5
1f94
8
0-0
6
CONTINUOUS
62
  7
10
1130.838
20
550.944
30
0.0
11
1129.752
21
550.817
31
0.0
0
LINE
5
1f95
8
0-0
6
CONTINUOUS
62
  7
10
1129.752
20
550.817
30
0.0
11
1128.723
21
550.743
31
0.0
0
LINE
5
1f96
8
0-0
6
CONTINUOUS
62
  7
10
1128.723
20
550.743
30
0.0
11
1127.753
21
550.712
31
0.0
0
LINE
5
1f97
8
0-0
6
CONTINUOUS
62
  7
10
1127.753
20
550.712
30
0.0
11
1126.843
21
550.713
31
0.0
0
LINE
5
1f98
8
0-0
6
CONTINUOUS
62
  7
10
1126.843
20
550.713
30
0.0
11
1126.000
21
550.735
31
0.0
0
LINE
5
1f99
8
0-0
6
CONTINUOUS
62
  7
10
1126.000
20
550.735
30
0.0
11
1125.224
21
550.769
31
0.0
0
LINE
5
1f9a
8
0-0
6
CONTINUOUS
62
  7
10
1125.224
20
550.769
30
0.0
11
1124.513
21
550.805
31
0.0
0
LINE
5
1f9b
8
0-0
6
CONTINUOUS
62
  7
10
1124.513
20
550.805
30
0.0
11
1123.870
21
550.836
31
0.0
0
LINE
5
1f9c
8
0-0
6
CONTINUOUS
62
  7
10
1123.870
20
550.836
30
0.0
11
1123.293
21
550.857
31
0.0
0
LINE
5
1f9d
8
0-0
6
CONTINUOUS
62
  7
10
1123.293
20
550.857
30
0.0
11
1122.786
21
550.863
31
0.0
0
LINE
5
1f9e
8
0-0
6
CONTINUOUS
62
  7
10
1122.786
20
550.863
30
0.0
11
1122.341
21
550.852
31
0.0
0
LINE
5
1f9f
8
0-0
6
CONTINUOUS
62
  7
10
1122.341
20
550.852
30
0.0
11
1121.958
21
550.826
31
0.0
0
LINE
5
1fa0
8
0-0
6
CONTINUOUS
62
  7
10
1121.958
20
550.826
30
0.0
11
1121.627
21
550.784
31
0.0
0
LINE
5
1fa1
8
0-0
6
CONTINUOUS
62
  7
10
1121.627
20
550.784
30
0.0
11
1121.339
21
550.730
31
0.0
0
LINE
5
1fa2
8
0-0
6
CONTINUOUS
62
  7
10
1121.339
20
550.730
30
0.0
11
1121.081
21
550.663
31
0.0
0
LINE
5
1fa3
8
0-0
6
CONTINUOUS
62
  7
10
1121.081
20
550.663
30
0.0
11
1120.844
21
550.582
31
0.0
0
LINE
5
1fa4
8
0-0
6
CONTINUOUS
62
  7
10
1120.844
20
550.582
30
0.0
11
1120.612
21
550.485
31
0.0
0
LINE
5
1fa5
8
0-0
6
CONTINUOUS
62
  7
10
1120.612
20
550.485
30
0.0
11
1120.377
21
550.367
31
0.0
0
LINE
5
1fa6
8
0-0
6
CONTINUOUS
62
  7
10
1120.377
20
550.367
30
0.0
11
1120.132
21
550.225
31
0.0
0
LINE
5
1fa7
8
0-0
6
CONTINUOUS
62
  7
10
1120.132
20
550.225
30
0.0
11
1119.873
21
550.057
31
0.0
0
LINE
5
1fa8
8
0-0
6
CONTINUOUS
62
  7
10
1119.873
20
550.057
30
0.0
11
1119.599
21
549.860
31
0.0
0
LINE
5
1fa9
8
0-0
6
CONTINUOUS
62
  7
10
1119.599
20
549.860
30
0.0
11
1119.309
21
549.636
31
0.0
0
LINE
5
1faa
8
0-0
6
CONTINUOUS
62
  7
10
1119.309
20
549.636
30
0.0
11
1119.006
21
549.387
31
0.0
0
LINE
5
1fab
8
0-0
6
CONTINUOUS
62
  7
10
1119.006
20
549.387
30
0.0
11
1118.683
21
549.111
31
0.0
0
LINE
5
1fac
8
0-0
6
CONTINUOUS
62
  7
10
1118.683
20
549.111
30
0.0
11
1118.357
21
548.825
31
0.0
0
LINE
5
1fad
8
0-0
6
CONTINUOUS
62
  7
10
1118.357
20
548.825
30
0.0
11
1118.014
21
548.520
31
0.0
0
LINE
5
1fae
8
0-0
6
CONTINUOUS
62
  7
10
1118.014
20
548.520
30
0.0
11
1117.652
21
548.197
31
0.0
0
LINE
5
1faf
8
0-0
6
CONTINUOUS
62
  7
10
1117.652
20
548.197
30
0.0
11
1117.281
21
547.870
31
0.0
0
LINE
5
1fb0
8
0-0
6
CONTINUOUS
62
  7
10
1117.281
20
547.870
30
0.0
11
1116.901
21
547.541
31
0.0
0
LINE
5
1fb1
8
0-0
6
CONTINUOUS
62
  7
10
1116.901
20
547.541
30
0.0
11
1116.511
21
547.213
31
0.0
0
LINE
5
1fb2
8
0-0
6
CONTINUOUS
62
  7
10
1116.511
20
547.213
30
0.0
11
1116.109
21
546.887
31
0.0
0
LINE
5
1fb3
8
0-0
6
CONTINUOUS
62
  7
10
1116.109
20
546.887
30
0.0
11
1115.701
21
546.569
31
0.0
0
LINE
5
1fb4
8
0-0
6
CONTINUOUS
62
  7
10
1115.701
20
546.569
30
0.0
11
1115.284
21
546.260
31
0.0
0
LINE
5
1fb5
8
0-0
6
CONTINUOUS
62
  7
10
1115.284
20
546.260
30
0.0
11
1114.859
21
545.961
31
0.0
0
LINE
5
1fb6
8
0-0
6
CONTINUOUS
62
  7
10
1114.859
20
545.961
30
0.0
11
1114.429
21
545.676
31
0.0
0
LINE
5
1fb7
8
0-0
6
CONTINUOUS
62
  7
10
1114.429
20
545.676
30
0.0
11
1113.998
21
545.406
31
0.0
0
LINE
5
1fb8
8
0-0
6
CONTINUOUS
62
  7
10
1113.998
20
545.406
30
0.0
11
1113.564
21
545.150
31
0.0
0
LINE
5
1fb9
8
0-0
6
CONTINUOUS
62
  7
10
1113.564
20
545.150
30
0.0
11
1113.129
21
544.909
31
0.0
0
LINE
5
1fba
8
0-0
6
CONTINUOUS
62
  7
10
1113.129
20
544.909
30
0.0
11
1112.699
21
544.686
31
0.0
0
LINE
5
1fbb
8
0-0
6
CONTINUOUS
62
  7
10
1112.699
20
544.686
30
0.0
11
1112.271
21
544.475
31
0.0
0
LINE
5
1fbc
8
0-0
6
CONTINUOUS
62
  7
10
1112.271
20
544.475
30
0.0
11
1111.850
21
544.280
31
0.0
0
LINE
5
1fbd
8
0-0
6
CONTINUOUS
62
  7
10
1111.850
20
544.280
30
0.0
11
1111.435
21
544.095
31
0.0
0
LINE
5
1fbe
8
0-0
6
CONTINUOUS
62
  7
10
1111.435
20
544.095
30
0.0
11
1111.030
21
543.922
31
0.0
0
LINE
5
1fbf
8
0-0
6
CONTINUOUS
62
  7
10
1111.030
20
543.922
30
0.0
11
1110.632
21
543.757
31
0.0
0
LINE
5
1fc0
8
0-0
6
CONTINUOUS
62
  7
10
1110.632
20
543.757
30
0.0
11
1110.249
21
543.602
31
0.0
0
LINE
5
1fc1
8
0-0
6
CONTINUOUS
62
  7
10
1110.249
20
543.602
30
0.0
11
1109.896
21
543.459
31
0.0
0
LINE
5
1fc2
8
0-0
6
CONTINUOUS
62
  7
10
1109.896
20
543.459
30
0.0
11
1109.482
21
543.292
31
0.0
0
LINE
5
1fc3
8
0-0
6
CONTINUOUS
62
  7
10
1109.482
20
543.292
30
0.0
11
1109.110
21
543.140
31
0.0
0
LINE
5
1fc4
8
0-0
6
CONTINUOUS
62
  7
10
1109.110
20
543.140
30
0.0
11
1108.743
21
542.987
31
0.0
0
LINE
5
1fc5
8
0-0
6
CONTINUOUS
62
  7
10
1108.743
20
542.987
30
0.0
11
1108.368
21
542.828
31
0.0
0
LINE
5
1fc6
8
0-0
6
CONTINUOUS
62
  7
10
1108.368
20
542.828
30
0.0
11
1107.991
21
542.662
31
0.0
0
LINE
5
1fc7
8
0-0
6
CONTINUOUS
62
  7
10
1107.991
20
542.662
30
0.0
11
1107.605
21
542.488
31
0.0
0
LINE
5
1fc8
8
0-0
6
CONTINUOUS
62
  7
10
1107.605
20
542.488
30
0.0
11
1107.206
21
542.303
31
0.0
0
LINE
5
1fc9
8
0-0
6
CONTINUOUS
62
  7
10
1107.206
20
542.303
30
0.0
11
1106.794
21
542.106
31
0.0
0
LINE
5
1fca
8
0-0
6
CONTINUOUS
62
  7
10
1106.794
20
542.106
30
0.0
11
1106.363
21
541.895
31
0.0
0
LINE
5
1fcb
8
0-0
6
CONTINUOUS
62
  7
10
1106.363
20
541.895
30
0.0
11
1105.918
21
541.673
31
0.0
0
LINE
5
1fcc
8
0-0
6
CONTINUOUS
62
  7
10
1105.918
20
541.673
30
0.0
11
1105.443
21
541.432
31
0.0
0
LINE
5
1fcd
8
0-0
6
CONTINUOUS
62
  7
10
1105.443
20
541.432
30
0.0
11
1104.951
21
541.180
31
0.0
0
LINE
5
1fce
8
0-0
6
CONTINUOUS
62
  7
10
1104.951
20
541.180
30
0.0
11
1104.425
21
540.910
31
0.0
0
LINE
5
1fcf
8
0-0
6
CONTINUOUS
62
  7
10
1104.425
20
540.910
30
0.0
11
1103.869
21
540.626
31
0.0
0
LINE
5
1fd0
8
0-0
6
CONTINUOUS
62
  7
10
1103.869
20
540.626
30
0.0
11
1103.284
21
540.329
31
0.0
0
LINE
5
1fd1
8
0-0
6
CONTINUOUS
62
  7
10
1103.284
20
540.329
30
0.0
11
1102.673
21
540.024
31
0.0
0
LINE
5
1fd2
8
0-0
6
CONTINUOUS
62
  7
10
1102.673
20
540.024
30
0.0
11
1102.027
21
539.708
31
0.0
0
LINE
5
1fd3
8
0-0
6
CONTINUOUS
62
  7
10
1102.027
20
539.708
30
0.0
11
1101.346
21
539.385
31
0.0
0
LINE
5
1fd4
8
0-0
6
CONTINUOUS
62
  7
10
1101.346
20
539.385
30
0.0
11
1100.635
21
539.059
31
0.0
0
LINE
5
1fd5
8
0-0
6
CONTINUOUS
62
  7
10
1100.635
20
539.059
30
0.0
11
1099.887
21
538.730
31
0.0
0
LINE
5
1fd6
8
0-0
6
CONTINUOUS
62
  7
10
1099.887
20
538.730
30
0.0
11
1099.111
21
538.404
31
0.0
0
LINE
5
1fd7
8
0-0
6
CONTINUOUS
62
  7
10
1099.111
20
538.404
30
0.0
11
1098.298
21
538.081
31
0.0
0
LINE
5
1fd8
8
0-0
6
CONTINUOUS
62
  7
10
1098.298
20
538.081
30
0.0
11
1097.453
21
537.765
31
0.0
0
LINE
5
1fd9
8
0-0
6
CONTINUOUS
62
  7
10
1097.453
20
537.765
30
0.0
11
1096.577
21
537.459
31
0.0
0
LINE
5
1fda
8
0-0
6
CONTINUOUS
62
  7
10
1096.577
20
537.459
30
0.0
11
1095.669
21
537.167
31
0.0
0
LINE
5
1fdb
8
0-0
6
CONTINUOUS
62
  7
10
1095.669
20
537.167
30
0.0
11
1094.734
21
536.890
31
0.0
0
LINE
5
1fdc
8
0-0
6
CONTINUOUS
62
  7
10
1094.734
20
536.890
30
0.0
11
1093.769
21
536.632
31
0.0
0
LINE
5
1fdd
8
0-0
6
CONTINUOUS
62
  7
10
1093.769
20
536.632
30
0.0
11
1092.781
21
536.396
31
0.0
0
LINE
5
1fde
8
0-0
6
CONTINUOUS
62
  7
10
1092.781
20
536.396
30
0.0
11
1091.767
21
536.183
31
0.0
0
LINE
5
1fdf
8
0-0
6
CONTINUOUS
62
  7
10
1091.767
20
536.183
30
0.0
11
1090.735
21
535.997
31
0.0
0
LINE
5
1fe0
8
0-0
6
CONTINUOUS
62
  7
10
1090.735
20
535.997
30
0.0
11
1089.682
21
535.839
31
0.0
0
LINE
5
1fe1
8
0-0
6
CONTINUOUS
62
  7
10
1089.682
20
535.839
30
0.0
11
1088.615
21
535.710
31
0.0
0
LINE
5
1fe2
8
0-0
6
CONTINUOUS
62
  7
10
1088.615
20
535.710
30
0.0
11
1087.534
21
535.613
31
0.0
0
LINE
5
1fe3
8
0-0
6
CONTINUOUS
62
  7
10
1087.534
20
535.613
30
0.0
11
1086.444
21
535.548
31
0.0
0
LINE
5
1fe4
8
0-0
6
CONTINUOUS
62
  7
10
1086.444
20
535.548
30
0.0
11
1085.346
21
535.516
31
0.0
0
LINE
5
1fe5
8
0-0
6
CONTINUOUS
62
  7
10
1085.346
20
535.516
30
0.0
11
1084.245
21
535.519
31
0.0
0
LINE
5
1fe6
8
0-0
6
CONTINUOUS
62
  7
10
1084.245
20
535.519
30
0.0
11
1083.142
21
535.556
31
0.0
0
LINE
5
1fe7
8
0-0
6
CONTINUOUS
62
  7
10
1083.142
20
535.556
30
0.0
11
1082.043
21
535.628
31
0.0
0
LINE
5
1fe8
8
0-0
6
CONTINUOUS
62
  7
10
1082.043
20
535.628
30
0.0
11
1080.948
21
535.734
31
0.0
0
LINE
5
1fe9
8
0-0
6
CONTINUOUS
62
  7
10
1080.948
20
535.734
30
0.0
11
1079.862
21
535.875
31
0.0
0
LINE
5
1fea
8
0-0
6
CONTINUOUS
62
  7
10
1079.862
20
535.875
30
0.0
11
1078.785
21
536.050
31
0.0
0
LINE
5
1feb
8
0-0
6
CONTINUOUS
62
  7
10
1078.785
20
536.050
30
0.0
11
1077.722
21
536.258
31
0.0
0
LINE
5
1fec
8
0-0
6
CONTINUOUS
62
  7
10
1077.722
20
536.258
30
0.0
11
1076.674
21
536.499
31
0.0
0
LINE
5
1fed
8
0-0
6
CONTINUOUS
62
  7
10
1076.674
20
536.499
30
0.0
11
1075.645
21
536.773
31
0.0
0
LINE
5
1fee
8
0-0
6
CONTINUOUS
62
  7
10
1075.645
20
536.773
30
0.0
11
1074.634
21
537.078
31
0.0
0
LINE
5
1fef
8
0-0
6
CONTINUOUS
62
  7
10
1074.634
20
537.078
30
0.0
11
1073.644
21
537.415
31
0.0
0
LINE
5
1ff0
8
0-0
6
CONTINUOUS
62
  7
10
1073.644
20
537.415
30
0.0
11
1072.679
21
537.782
31
0.0
0
LINE
5
1ff1
8
0-0
6
CONTINUOUS
62
  7
10
1072.679
20
537.782
30
0.0
11
1071.736
21
538.180
31
0.0
0
LINE
5
1ff2
8
0-0
6
CONTINUOUS
62
  7
10
1071.736
20
538.180
30
0.0
11
1070.820
21
538.607
31
0.0
0
LINE
5
1ff3
8
0-0
6
CONTINUOUS
62
  7
10
1070.820
20
538.607
30
0.0
11
1069.929
21
539.064
31
0.0
0
LINE
5
1ff4
8
0-0
6
CONTINUOUS
62
  7
10
1069.929
20
539.064
30
0.0
11
1069.067
21
539.550
31
0.0
0
LINE
5
1ff5
8
0-0
6
CONTINUOUS
62
  7
10
1069.067
20
539.550
30
0.0
11
1068.231
21
540.066
31
0.0
0
LINE
5
1ff6
8
0-0
6
CONTINUOUS
62
  7
10
1068.231
20
540.066
30
0.0
11
1067.425
21
540.610
31
0.0
0
LINE
5
1ff7
8
0-0
6
CONTINUOUS
62
  7
10
1067.425
20
540.610
30
0.0
11
1066.648
21
541.184
31
0.0
0
LINE
5
1ff8
8
0-0
6
CONTINUOUS
62
  7
10
1066.648
20
541.184
30
0.0
11
1065.900
21
541.787
31
0.0
0
LINE
5
1ff9
8
0-0
6
CONTINUOUS
62
  7
10
1065.900
20
541.787
30
0.0
11
1065.183
21
542.418
31
0.0
0
LINE
5
1ffa
8
0-0
6
CONTINUOUS
62
  7
10
1065.183
20
542.418
30
0.0
11
1064.495
21
543.079
31
0.0
0
LINE
5
1ffb
8
0-0
6
CONTINUOUS
62
  7
10
1064.495
20
543.079
30
0.0
11
1063.837
21
543.768
31
0.0
0
LINE
5
1ffc
8
0-0
6
CONTINUOUS
62
  7
10
1063.837
20
543.768
30
0.0
11
1063.209
21
544.486
31
0.0
0
LINE
5
1ffd
8
0-0
6
CONTINUOUS
62
  7
10
1063.209
20
544.486
30
0.0
11
1062.611
21
545.233
31
0.0
0
LINE
5
1ffe
8
0-0
6
CONTINUOUS
62
  7
10
1062.611
20
545.233
30
0.0
11
1062.044
21
546.007
31
0.0
0
LINE
5
1fff
8
0-0
6
CONTINUOUS
62
  7
10
1062.044
20
546.007
30
0.0
11
1061.505
21
546.812
31
0.0
0
LINE
5
2000
8
0-0
6
CONTINUOUS
62
  7
10
1061.505
20
546.812
30
0.0
11
1060.994
21
547.647
31
0.0
0
LINE
5
2001
8
0-0
6
CONTINUOUS
62
  7
10
1060.994
20
547.647
30
0.0
11
1060.513
21
548.510
31
0.0
0
LINE
5
2002
8
0-0
6
CONTINUOUS
62
  7
10
1060.513
20
548.510
30
0.0
11
1060.062
21
549.406
31
0.0
0
LINE
5
2003
8
0-0
6
CONTINUOUS
62
  7
10
1060.062
20
549.406
30
0.0
11
1059.640
21
550.333
31
0.0
0
LINE
5
2004
8
0-0
6
CONTINUOUS
62
  7
10
1059.640
20
550.333
30
0.0
11
1059.249
21
551.295
31
0.0
0
LINE
5
2005
8
0-0
6
CONTINUOUS
62
  7
10
1059.249
20
551.295
30
0.0
11
1058.891
21
552.292
31
0.0
0
LINE
5
2006
8
0-0
6
CONTINUOUS
62
  7
10
1058.891
20
552.292
30
0.0
11
1058.567
21
553.323
31
0.0
0
LINE
5
2007
8
0-0
6
CONTINUOUS
62
  7
10
1058.567
20
553.323
30
0.0
11
1058.279
21
554.394
31
0.0
0
LINE
5
2008
8
0-0
6
CONTINUOUS
62
  7
10
1058.279
20
554.394
30
0.0
11
1058.027
21
555.502
31
0.0
0
LINE
5
2009
8
0-0
6
CONTINUOUS
62
  7
10
1058.027
20
555.502
30
0.0
11
1057.812
21
556.651
31
0.0
0
LINE
5
200a
8
0-0
6
CONTINUOUS
62
  7
10
1057.812
20
556.651
30
0.0
11
1057.630
21
557.845
31
0.0
0
LINE
5
200b
8
0-0
6
CONTINUOUS
62
  7
10
1057.630
20
557.845
30
0.0
11
1057.476
21
559.094
31
0.0
0
LINE
5
200c
8
0-0
6
CONTINUOUS
62
  7
10
1057.476
20
559.094
30
0.0
11
1057.340
21
560.392
31
0.0
0
LINE
5
200d
8
0-0
6
CONTINUOUS
62
  7
10
1141.638
20
554.567
30
0.0
11
1143.835
21
556.025
31
0.0
0
LINE
5
200e
8
0-0
6
CONTINUOUS
62
  7
10
1138.630
20
556.510
30
0.0
11
1137.330
21
555.953
31
0.0
0
LINE
5
200f
8
0-0
6
CONTINUOUS
62
  7
10
1137.330
20
555.953
30
0.0
11
1135.985
21
555.418
31
0.0
0
LINE
5
2010
8
0-0
6
CONTINUOUS
62
  7
10
1135.985
20
555.418
30
0.0
11
1134.736
21
554.969
31
0.0
0
LINE
5
2011
8
0-0
6
CONTINUOUS
62
  7
10
1134.736
20
554.969
30
0.0
11
1133.566
21
554.600
31
0.0
0
LINE
5
2012
8
0-0
6
CONTINUOUS
62
  7
10
1133.566
20
554.600
30
0.0
11
1132.462
21
554.306
31
0.0
0
LINE
5
2013
8
0-0
6
CONTINUOUS
62
  7
10
1132.462
20
554.306
30
0.0
11
1131.415
21
554.080
31
0.0
0
LINE
5
2014
8
0-0
6
CONTINUOUS
62
  7
10
1131.415
20
554.080
30
0.0
11
1130.419
21
553.915
31
0.0
0
LINE
5
2015
8
0-0
6
CONTINUOUS
62
  7
10
1130.419
20
553.915
30
0.0
11
1129.471
21
553.805
31
0.0
0
LINE
5
2016
8
0-0
6
CONTINUOUS
62
  7
10
1129.471
20
553.805
30
0.0
11
1128.567
21
553.740
31
0.0
0
LINE
5
2017
8
0-0
6
CONTINUOUS
62
  7
10
1128.567
20
553.740
30
0.0
11
1127.705
21
553.712
31
0.0
0
LINE
5
2018
8
0-0
6
CONTINUOUS
62
  7
10
1127.705
20
553.712
30
0.0
11
1126.885
21
553.713
31
0.0
0
LINE
5
2019
8
0-0
6
CONTINUOUS
62
  7
10
1126.885
20
553.713
30
0.0
11
1126.105
21
553.733
31
0.0
0
LINE
5
201a
8
0-0
6
CONTINUOUS
62
  7
10
1126.105
20
553.733
30
0.0
11
1125.364
21
553.765
31
0.0
0
LINE
5
201b
8
0-0
6
CONTINUOUS
62
  7
10
1125.364
20
553.765
30
0.0
11
1124.661
21
553.801
31
0.0
0
LINE
5
201c
8
0-0
6
CONTINUOUS
62
  7
10
1124.661
20
553.801
30
0.0
11
1123.995
21
553.834
31
0.0
0
LINE
5
201d
8
0-0
6
CONTINUOUS
62
  7
10
1123.995
20
553.834
30
0.0
11
1123.365
21
553.856
31
0.0
0
LINE
5
201e
8
0-0
6
CONTINUOUS
62
  7
10
1123.365
20
553.856
30
0.0
11
1122.768
21
553.863
31
0.0
0
LINE
5
201f
8
0-0
6
CONTINUOUS
62
  7
10
1122.768
20
553.863
30
0.0
11
1122.203
21
553.850
31
0.0
0
LINE
5
2020
8
0-0
6
CONTINUOUS
62
  7
10
1122.203
20
553.850
30
0.0
11
1121.669
21
553.813
31
0.0
0
LINE
5
2021
8
0-0
6
CONTINUOUS
62
  7
10
1121.669
20
553.813
30
0.0
11
1121.161
21
553.750
31
0.0
0
LINE
5
2022
8
0-0
6
CONTINUOUS
62
  7
10
1121.161
20
553.750
30
0.0
11
1120.679
21
553.658
31
0.0
0
LINE
5
2023
8
0-0
6
CONTINUOUS
62
  7
10
1120.679
20
553.658
30
0.0
11
1120.220
21
553.538
31
0.0
0
LINE
5
2024
8
0-0
6
CONTINUOUS
62
  7
10
1120.220
20
553.538
30
0.0
11
1119.781
21
553.389
31
0.0
0
LINE
5
2025
8
0-0
6
CONTINUOUS
62
  7
10
1119.781
20
553.389
30
0.0
11
1119.359
21
553.213
31
0.0
0
LINE
5
2026
8
0-0
6
CONTINUOUS
62
  7
10
1119.359
20
553.213
30
0.0
11
1118.954
21
553.010
31
0.0
0
LINE
5
2027
8
0-0
6
CONTINUOUS
62
  7
10
1118.954
20
553.010
30
0.0
11
1118.561
21
552.783
31
0.0
0
LINE
5
2028
8
0-0
6
CONTINUOUS
62
  7
10
1118.561
20
552.783
30
0.0
11
1118.179
21
552.534
31
0.0
0
LINE
5
2029
8
0-0
6
CONTINUOUS
62
  7
10
1118.179
20
552.534
30
0.0
11
1117.806
21
552.266
31
0.0
0
LINE
5
202a
8
0-0
6
CONTINUOUS
62
  7
10
1117.806
20
552.266
30
0.0
11
1117.439
21
551.982
31
0.0
0
LINE
5
202b
8
0-0
6
CONTINUOUS
62
  7
10
1117.439
20
551.982
30
0.0
11
1117.078
21
551.686
31
0.0
0
LINE
5
202c
8
0-0
6
CONTINUOUS
62
  7
10
1117.078
20
551.686
30
0.0
11
1116.721
21
551.381
31
0.0
0
LINE
5
202d
8
0-0
6
CONTINUOUS
62
  7
10
1116.721
20
551.381
30
0.0
11
1116.366
21
551.069
31
0.0
0
LINE
5
202e
8
0-0
6
CONTINUOUS
62
  7
10
1116.366
20
551.069
30
0.0
11
1116.013
21
550.755
31
0.0
0
LINE
5
202f
8
0-0
6
CONTINUOUS
62
  7
10
1116.013
20
550.755
30
0.0
11
1115.660
21
550.441
31
0.0
0
LINE
5
2030
8
0-0
6
CONTINUOUS
62
  7
10
1115.660
20
550.441
30
0.0
11
1115.307
21
550.130
31
0.0
0
LINE
5
2031
8
0-0
6
CONTINUOUS
62
  7
10
1115.307
20
550.130
30
0.0
11
1114.954
21
549.824
31
0.0
0
LINE
5
2032
8
0-0
6
CONTINUOUS
62
  7
10
1114.954
20
549.824
30
0.0
11
1114.599
21
549.525
31
0.0
0
LINE
5
2033
8
0-0
6
CONTINUOUS
62
  7
10
1114.599
20
549.525
30
0.0
11
1114.243
21
549.236
31
0.0
0
LINE
5
2034
8
0-0
6
CONTINUOUS
62
  7
10
1114.243
20
549.236
30
0.0
11
1113.885
21
548.958
31
0.0
0
LINE
5
2035
8
0-0
6
CONTINUOUS
62
  7
10
1113.885
20
548.958
30
0.0
11
1113.526
21
548.692
31
0.0
0
LINE
5
2036
8
0-0
6
CONTINUOUS
62
  7
10
1113.526
20
548.692
30
0.0
11
1113.166
21
548.438
31
0.0
0
LINE
5
2037
8
0-0
6
CONTINUOUS
62
  7
10
1113.166
20
548.438
30
0.0
11
1112.804
21
548.198
31
0.0
0
LINE
5
2038
8
0-0
6
CONTINUOUS
62
  7
10
1112.804
20
548.198
30
0.0
11
1112.441
21
547.970
31
0.0
0
LINE
5
2039
8
0-0
6
CONTINUOUS
62
  7
10
1112.441
20
547.970
30
0.0
11
1112.076
21
547.756
31
0.0
0
LINE
5
203a
8
0-0
6
CONTINUOUS
62
  7
10
1112.076
20
547.756
30
0.0
11
1111.711
21
547.554
31
0.0
0
LINE
5
203b
8
0-0
6
CONTINUOUS
62
  7
10
1111.711
20
547.554
30
0.0
11
1111.344
21
547.363
31
0.0
0
LINE
5
203c
8
0-0
6
CONTINUOUS
62
  7
10
1111.344
20
547.363
30
0.0
11
1110.976
21
547.182
31
0.0
0
LINE
5
203d
8
0-0
6
CONTINUOUS
62
  7
10
1110.976
20
547.182
30
0.0
11
1110.608
21
547.010
31
0.0
0
LINE
5
203e
8
0-0
6
CONTINUOUS
62
  7
10
1110.608
20
547.010
30
0.0
11
1110.238
21
546.846
31
0.0
0
LINE
5
203f
8
0-0
6
CONTINUOUS
62
  7
10
1110.238
20
546.846
30
0.0
11
1109.866
21
546.687
31
0.0
0
LINE
5
2040
8
0-0
6
CONTINUOUS
62
  7
10
1109.866
20
546.687
30
0.0
11
1109.493
21
546.532
31
0.0
0
LINE
5
2041
8
0-0
6
CONTINUOUS
62
  7
10
1109.493
20
546.532
30
0.0
11
1109.117
21
546.380
31
0.0
0
LINE
5
2042
8
0-0
6
CONTINUOUS
62
  7
10
1109.117
20
546.380
30
0.0
11
1108.738
21
546.227
31
0.0
0
LINE
5
2043
8
0-0
6
CONTINUOUS
62
  7
10
1108.738
20
546.227
30
0.0
11
1108.356
21
546.073
31
0.0
0
LINE
5
2044
8
0-0
6
CONTINUOUS
62
  7
10
1108.356
20
546.073
30
0.0
11
1107.969
21
545.915
31
0.0
0
LINE
5
2045
8
0-0
6
CONTINUOUS
62
  7
10
1107.969
20
545.915
30
0.0
11
1107.577
21
545.752
31
0.0
0
LINE
5
2046
8
0-0
6
CONTINUOUS
62
  7
10
1107.577
20
545.752
30
0.0
11
1107.178
21
545.582
31
0.0
0
LINE
5
2047
8
0-0
6
CONTINUOUS
62
  7
10
1107.178
20
545.582
30
0.0
11
1106.771
21
545.403
31
0.0
0
LINE
5
2048
8
0-0
6
CONTINUOUS
62
  7
10
1106.771
20
545.403
30
0.0
11
1106.355
21
545.216
31
0.0
0
LINE
5
2049
8
0-0
6
CONTINUOUS
62
  7
10
1106.355
20
545.216
30
0.0
11
1105.928
21
545.017
31
0.0
0
LINE
5
204a
8
0-0
6
CONTINUOUS
62
  7
10
1105.928
20
545.017
30
0.0
11
1105.488
21
544.807
31
0.0
0
LINE
5
204b
8
0-0
6
CONTINUOUS
62
  7
10
1105.488
20
544.807
30
0.0
11
1105.035
21
544.585
31
0.0
0
LINE
5
204c
8
0-0
6
CONTINUOUS
62
  7
10
1105.035
20
544.585
30
0.0
11
1104.567
21
544.351
31
0.0
0
LINE
5
204d
8
0-0
6
CONTINUOUS
62
  7
10
1104.567
20
544.351
30
0.0
11
1104.082
21
544.105
31
0.0
0
LINE
5
204e
8
0-0
6
CONTINUOUS
62
  7
10
1104.082
20
544.105
30
0.0
11
1103.577
21
543.847
31
0.0
0
LINE
5
204f
8
0-0
6
CONTINUOUS
62
  7
10
1103.577
20
543.847
30
0.0
11
1103.053
21
543.578
31
0.0
0
LINE
5
2050
8
0-0
6
CONTINUOUS
62
  7
10
1103.053
20
543.578
30
0.0
11
1102.506
21
543.298
31
0.0
0
LINE
5
2051
8
0-0
6
CONTINUOUS
62
  7
10
1102.506
20
543.298
30
0.0
11
1101.937
21
543.010
31
0.0
0
LINE
5
2052
8
0-0
6
CONTINUOUS
62
  7
10
1101.937
20
543.010
30
0.0
11
1101.343
21
542.713
31
0.0
0
LINE
5
2053
8
0-0
6
CONTINUOUS
62
  7
10
1101.343
20
542.713
30
0.0
11
1100.724
21
542.411
31
0.0
0
LINE
5
2054
8
0-0
6
CONTINUOUS
62
  7
10
1100.724
20
542.411
30
0.0
11
1100.078
21
542.104
31
0.0
0
LINE
5
2055
8
0-0
6
CONTINUOUS
62
  7
10
1100.078
20
542.104
30
0.0
11
1099.405
21
541.795
31
0.0
0
LINE
5
2056
8
0-0
6
CONTINUOUS
62
  7
10
1099.405
20
541.795
30
0.0
11
1098.704
21
541.487
31
0.0
0
LINE
5
2057
8
0-0
6
CONTINUOUS
62
  7
10
1098.704
20
541.487
30
0.0
11
1097.975
21
541.181
31
0.0
0
LINE
5
2058
8
0-0
6
CONTINUOUS
62
  7
10
1097.975
20
541.181
30
0.0
11
1097.219
21
540.880
31
0.0
0
LINE
5
2059
8
0-0
6
CONTINUOUS
62
  7
10
1097.219
20
540.880
30
0.0
11
1096.434
21
540.586
31
0.0
0
LINE
5
205a
8
0-0
6
CONTINUOUS
62
  7
10
1096.434
20
540.586
30
0.0
11
1095.622
21
540.304
31
0.0
0
LINE
5
205b
8
0-0
6
CONTINUOUS
62
  7
10
1095.622
20
540.304
30
0.0
11
1094.784
21
540.033
31
0.0
0
LINE
5
205c
8
0-0
6
CONTINUOUS
62
  7
10
1094.784
20
540.033
30
0.0
11
1093.921
21
539.778
31
0.0
0
LINE
5
205d
8
0-0
6
CONTINUOUS
62
  7
10
1093.921
20
539.778
30
0.0
11
1093.034
21
539.541
31
0.0
0
LINE
5
205e
8
0-0
6
CONTINUOUS
62
  7
10
1093.034
20
539.541
30
0.0
11
1092.124
21
539.324
31
0.0
0
LINE
5
205f
8
0-0
6
CONTINUOUS
62
  7
10
1092.124
20
539.324
30
0.0
11
1091.193
21
539.128
31
0.0
0
LINE
5
2060
8
0-0
6
CONTINUOUS
62
  7
10
1091.193
20
539.128
30
0.0
11
1090.245
21
538.957
31
0.0
0
LINE
5
2061
8
0-0
6
CONTINUOUS
62
  7
10
1090.245
20
538.957
30
0.0
11
1089.280
21
538.812
31
0.0
0
LINE
5
2062
8
0-0
6
CONTINUOUS
62
  7
10
1089.280
20
538.812
30
0.0
11
1088.301
21
538.694
31
0.0
0
LINE
5
2063
8
0-0
6
CONTINUOUS
62
  7
10
1088.301
20
538.694
30
0.0
11
1087.310
21
538.605
31
0.0
0
LINE
5
2064
8
0-0
6
CONTINUOUS
62
  7
10
1087.310
20
538.605
30
0.0
11
1086.311
21
538.545
31
0.0
0
LINE
5
2065
8
0-0
6
CONTINUOUS
62
  7
10
1086.311
20
538.545
30
0.0
11
1085.307
21
538.516
31
0.0
0
LINE
5
2066
8
0-0
6
CONTINUOUS
62
  7
10
1085.307
20
538.516
30
0.0
11
1084.299
21
538.519
31
0.0
0
LINE
5
2067
8
0-0
6
CONTINUOUS
62
  7
10
1084.299
20
538.519
30
0.0
11
1083.291
21
538.553
31
0.0
0
LINE
5
2068
8
0-0
6
CONTINUOUS
62
  7
10
1083.291
20
538.553
30
0.0
11
1082.286
21
538.618
31
0.0
0
LINE
5
2069
8
0-0
6
CONTINUOUS
62
  7
10
1082.286
20
538.618
30
0.0
11
1081.286
21
538.715
31
0.0
0
LINE
5
206a
8
0-0
6
CONTINUOUS
62
  7
10
1081.286
20
538.715
30
0.0
11
1080.295
21
538.844
31
0.0
0
LINE
5
206b
8
0-0
6
CONTINUOUS
62
  7
10
1080.295
20
538.844
30
0.0
11
1079.314
21
539.003
31
0.0
0
LINE
5
206c
8
0-0
6
CONTINUOUS
62
  7
10
1079.314
20
539.003
30
0.0
11
1078.348
21
539.192
31
0.0
0
LINE
5
206d
8
0-0
6
CONTINUOUS
62
  7
10
1078.348
20
539.192
30
0.0
11
1077.397
21
539.411
31
0.0
0
LINE
5
206e
8
0-0
6
CONTINUOUS
62
  7
10
1077.397
20
539.411
30
0.0
11
1076.464
21
539.659
31
0.0
0
LINE
5
206f
8
0-0
6
CONTINUOUS
62
  7
10
1076.464
20
539.659
30
0.0
11
1075.552
21
539.935
31
0.0
0
LINE
5
2070
8
0-0
6
CONTINUOUS
62
  7
10
1075.552
20
539.935
30
0.0
11
1074.661
21
540.238
31
0.0
0
LINE
5
2071
8
0-0
6
CONTINUOUS
62
  7
10
1074.661
20
540.238
30
0.0
11
1073.795
21
540.567
31
0.0
0
LINE
5
2072
8
0-0
6
CONTINUOUS
62
  7
10
1073.795
20
540.567
30
0.0
11
1072.954
21
540.922
31
0.0
0
LINE
5
2073
8
0-0
6
CONTINUOUS
62
  7
10
1072.954
20
540.922
30
0.0
11
1072.139
21
541.302
31
0.0
0
LINE
5
2074
8
0-0
6
CONTINUOUS
62
  7
10
1072.139
20
541.302
30
0.0
11
1071.351
21
541.706
31
0.0
0
LINE
5
2075
8
0-0
6
CONTINUOUS
62
  7
10
1071.351
20
541.706
30
0.0
11
1070.591
21
542.135
31
0.0
0
LINE
5
2076
8
0-0
6
CONTINUOUS
62
  7
10
1070.591
20
542.135
30
0.0
11
1069.860
21
542.586
31
0.0
0
LINE
5
2077
8
0-0
6
CONTINUOUS
62
  7
10
1069.860
20
542.586
30
0.0
11
1069.156
21
543.061
31
0.0
0
LINE
5
2078
8
0-0
6
CONTINUOUS
62
  7
10
1069.156
20
543.061
30
0.0
11
1068.481
21
543.560
31
0.0
0
LINE
5
2079
8
0-0
6
CONTINUOUS
62
  7
10
1068.481
20
543.560
30
0.0
11
1067.833
21
544.082
31
0.0
0
LINE
5
207a
8
0-0
6
CONTINUOUS
62
  7
10
1067.833
20
544.082
30
0.0
11
1067.214
21
544.627
31
0.0
0
LINE
5
207b
8
0-0
6
CONTINUOUS
62
  7
10
1067.214
20
544.627
30
0.0
11
1066.620
21
545.197
31
0.0
0
LINE
5
207c
8
0-0
6
CONTINUOUS
62
  7
10
1066.620
20
545.197
30
0.0
11
1066.053
21
545.792
31
0.0
0
LINE
5
207d
8
0-0
6
CONTINUOUS
62
  7
10
1066.053
20
545.792
30
0.0
11
1065.511
21
546.412
31
0.0
0
LINE
5
207e
8
0-0
6
CONTINUOUS
62
  7
10
1065.511
20
546.412
30
0.0
11
1064.994
21
547.058
31
0.0
0
LINE
5
207f
8
0-0
6
CONTINUOUS
62
  7
10
1064.994
20
547.058
30
0.0
11
1064.500
21
547.731
31
0.0
0
LINE
5
2080
8
0-0
6
CONTINUOUS
62
  7
10
1064.500
20
547.731
30
0.0
11
1064.031
21
548.431
31
0.0
0
LINE
5
2081
8
0-0
6
CONTINUOUS
62
  7
10
1064.031
20
548.431
30
0.0
11
1063.586
21
549.159
31
0.0
0
LINE
5
2082
8
0-0
6
CONTINUOUS
62
  7
10
1063.586
20
549.159
30
0.0
11
1063.164
21
549.916
31
0.0
0
LINE
5
2083
8
0-0
6
CONTINUOUS
62
  7
10
1063.164
20
549.916
30
0.0
11
1062.767
21
550.703
31
0.0
0
LINE
5
2084
8
0-0
6
CONTINUOUS
62
  7
10
1062.767
20
550.703
30
0.0
11
1062.396
21
551.520
31
0.0
0
LINE
5
2085
8
0-0
6
CONTINUOUS
62
  7
10
1062.396
20
551.520
30
0.0
11
1062.052
21
552.368
31
0.0
0
LINE
5
2086
8
0-0
6
CONTINUOUS
62
  7
10
1062.052
20
552.368
30
0.0
11
1061.735
21
553.248
31
0.0
0
LINE
5
2087
8
0-0
6
CONTINUOUS
62
  7
10
1061.735
20
553.248
30
0.0
11
1061.448
21
554.163
31
0.0
0
LINE
5
2088
8
0-0
6
CONTINUOUS
62
  7
10
1061.448
20
554.163
30
0.0
11
1061.191
21
555.116
31
0.0
0
LINE
5
2089
8
0-0
6
CONTINUOUS
62
  7
10
1061.191
20
555.116
30
0.0
11
1060.965
21
556.110
31
0.0
0
LINE
5
208a
8
0-0
6
CONTINUOUS
62
  7
10
1060.965
20
556.110
30
0.0
11
1060.770
21
557.153
31
0.0
0
LINE
5
208b
8
0-0
6
CONTINUOUS
62
  7
10
1060.770
20
557.153
30
0.0
11
1060.602
21
558.255
31
0.0
0
LINE
5
208c
8
0-0
6
CONTINUOUS
62
  7
10
1060.602
20
558.255
30
0.0
11
1060.457
21
559.432
31
0.0
0
LINE
5
208d
8
0-0
6
CONTINUOUS
62
  7
10
1060.457
20
559.432
30
0.0
11
1060.324
21
560.703
31
0.0
0
LINE
5
208e
8
0-0
6
CONTINUOUS
62
  7
10
1178.215
20
572.835
30
0.0
11
1178.021
21
571.612
31
0.0
0
LINE
5
208f
8
0-0
6
CONTINUOUS
62
  7
10
1178.021
20
571.612
30
0.0
11
1177.775
21
570.413
31
0.0
0
LINE
5
2090
8
0-0
6
CONTINUOUS
62
  7
10
1177.775
20
570.413
30
0.0
11
1177.482
21
569.240
31
0.0
0
LINE
5
2091
8
0-0
6
CONTINUOUS
62
  7
10
1177.482
20
569.240
30
0.0
11
1177.142
21
568.097
31
0.0
0
LINE
5
2092
8
0-0
6
CONTINUOUS
62
  7
10
1177.142
20
568.097
30
0.0
11
1176.759
21
566.984
31
0.0
0
LINE
5
2093
8
0-0
6
CONTINUOUS
62
  7
10
1176.759
20
566.984
30
0.0
11
1176.335
21
565.902
31
0.0
0
LINE
5
2094
8
0-0
6
CONTINUOUS
62
  7
10
1176.335
20
565.902
30
0.0
11
1175.872
21
564.852
31
0.0
0
LINE
5
2095
8
0-0
6
CONTINUOUS
62
  7
10
1175.872
20
564.852
30
0.0
11
1175.370
21
563.833
31
0.0
0
LINE
5
2096
8
0-0
6
CONTINUOUS
62
  7
10
1175.370
20
563.833
30
0.0
11
1174.831
21
562.845
31
0.0
0
LINE
5
2097
8
0-0
6
CONTINUOUS
62
  7
10
1174.831
20
562.845
30
0.0
11
1174.253
21
561.887
31
0.0
0
LINE
5
2098
8
0-0
6
CONTINUOUS
62
  7
10
1174.253
20
561.887
30
0.0
11
1173.636
21
560.959
31
0.0
0
LINE
5
2099
8
0-0
6
CONTINUOUS
62
  7
10
1173.636
20
560.959
30
0.0
11
1172.979
21
560.060
31
0.0
0
LINE
5
209a
8
0-0
6
CONTINUOUS
62
  7
10
1172.979
20
560.060
30
0.0
11
1172.280
21
559.188
31
0.0
0
LINE
5
209b
8
0-0
6
CONTINUOUS
62
  7
10
1172.280
20
559.188
30
0.0
11
1171.539
21
558.344
31
0.0
0
LINE
5
209c
8
0-0
6
CONTINUOUS
62
  7
10
1171.539
20
558.344
30
0.0
11
1170.754
21
557.526
31
0.0
0
LINE
5
209d
8
0-0
6
CONTINUOUS
62
  7
10
1170.754
20
557.526
30
0.0
11
1169.924
21
556.735
31
0.0
0
LINE
5
209e
8
0-0
6
CONTINUOUS
62
  7
10
1169.924
20
556.735
30
0.0
11
1169.049
21
555.970
31
0.0
0
LINE
5
209f
8
0-0
6
CONTINUOUS
62
  7
10
1169.049
20
555.970
30
0.0
11
1168.129
21
555.233
31
0.0
0
LINE
5
20a0
8
0-0
6
CONTINUOUS
62
  7
10
1168.129
20
555.233
30
0.0
11
1167.164
21
554.522
31
0.0
0
LINE
5
20a1
8
0-0
6
CONTINUOUS
62
  7
10
1167.164
20
554.522
30
0.0
11
1166.155
21
553.840
31
0.0
0
LINE
5
20a2
8
0-0
6
CONTINUOUS
62
  7
10
1166.155
20
553.840
30
0.0
11
1165.105
21
553.185
31
0.0
0
LINE
5
20a3
8
0-0
6
CONTINUOUS
62
  7
10
1165.105
20
553.185
30
0.0
11
1164.015
21
552.559
31
0.0
0
LINE
5
20a4
8
0-0
6
CONTINUOUS
62
  7
10
1164.015
20
552.559
30
0.0
11
1162.887
21
551.963
31
0.0
0
LINE
5
20a5
8
0-0
6
CONTINUOUS
62
  7
10
1162.887
20
551.963
30
0.0
11
1161.726
21
551.397
31
0.0
0
LINE
5
20a6
8
0-0
6
CONTINUOUS
62
  7
10
1161.726
20
551.397
30
0.0
11
1160.534
21
550.861
31
0.0
0
LINE
5
20a7
8
0-0
6
CONTINUOUS
62
  7
10
1160.534
20
550.861
30
0.0
11
1159.314
21
550.356
31
0.0
0
LINE
5
20a8
8
0-0
6
CONTINUOUS
62
  7
10
1159.314
20
550.356
30
0.0
11
1158.071
21
549.883
31
0.0
0
LINE
5
20a9
8
0-0
6
CONTINUOUS
62
  7
10
1158.071
20
549.883
30
0.0
11
1156.808
21
549.441
31
0.0
0
LINE
5
20aa
8
0-0
6
CONTINUOUS
62
  7
10
1156.808
20
549.441
30
0.0
11
1155.529
21
549.029
31
0.0
0
LINE
5
20ab
8
0-0
6
CONTINUOUS
62
  7
10
1155.529
20
549.029
30
0.0
11
1154.238
21
548.649
31
0.0
0
LINE
5
20ac
8
0-0
6
CONTINUOUS
62
  7
10
1154.238
20
548.649
30
0.0
11
1152.936
21
548.298
31
0.0
0
LINE
5
20ad
8
0-0
6
CONTINUOUS
62
  7
10
1152.936
20
548.298
30
0.0
11
1151.629
21
547.977
31
0.0
0
LINE
5
20ae
8
0-0
6
CONTINUOUS
62
  7
10
1151.629
20
547.977
30
0.0
11
1150.318
21
547.684
31
0.0
0
LINE
5
20af
8
0-0
6
CONTINUOUS
62
  7
10
1150.318
20
547.684
30
0.0
11
1149.005
21
547.419
31
0.0
0
LINE
5
20b0
8
0-0
6
CONTINUOUS
62
  7
10
1149.005
20
547.419
30
0.0
11
1147.694
21
547.181
31
0.0
0
LINE
5
20b1
8
0-0
6
CONTINUOUS
62
  7
10
1147.694
20
547.181
30
0.0
11
1146.387
21
546.968
31
0.0
0
LINE
5
20b2
8
0-0
6
CONTINUOUS
62
  7
10
1146.387
20
546.968
30
0.0
11
1145.085
21
546.779
31
0.0
0
LINE
5
20b3
8
0-0
6
CONTINUOUS
62
  7
10
1145.085
20
546.779
30
0.0
11
1143.791
21
546.614
31
0.0
0
LINE
5
20b4
8
0-0
6
CONTINUOUS
62
  7
10
1143.791
20
546.614
30
0.0
11
1142.508
21
546.471
31
0.0
0
LINE
5
20b5
8
0-0
6
CONTINUOUS
62
  7
10
1142.508
20
546.471
30
0.0
11
1141.238
21
546.351
31
0.0
0
LINE
5
20b6
8
0-0
6
CONTINUOUS
62
  7
10
1141.238
20
546.351
30
0.0
11
1139.984
21
546.252
31
0.0
0
LINE
5
20b7
8
0-0
6
CONTINUOUS
62
  7
10
1139.984
20
546.252
30
0.0
11
1138.750
21
546.175
31
0.0
0
LINE
5
20b8
8
0-0
6
CONTINUOUS
62
  7
10
1138.750
20
546.175
30
0.0
11
1137.542
21
546.119
31
0.0
0
LINE
5
20b9
8
0-0
6
CONTINUOUS
62
  7
10
1137.542
20
546.119
30
0.0
11
1136.363
21
546.085
31
0.0
0
LINE
5
20ba
8
0-0
6
CONTINUOUS
62
  7
10
1136.363
20
546.085
30
0.0
11
1135.221
21
546.072
31
0.0
0
LINE
5
20bb
8
0-0
6
CONTINUOUS
62
  7
10
1135.221
20
546.072
30
0.0
11
1134.123
21
546.083
31
0.0
0
LINE
5
20bc
8
0-0
6
CONTINUOUS
62
  7
10
1134.123
20
546.083
30
0.0
11
1133.075
21
546.116
31
0.0
0
LINE
5
20bd
8
0-0
6
CONTINUOUS
62
  7
10
1133.075
20
546.116
30
0.0
11
1132.087
21
546.172
31
0.0
0
LINE
5
20be
8
0-0
6
CONTINUOUS
62
  7
10
1132.087
20
546.172
30
0.0
11
1131.167
21
546.252
31
0.0
0
LINE
5
20bf
8
0-0
6
CONTINUOUS
62
  7
10
1131.167
20
546.252
30
0.0
11
1130.323
21
546.355
31
0.0
0
LINE
5
20c0
8
0-0
6
CONTINUOUS
62
  7
10
1130.323
20
546.355
30
0.0
11
1129.562
21
546.479
31
0.0
0
LINE
5
20c1
8
0-0
6
CONTINUOUS
62
  7
10
1129.562
20
546.479
30
0.0
11
1128.889
21
546.622
31
0.0
0
LINE
5
20c2
8
0-0
6
CONTINUOUS
62
  7
10
1128.889
20
546.622
30
0.0
11
1128.308
21
546.781
31
0.0
0
LINE
5
20c3
8
0-0
6
CONTINUOUS
62
  7
10
1128.308
20
546.781
30
0.0
11
1127.816
21
546.947
31
0.0
0
LINE
5
20c4
8
0-0
6
CONTINUOUS
62
  7
10
1178.215
20
572.835
30
0.0
11
1178.020
21
570.557
31
0.0
0
LINE
5
20c5
8
0-0
6
CONTINUOUS
62
  7
10
1178.020
20
570.557
30
0.0
11
1177.771
21
568.459
31
0.0
0
LINE
5
20c6
8
0-0
6
CONTINUOUS
62
  7
10
1177.771
20
568.459
30
0.0
11
1177.468
21
566.520
31
0.0
0
LINE
5
20c7
8
0-0
6
CONTINUOUS
62
  7
10
1177.468
20
566.520
30
0.0
11
1177.108
21
564.721
31
0.0
0
LINE
5
20c8
8
0-0
6
CONTINUOUS
62
  7
10
1177.108
20
564.721
30
0.0
11
1176.692
21
563.046
31
0.0
0
LINE
5
20c9
8
0-0
6
CONTINUOUS
62
  7
10
1176.692
20
563.046
30
0.0
11
1176.219
21
561.482
31
0.0
0
LINE
5
20ca
8
0-0
6
CONTINUOUS
62
  7
10
1176.219
20
561.482
30
0.0
11
1175.689
21
560.016
31
0.0
0
LINE
5
20cb
8
0-0
6
CONTINUOUS
62
  7
10
1175.689
20
560.016
30
0.0
11
1175.104
21
558.638
31
0.0
0
LINE
5
20cc
8
0-0
6
CONTINUOUS
62
  7
10
1175.104
20
558.638
30
0.0
11
1174.464
21
557.340
31
0.0
0
LINE
5
20cd
8
0-0
6
CONTINUOUS
62
  7
10
1174.464
20
557.340
30
0.0
11
1173.770
21
556.113
31
0.0
0
LINE
5
20ce
8
0-0
6
CONTINUOUS
62
  7
10
1173.770
20
556.113
30
0.0
11
1173.024
21
554.952
31
0.0
0
LINE
5
20cf
8
0-0
6
CONTINUOUS
62
  7
10
1173.024
20
554.952
30
0.0
11
1172.227
21
553.851
31
0.0
0
LINE
5
20d0
8
0-0
6
CONTINUOUS
62
  7
10
1172.227
20
553.851
30
0.0
11
1171.383
21
552.806
31
0.0
0
LINE
5
20d1
8
0-0
6
CONTINUOUS
62
  7
10
1171.383
20
552.806
30
0.0
11
1170.493
21
551.813
31
0.0
0
LINE
5
20d2
8
0-0
6
CONTINUOUS
62
  7
10
1170.493
20
551.813
30
0.0
11
1169.561
21
550.869
31
0.0
0
LINE
5
20d3
8
0-0
6
CONTINUOUS
62
  7
10
1169.561
20
550.869
30
0.0
11
1168.590
21
549.972
31
0.0
0
LINE
5
20d4
8
0-0
6
CONTINUOUS
62
  7
10
1168.590
20
549.972
30
0.0
11
1167.583
21
549.120
31
0.0
0
LINE
5
20d5
8
0-0
6
CONTINUOUS
62
  7
10
1167.583
20
549.120
30
0.0
11
1166.546
21
548.313
31
0.0
0
LINE
5
20d6
8
0-0
6
CONTINUOUS
62
  7
10
1166.546
20
548.313
30
0.0
11
1165.481
21
547.550
31
0.0
0
LINE
5
20d7
8
0-0
6
CONTINUOUS
62
  7
10
1165.481
20
547.550
30
0.0
11
1164.393
21
546.830
31
0.0
0
LINE
5
20d8
8
0-0
6
CONTINUOUS
62
  7
10
1164.393
20
546.830
30
0.0
11
1163.287
21
546.153
31
0.0
0
LINE
5
20d9
8
0-0
6
CONTINUOUS
62
  7
10
1163.287
20
546.153
30
0.0
11
1162.165
21
545.519
31
0.0
0
LINE
5
20da
8
0-0
6
CONTINUOUS
62
  7
10
1162.165
20
545.519
30
0.0
11
1161.031
21
544.928
31
0.0
0
LINE
5
20db
8
0-0
6
CONTINUOUS
62
  7
10
1161.031
20
544.928
30
0.0
11
1159.890
21
544.379
31
0.0
0
LINE
5
20dc
8
0-0
6
CONTINUOUS
62
  7
10
1159.890
20
544.379
30
0.0
11
1158.744
21
543.874
31
0.0
0
LINE
5
20dd
8
0-0
6
CONTINUOUS
62
  7
10
1158.744
20
543.874
30
0.0
11
1157.596
21
543.411
31
0.0
0
LINE
5
20de
8
0-0
6
CONTINUOUS
62
  7
10
1157.596
20
543.411
30
0.0
11
1156.448
21
542.992
31
0.0
0
LINE
5
20df
8
0-0
6
CONTINUOUS
62
  7
10
1156.448
20
542.992
30
0.0
11
1155.303
21
542.615
31
0.0
0
LINE
5
20e0
8
0-0
6
CONTINUOUS
62
  7
10
1155.303
20
542.615
30
0.0
11
1154.162
21
542.280
31
0.0
0
LINE
5
20e1
8
0-0
6
CONTINUOUS
62
  7
10
1154.162
20
542.280
30
0.0
11
1153.026
21
541.987
31
0.0
0
LINE
5
20e2
8
0-0
6
CONTINUOUS
62
  7
10
1153.026
20
541.987
30
0.0
11
1151.896
21
541.735
31
0.0
0
LINE
5
20e3
8
0-0
6
CONTINUOUS
62
  7
10
1151.896
20
541.735
30
0.0
11
1150.771
21
541.524
31
0.0
0
LINE
5
20e4
8
0-0
6
CONTINUOUS
62
  7
10
1150.771
20
541.524
30
0.0
11
1149.653
21
541.353
31
0.0
0
LINE
5
20e5
8
0-0
6
CONTINUOUS
62
  7
10
1149.653
20
541.353
30
0.0
11
1148.541
21
541.221
31
0.0
0
LINE
5
20e6
8
0-0
6
CONTINUOUS
62
  7
10
1148.541
20
541.221
30
0.0
11
1147.434
21
541.127
31
0.0
0
LINE
5
20e7
8
0-0
6
CONTINUOUS
62
  7
10
1147.434
20
541.127
30
0.0
11
1146.334
21
541.071
31
0.0
0
LINE
5
20e8
8
0-0
6
CONTINUOUS
62
  7
10
1146.334
20
541.071
30
0.0
11
1145.238
21
541.051
31
0.0
0
LINE
5
20e9
8
0-0
6
CONTINUOUS
62
  7
10
1145.238
20
541.051
30
0.0
11
1144.148
21
541.067
31
0.0
0
LINE
5
20ea
8
0-0
6
CONTINUOUS
62
  7
10
1144.148
20
541.067
30
0.0
11
1143.062
21
541.117
31
0.0
0
LINE
5
20eb
8
0-0
6
CONTINUOUS
62
  7
10
1143.062
20
541.117
30
0.0
11
1141.983
21
541.202
31
0.0
0
LINE
5
20ec
8
0-0
6
CONTINUOUS
62
  7
10
1141.983
20
541.202
30
0.0
11
1140.910
21
541.319
31
0.0
0
LINE
5
20ed
8
0-0
6
CONTINUOUS
62
  7
10
1140.910
20
541.319
30
0.0
11
1139.844
21
541.469
31
0.0
0
LINE
5
20ee
8
0-0
6
CONTINUOUS
62
  7
10
1139.844
20
541.469
30
0.0
11
1138.789
21
541.651
31
0.0
0
LINE
5
20ef
8
0-0
6
CONTINUOUS
62
  7
10
1138.789
20
541.651
30
0.0
11
1137.745
21
541.864
31
0.0
0
LINE
5
20f0
8
0-0
6
CONTINUOUS
62
  7
10
1137.745
20
541.864
30
0.0
11
1136.716
21
542.107
31
0.0
0
LINE
5
20f1
8
0-0
6
CONTINUOUS
62
  7
10
1136.716
20
542.107
30
0.0
11
1135.705
21
542.379
31
0.0
0
LINE
5
20f2
8
0-0
6
CONTINUOUS
62
  7
10
1135.705
20
542.379
30
0.0
11
1134.716
21
542.680
31
0.0
0
LINE
5
20f3
8
0-0
6
CONTINUOUS
62
  7
10
1134.716
20
542.680
30
0.0
11
1133.754
21
543.008
31
0.0
0
LINE
5
20f4
8
0-0
6
CONTINUOUS
62
  7
10
1133.754
20
543.008
30
0.0
11
1132.823
21
543.362
31
0.0
0
LINE
5
20f5
8
0-0
6
CONTINUOUS
62
  7
10
1132.823
20
543.362
30
0.0
11
1131.928
21
543.739
31
0.0
0
LINE
5
20f6
8
0-0
6
CONTINUOUS
62
  7
10
1131.928
20
543.739
30
0.0
11
1131.074
21
544.139
31
0.0
0
LINE
5
20f7
8
0-0
6
CONTINUOUS
62
  7
10
1131.074
20
544.139
30
0.0
11
1130.265
21
544.558
31
0.0
0
LINE
5
20f8
8
0-0
6
CONTINUOUS
62
  7
10
1130.265
20
544.558
30
0.0
11
1129.507
21
544.994
31
0.0
0
LINE
5
20f9
8
0-0
6
CONTINUOUS
62
  7
10
1129.507
20
544.994
30
0.0
11
1128.804
21
545.442
31
0.0
0
LINE
5
20fa
8
0-0
6
CONTINUOUS
62
  7
10
1128.804
20
545.442
30
0.0
11
1128.160
21
545.897
31
0.0
0
LINE
5
20fb
8
0-0
6
CONTINUOUS
62
  7
10
1128.160
20
545.897
30
0.0
11
1127.582
21
546.355
31
0.0
0
LINE
5
20fc
8
0-0
6
CONTINUOUS
62
  7
10
1127.582
20
546.355
30
0.0
11
1127.075
21
546.808
31
0.0
0
LINE
5
20fd
8
0-0
6
CONTINUOUS
62
  7
10
1127.075
20
546.808
30
0.0
11
1126.645
21
547.248
31
0.0
0
LINE
5
20fe
8
0-0
6
CONTINUOUS
62
  7
10
1126.645
20
547.248
30
0.0
11
1126.304
21
547.665
31
0.0
0
LINE
5
20ff
8
0-0
6
CONTINUOUS
62
  7
10
1161.505
20
520.497
30
0.0
11
1159.367
21
520.378
31
0.0
0
LINE
5
2100
8
0-0
6
CONTINUOUS
62
  7
10
1159.367
20
520.378
30
0.0
11
1157.285
21
520.310
31
0.0
0
LINE
5
2101
8
0-0
6
CONTINUOUS
62
  7
10
1157.285
20
520.310
30
0.0
11
1155.259
21
520.288
31
0.0
0
LINE
5
2102
8
0-0
6
CONTINUOUS
62
  7
10
1155.259
20
520.288
30
0.0
11
1153.292
21
520.310
31
0.0
0
LINE
5
2103
8
0-0
6
CONTINUOUS
62
  7
10
1153.292
20
520.310
30
0.0
11
1151.386
21
520.373
31
0.0
0
LINE
5
2104
8
0-0
6
CONTINUOUS
62
  7
10
1151.386
20
520.373
30
0.0
11
1149.542
21
520.473
31
0.0
0
LINE
5
2105
8
0-0
6
CONTINUOUS
62
  7
10
1149.542
20
520.473
30
0.0
11
1147.760
21
520.606
31
0.0
0
LINE
5
2106
8
0-0
6
CONTINUOUS
62
  7
10
1147.760
20
520.606
30
0.0
11
1146.038
21
520.770
31
0.0
0
LINE
5
2107
8
0-0
6
CONTINUOUS
62
  7
10
1146.038
20
520.770
30
0.0
11
1144.378
21
520.963
31
0.0
0
LINE
5
2108
8
0-0
6
CONTINUOUS
62
  7
10
1144.378
20
520.963
30
0.0
11
1142.775
21
521.181
31
0.0
0
LINE
5
2109
8
0-0
6
CONTINUOUS
62
  7
10
1142.775
20
521.181
30
0.0
11
1141.230
21
521.423
31
0.0
0
LINE
5
210a
8
0-0
6
CONTINUOUS
62
  7
10
1141.230
20
521.423
30
0.0
11
1139.738
21
521.687
31
0.0
0
LINE
5
210b
8
0-0
6
CONTINUOUS
62
  7
10
1139.738
20
521.687
30
0.0
11
1138.299
21
521.972
31
0.0
0
LINE
5
210c
8
0-0
6
CONTINUOUS
62
  7
10
1138.299
20
521.972
30
0.0
11
1136.908
21
522.275
31
0.0
0
LINE
5
210d
8
0-0
6
CONTINUOUS
62
  7
10
1136.908
20
522.275
30
0.0
11
1135.564
21
522.598
31
0.0
0
LINE
5
210e
8
0-0
6
CONTINUOUS
62
  7
10
1135.564
20
522.598
30
0.0
11
1134.264
21
522.938
31
0.0
0
LINE
5
210f
8
0-0
6
CONTINUOUS
62
  7
10
1134.264
20
522.938
30
0.0
11
1133.007
21
523.297
31
0.0
0
LINE
5
2110
8
0-0
6
CONTINUOUS
62
  7
10
1133.007
20
523.297
30
0.0
11
1131.791
21
523.672
31
0.0
0
LINE
5
2111
8
0-0
6
CONTINUOUS
62
  7
10
1131.791
20
523.672
30
0.0
11
1130.614
21
524.066
31
0.0
0
LINE
5
2112
8
0-0
6
CONTINUOUS
62
  7
10
1130.614
20
524.066
30
0.0
11
1129.475
21
524.478
31
0.0
0
LINE
5
2113
8
0-0
6
CONTINUOUS
62
  7
10
1129.475
20
524.478
30
0.0
11
1128.375
21
524.908
31
0.0
0
LINE
5
2114
8
0-0
6
CONTINUOUS
62
  7
10
1128.375
20
524.908
30
0.0
11
1127.312
21
525.358
31
0.0
0
LINE
5
2115
8
0-0
6
CONTINUOUS
62
  7
10
1127.312
20
525.358
30
0.0
11
1126.288
21
525.829
31
0.0
0
LINE
5
2116
8
0-0
6
CONTINUOUS
62
  7
10
1126.288
20
525.829
30
0.0
11
1125.304
21
526.322
31
0.0
0
LINE
5
2117
8
0-0
6
CONTINUOUS
62
  7
10
1125.304
20
526.322
30
0.0
11
1124.358
21
526.838
31
0.0
0
LINE
5
2118
8
0-0
6
CONTINUOUS
62
  7
10
1124.358
20
526.838
30
0.0
11
1123.454
21
527.379
31
0.0
0
LINE
5
2119
8
0-0
6
CONTINUOUS
62
  7
10
1123.454
20
527.379
30
0.0
11
1122.591
21
527.946
31
0.0
0
LINE
5
211a
8
0-0
6
CONTINUOUS
62
  7
10
1122.591
20
527.946
30
0.0
11
1121.771
21
528.540
31
0.0
0
LINE
5
211b
8
0-0
6
CONTINUOUS
62
  7
10
1121.771
20
528.540
30
0.0
11
1120.995
21
529.162
31
0.0
0
LINE
5
211c
8
0-0
6
CONTINUOUS
62
  7
10
1120.995
20
529.162
30
0.0
11
1120.264
21
529.815
31
0.0
0
LINE
5
211d
8
0-0
6
CONTINUOUS
62
  7
10
1120.264
20
529.815
30
0.0
11
1119.578
21
530.497
31
0.0
0
LINE
5
211e
8
0-0
6
CONTINUOUS
62
  7
10
1119.578
20
530.497
30
0.0
11
1118.939
21
531.210
31
0.0
0
LINE
5
211f
8
0-0
6
CONTINUOUS
62
  7
10
1118.939
20
531.210
30
0.0
11
1118.345
21
531.952
31
0.0
0
LINE
5
2120
8
0-0
6
CONTINUOUS
62
  7
10
1118.345
20
531.952
30
0.0
11
1117.797
21
532.721
31
0.0
0
LINE
5
2121
8
0-0
6
CONTINUOUS
62
  7
10
1117.797
20
532.721
30
0.0
11
1117.296
21
533.516
31
0.0
0
LINE
5
2122
8
0-0
6
CONTINUOUS
62
  7
10
1117.296
20
533.516
30
0.0
11
1116.840
21
534.332
31
0.0
0
LINE
5
2123
8
0-0
6
CONTINUOUS
62
  7
10
1116.840
20
534.332
30
0.0
11
1116.430
21
535.161
31
0.0
0
LINE
5
2124
8
0-0
6
CONTINUOUS
62
  7
10
1116.430
20
535.161
30
0.0
11
1116.066
21
535.996
31
0.0
0
LINE
5
2125
8
0-0
6
CONTINUOUS
62
  7
10
1116.066
20
535.996
30
0.0
11
1115.748
21
536.825
31
0.0
0
LINE
5
2126
8
0-0
6
CONTINUOUS
62
  7
10
1115.748
20
536.825
30
0.0
11
1115.478
21
537.635
31
0.0
0
LINE
5
2127
8
0-0
6
CONTINUOUS
62
  7
10
1115.478
20
537.635
30
0.0
11
1115.259
21
538.406
31
0.0
0
LINE
5
2128
8
0-0
6
CONTINUOUS
62
  7
10
1115.259
20
538.406
30
0.0
11
1115.093
21
539.118
31
0.0
0
LINE
5
2129
8
0-0
6
CONTINUOUS
62
  7
10
1115.093
20
539.118
30
0.0
11
1114.988
21
539.742
31
0.0
0
LINE
5
212a
8
0-0
6
CONTINUOUS
62
  7
10
1114.988
20
539.742
30
0.0
11
1114.951
21
540.247
31
0.0
0
LINE
5
212b
8
0-0
6
CONTINUOUS
62
  7
10
1161.505
20
520.497
30
0.0
11
1158.763
21
519.708
31
0.0
0
LINE
5
212c
8
0-0
6
CONTINUOUS
62
  7
10
1158.763
20
519.708
30
0.0
11
1156.148
21
519.058
31
0.0
0
LINE
5
212d
8
0-0
6
CONTINUOUS
62
  7
10
1156.148
20
519.058
30
0.0
11
1153.651
21
518.528
31
0.0
0
LINE
5
212e
8
0-0
6
CONTINUOUS
62
  7
10
1153.651
20
518.528
30
0.0
11
1151.265
21
518.105
31
0.0
0
LINE
5
212f
8
0-0
6
CONTINUOUS
62
  7
10
1151.265
20
518.105
30
0.0
11
1148.979
21
517.778
31
0.0
0
LINE
5
2130
8
0-0
6
CONTINUOUS
62
  7
10
1148.979
20
517.778
30
0.0
11
1146.784
21
517.538
31
0.0
0
LINE
5
2131
8
0-0
6
CONTINUOUS
62
  7
10
1146.784
20
517.538
30
0.0
11
1144.671
21
517.378
31
0.0
0
LINE
5
2132
8
0-0
6
CONTINUOUS
62
  7
10
1144.671
20
517.378
30
0.0
11
1142.629
21
517.292
31
0.0
0
LINE
5
2133
8
0-0
6
CONTINUOUS
62
  7
10
1142.629
20
517.292
30
0.0
11
1140.652
21
517.276
31
0.0
0
LINE
5
2134
8
0-0
6
CONTINUOUS
62
  7
10
1140.652
20
517.276
30
0.0
11
1138.731
21
517.327
31
0.0
0
LINE
5
2135
8
0-0
6
CONTINUOUS
62
  7
10
1138.731
20
517.327
30
0.0
11
1136.862
21
517.441
31
0.0
0
LINE
5
2136
8
0-0
6
CONTINUOUS
62
  7
10
1136.862
20
517.441
30
0.0
11
1135.039
21
517.615
31
0.0
0
LINE
5
2137
8
0-0
6
CONTINUOUS
62
  7
10
1135.039
20
517.615
30
0.0
11
1133.260
21
517.848
31
0.0
0
LINE
5
2138
8
0-0
6
CONTINUOUS
62
  7
10
1133.260
20
517.848
30
0.0
11
1131.522
21
518.137
31
0.0
0
LINE
5
2139
8
0-0
6
CONTINUOUS
62
  7
10
1131.522
20
518.137
30
0.0
11
1129.825
21
518.480
31
0.0
0
LINE
5
213a
8
0-0
6
CONTINUOUS
62
  7
10
1129.825
20
518.480
30
0.0
11
1128.170
21
518.876
31
0.0
0
LINE
5
213b
8
0-0
6
CONTINUOUS
62
  7
10
1128.170
20
518.876
30
0.0
11
1126.559
21
519.322
31
0.0
0
LINE
5
213c
8
0-0
6
CONTINUOUS
62
  7
10
1126.559
20
519.322
30
0.0
11
1124.994
21
519.816
31
0.0
0
LINE
5
213d
8
0-0
6
CONTINUOUS
62
  7
10
1124.994
20
519.816
30
0.0
11
1123.479
21
520.356
31
0.0
0
LINE
5
213e
8
0-0
6
CONTINUOUS
62
  7
10
1123.479
20
520.356
30
0.0
11
1122.019
21
520.939
31
0.0
0
LINE
5
213f
8
0-0
6
CONTINUOUS
62
  7
10
1122.019
20
520.939
30
0.0
11
1120.617
21
521.562
31
0.0
0
LINE
5
2140
8
0-0
6
CONTINUOUS
62
  7
10
1120.617
20
521.562
30
0.0
11
1119.281
21
522.222
31
0.0
0
LINE
5
2141
8
0-0
6
CONTINUOUS
62
  7
10
1119.281
20
522.222
30
0.0
11
1118.014
21
522.916
31
0.0
0
LINE
5
2142
8
0-0
6
CONTINUOUS
62
  7
10
1118.014
20
522.916
30
0.0
11
1116.821
21
523.639
31
0.0
0
LINE
5
2143
8
0-0
6
CONTINUOUS
62
  7
10
1116.821
20
523.639
30
0.0
11
1115.709
21
524.389
31
0.0
0
LINE
5
2144
8
0-0
6
CONTINUOUS
62
  7
10
1115.709
20
524.389
30
0.0
11
1114.681
21
525.161
31
0.0
0
LINE
5
2145
8
0-0
6
CONTINUOUS
62
  7
10
1114.681
20
525.161
30
0.0
11
1113.741
21
525.952
31
0.0
0
LINE
5
2146
8
0-0
6
CONTINUOUS
62
  7
10
1113.741
20
525.952
30
0.0
11
1112.893
21
526.756
31
0.0
0
LINE
5
2147
8
0-0
6
CONTINUOUS
62
  7
10
1112.893
20
526.756
30
0.0
11
1112.140
21
527.571
31
0.0
0
LINE
5
2148
8
0-0
6
CONTINUOUS
62
  7
10
1112.140
20
527.571
30
0.0
11
1111.483
21
528.393
31
0.0
0
LINE
5
2149
8
0-0
6
CONTINUOUS
62
  7
10
1111.483
20
528.393
30
0.0
11
1110.925
21
529.218
31
0.0
0
LINE
5
214a
8
0-0
6
CONTINUOUS
62
  7
10
1110.925
20
529.218
30
0.0
11
1110.464
21
530.043
31
0.0
0
LINE
5
214b
8
0-0
6
CONTINUOUS
62
  7
10
1110.464
20
530.043
30
0.0
11
1110.100
21
530.866
31
0.0
0
LINE
5
214c
8
0-0
6
CONTINUOUS
62
  7
10
1110.100
20
530.866
30
0.0
11
1109.833
21
531.683
31
0.0
0
LINE
5
214d
8
0-0
6
CONTINUOUS
62
  7
10
1109.833
20
531.683
30
0.0
11
1109.658
21
532.492
31
0.0
0
LINE
5
214e
8
0-0
6
CONTINUOUS
62
  7
10
1109.658
20
532.492
30
0.0
11
1109.575
21
533.293
31
0.0
0
LINE
5
214f
8
0-0
6
CONTINUOUS
62
  7
10
1109.575
20
533.293
30
0.0
11
1109.579
21
534.083
31
0.0
0
LINE
5
2150
8
0-0
6
CONTINUOUS
62
  7
10
1109.579
20
534.083
30
0.0
11
1109.666
21
534.861
31
0.0
0
LINE
5
2151
8
0-0
6
CONTINUOUS
62
  7
10
1109.666
20
534.861
30
0.0
11
1109.830
21
535.625
31
0.0
0
LINE
5
2152
8
0-0
6
CONTINUOUS
62
  7
10
1109.830
20
535.625
30
0.0
11
1110.066
21
536.375
31
0.0
0
LINE
5
2153
8
0-0
6
CONTINUOUS
62
  7
10
1110.066
20
536.375
30
0.0
11
1110.368
21
537.107
31
0.0
0
LINE
5
2154
8
0-0
6
CONTINUOUS
62
  7
10
1110.368
20
537.107
30
0.0
11
1110.728
21
537.819
31
0.0
0
LINE
5
2155
8
0-0
6
CONTINUOUS
62
  7
10
1110.728
20
537.819
30
0.0
11
1111.137
21
538.507
31
0.0
0
LINE
5
2156
8
0-0
6
CONTINUOUS
62
  7
10
1111.137
20
538.507
30
0.0
11
1111.586
21
539.165
31
0.0
0
LINE
5
2157
8
0-0
6
CONTINUOUS
62
  7
10
1111.586
20
539.165
30
0.0
11
1112.062
21
539.787
31
0.0
0
LINE
5
2158
8
0-0
6
CONTINUOUS
62
  7
10
1112.062
20
539.787
30
0.0
11
1112.552
21
540.361
31
0.0
0
LINE
5
2159
8
0-0
6
CONTINUOUS
62
  7
10
1112.552
20
540.361
30
0.0
11
1113.036
21
540.876
31
0.0
0
LINE
5
215a
8
0-0
6
CONTINUOUS
62
  7
10
1113.036
20
540.876
30
0.0
11
1113.493
21
541.314
31
0.0
0
LINE
5
215b
8
0-0
6
CONTINUOUS
62
  7
10
1113.493
20
541.314
30
0.0
11
1113.892
21
541.658
31
0.0
0
LINE
5
215c
8
0-0
6
CONTINUOUS
62
  7
10
1114.955
20
542.537
30
0.0
11
1113.892
21
541.658
31
0.0
0
LINE
5
215d
8
0-0
6
CONTINUOUS
62
  7
10
1090.347
20
530.958
30
0.0
11
1090.253
21
530.091
31
0.0
0
LINE
5
215e
8
0-0
6
CONTINUOUS
62
  7
10
1090.253
20
530.091
30
0.0
11
1090.193
21
529.248
31
0.0
0
LINE
5
215f
8
0-0
6
CONTINUOUS
62
  7
10
1090.193
20
529.248
30
0.0
11
1090.169
21
528.422
31
0.0
0
LINE
5
2160
8
0-0
6
CONTINUOUS
62
  7
10
1090.169
20
528.422
30
0.0
11
1090.183
21
527.612
31
0.0
0
LINE
5
2161
8
0-0
6
CONTINUOUS
62
  7
10
1090.183
20
527.612
30
0.0
11
1090.236
21
526.814
31
0.0
0
LINE
5
2162
8
0-0
6
CONTINUOUS
62
  7
10
1090.236
20
526.814
30
0.0
11
1090.327
21
526.027
31
0.0
0
LINE
5
2163
8
0-0
6
CONTINUOUS
62
  7
10
1090.327
20
526.027
30
0.0
11
1090.458
21
525.253
31
0.0
0
LINE
5
2164
8
0-0
6
CONTINUOUS
62
  7
10
1090.458
20
525.253
30
0.0
11
1090.627
21
524.491
31
0.0
0
LINE
5
2165
8
0-0
6
CONTINUOUS
62
  7
10
1090.627
20
524.491
30
0.0
11
1090.835
21
523.744
31
0.0
0
LINE
5
2166
8
0-0
6
CONTINUOUS
62
  7
10
1090.835
20
523.744
30
0.0
11
1091.082
21
523.011
31
0.0
0
LINE
5
2167
8
0-0
6
CONTINUOUS
62
  7
10
1091.082
20
523.011
30
0.0
11
1091.367
21
522.297
31
0.0
0
LINE
5
2168
8
0-0
6
CONTINUOUS
62
  7
10
1091.367
20
522.297
30
0.0
11
1091.691
21
521.602
31
0.0
0
LINE
5
2169
8
0-0
6
CONTINUOUS
62
  7
10
1091.691
20
521.602
30
0.0
11
1092.051
21
520.929
31
0.0
0
LINE
5
216a
8
0-0
6
CONTINUOUS
62
  7
10
1092.051
20
520.929
30
0.0
11
1092.448
21
520.279
31
0.0
0
LINE
5
216b
8
0-0
6
CONTINUOUS
62
  7
10
1092.448
20
520.279
30
0.0
11
1092.880
21
519.655
31
0.0
0
LINE
5
216c
8
0-0
6
CONTINUOUS
62
  7
10
1092.880
20
519.655
30
0.0
11
1093.347
21
519.059
31
0.0
0
LINE
5
216d
8
0-0
6
CONTINUOUS
62
  7
10
1093.347
20
519.059
30
0.0
11
1093.845
21
518.491
31
0.0
0
LINE
5
216e
8
0-0
6
CONTINUOUS
62
  7
10
1093.845
20
518.491
30
0.0
11
1094.372
21
517.952
31
0.0
0
LINE
5
216f
8
0-0
6
CONTINUOUS
62
  7
10
1094.372
20
517.952
30
0.0
11
1094.928
21
517.444
31
0.0
0
LINE
5
2170
8
0-0
6
CONTINUOUS
62
  7
10
1094.928
20
517.444
30
0.0
11
1095.508
21
516.966
31
0.0
0
LINE
5
2171
8
0-0
6
CONTINUOUS
62
  7
10
1095.508
20
516.966
30
0.0
11
1096.110
21
516.519
31
0.0
0
LINE
5
2172
8
0-0
6
CONTINUOUS
62
  7
10
1096.110
20
516.519
30
0.0
11
1096.732
21
516.102
31
0.0
0
LINE
5
2173
8
0-0
6
CONTINUOUS
62
  7
10
1096.732
20
516.102
30
0.0
11
1097.369
21
515.716
31
0.0
0
LINE
5
2174
8
0-0
6
CONTINUOUS
62
  7
10
1097.369
20
515.716
30
0.0
11
1098.020
21
515.358
31
0.0
0
LINE
5
2175
8
0-0
6
CONTINUOUS
62
  7
10
1098.020
20
515.358
30
0.0
11
1098.681
21
515.028
31
0.0
0
LINE
5
2176
8
0-0
6
CONTINUOUS
62
  7
10
1098.681
20
515.028
30
0.0
11
1099.349
21
514.725
31
0.0
0
LINE
5
2177
8
0-0
6
CONTINUOUS
62
  7
10
1099.349
20
514.725
30
0.0
11
1100.022
21
514.447
31
0.0
0
LINE
5
2178
8
0-0
6
CONTINUOUS
62
  7
10
1100.022
20
514.447
30
0.0
11
1100.698
21
514.192
31
0.0
0
LINE
5
2179
8
0-0
6
CONTINUOUS
62
  7
10
1100.698
20
514.192
30
0.0
11
1101.375
21
513.960
31
0.0
0
LINE
5
217a
8
0-0
6
CONTINUOUS
62
  7
10
1101.375
20
513.960
30
0.0
11
1102.051
21
513.749
31
0.0
0
LINE
5
217b
8
0-0
6
CONTINUOUS
62
  7
10
1102.051
20
513.749
30
0.0
11
1102.725
21
513.556
31
0.0
0
LINE
5
217c
8
0-0
6
CONTINUOUS
62
  7
10
1102.725
20
513.556
30
0.0
11
1103.398
21
513.382
31
0.0
0
LINE
5
217d
8
0-0
6
CONTINUOUS
62
  7
10
1103.398
20
513.382
30
0.0
11
1104.069
21
513.224
31
0.0
0
LINE
5
217e
8
0-0
6
CONTINUOUS
62
  7
10
1104.069
20
513.224
30
0.0
11
1104.739
21
513.082
31
0.0
0
LINE
5
217f
8
0-0
6
CONTINUOUS
62
  7
10
1104.739
20
513.082
30
0.0
11
1105.408
21
512.954
31
0.0
0
LINE
5
2180
8
0-0
6
CONTINUOUS
62
  7
10
1105.408
20
512.954
30
0.0
11
1106.079
21
512.841
31
0.0
0
LINE
5
2181
8
0-0
6
CONTINUOUS
62
  7
10
1106.079
20
512.841
30
0.0
11
1106.755
21
512.741
31
0.0
0
LINE
5
2182
8
0-0
6
CONTINUOUS
62
  7
10
1106.755
20
512.741
30
0.0
11
1107.437
21
512.655
31
0.0
0
LINE
5
2183
8
0-0
6
CONTINUOUS
62
  7
10
1107.437
20
512.655
30
0.0
11
1108.129
21
512.583
31
0.0
0
LINE
5
2184
8
0-0
6
CONTINUOUS
62
  7
10
1108.129
20
512.583
30
0.0
11
1108.835
21
512.525
31
0.0
0
LINE
5
2185
8
0-0
6
CONTINUOUS
62
  7
10
1108.835
20
512.525
30
0.0
11
1109.558
21
512.483
31
0.0
0
LINE
5
2186
8
0-0
6
CONTINUOUS
62
  7
10
1109.558
20
512.483
30
0.0
11
1110.304
21
512.457
31
0.0
0
LINE
5
2187
8
0-0
6
CONTINUOUS
62
  7
10
1110.304
20
512.457
30
0.0
11
1111.077
21
512.448
31
0.0
0
LINE
5
2188
8
0-0
6
CONTINUOUS
62
  7
10
1111.077
20
512.448
30
0.0
11
1111.880
21
512.458
31
0.0
0
LINE
5
2189
8
0-0
6
CONTINUOUS
62
  7
10
1111.880
20
512.458
30
0.0
11
1112.720
21
512.490
31
0.0
0
LINE
5
218a
8
0-0
6
CONTINUOUS
62
  7
10
1112.720
20
512.490
30
0.0
11
1113.600
21
512.544
31
0.0
0
LINE
5
218b
8
0-0
6
CONTINUOUS
62
  7
10
1113.600
20
512.544
30
0.0
11
1114.524
21
512.626
31
0.0
0
LINE
5
218c
8
0-0
6
CONTINUOUS
62
  7
10
1114.524
20
512.626
30
0.0
11
1115.495
21
512.737
31
0.0
0
LINE
5
218d
8
0-0
6
CONTINUOUS
62
  7
10
1115.495
20
512.737
30
0.0
11
1116.516
21
512.883
31
0.0
0
LINE
5
218e
8
0-0
6
CONTINUOUS
62
  7
10
1089.538
20
530.689
30
0.0
11
1088.774
21
529.547
31
0.0
0
LINE
5
218f
8
0-0
6
CONTINUOUS
62
  7
10
1088.774
20
529.547
30
0.0
11
1088.126
21
528.435
31
0.0
0
LINE
5
2190
8
0-0
6
CONTINUOUS
62
  7
10
1088.126
20
528.435
30
0.0
11
1087.580
21
527.350
31
0.0
0
LINE
5
2191
8
0-0
6
CONTINUOUS
62
  7
10
1087.580
20
527.350
30
0.0
11
1087.128
21
526.292
31
0.0
0
LINE
5
2192
8
0-0
6
CONTINUOUS
62
  7
10
1087.128
20
526.292
30
0.0
11
1086.765
21
525.261
31
0.0
0
LINE
5
2193
8
0-0
6
CONTINUOUS
62
  7
10
1086.765
20
525.261
30
0.0
11
1086.486
21
524.257
31
0.0
0
LINE
5
2194
8
0-0
6
CONTINUOUS
62
  7
10
1086.486
20
524.257
30
0.0
11
1086.291
21
523.279
31
0.0
0
LINE
5
2195
8
0-0
6
CONTINUOUS
62
  7
10
1086.291
20
523.279
30
0.0
11
1086.178
21
522.330
31
0.0
0
LINE
5
2196
8
0-0
6
CONTINUOUS
62
  7
10
1086.178
20
522.330
30
0.0
11
1086.147
21
521.410
31
0.0
0
LINE
5
2197
8
0-0
6
CONTINUOUS
62
  7
10
1086.147
20
521.410
30
0.0
11
1086.198
21
520.520
31
0.0
0
LINE
5
2198
8
0-0
6
CONTINUOUS
62
  7
10
1086.198
20
520.520
30
0.0
11
1086.330
21
519.661
31
0.0
0
LINE
5
2199
8
0-0
6
CONTINUOUS
62
  7
10
1086.330
20
519.661
30
0.0
11
1086.542
21
518.836
31
0.0
0
LINE
5
219a
8
0-0
6
CONTINUOUS
62
  7
10
1086.542
20
518.836
30
0.0
11
1086.834
21
518.046
31
0.0
0
LINE
5
219b
8
0-0
6
CONTINUOUS
62
  7
10
1086.834
20
518.046
30
0.0
11
1087.204
21
517.292
31
0.0
0
LINE
5
219c
8
0-0
6
CONTINUOUS
62
  7
10
1087.204
20
517.292
30
0.0
11
1087.648
21
516.576
31
0.0
0
LINE
5
219d
8
0-0
6
CONTINUOUS
62
  7
10
1087.648
20
516.576
30
0.0
11
1088.164
21
515.898
31
0.0
0
LINE
5
219e
8
0-0
6
CONTINUOUS
62
  7
10
1088.164
20
515.898
30
0.0
11
1088.748
21
515.260
31
0.0
0
LINE
5
219f
8
0-0
6
CONTINUOUS
62
  7
10
1088.748
20
515.260
30
0.0
11
1089.396
21
514.663
31
0.0
0
LINE
5
21a0
8
0-0
6
CONTINUOUS
62
  7
10
1089.396
20
514.663
30
0.0
11
1090.103
21
514.107
31
0.0
0
LINE
5
21a1
8
0-0
6
CONTINUOUS
62
  7
10
1090.103
20
514.107
30
0.0
11
1090.864
21
513.592
31
0.0
0
LINE
5
21a2
8
0-0
6
CONTINUOUS
62
  7
10
1090.864
20
513.592
30
0.0
11
1091.673
21
513.119
31
0.0
0
LINE
5
21a3
8
0-0
6
CONTINUOUS
62
  7
10
1091.673
20
513.119
30
0.0
11
1092.526
21
512.687
31
0.0
0
LINE
5
21a4
8
0-0
6
CONTINUOUS
62
  7
10
1092.526
20
512.687
30
0.0
11
1093.417
21
512.297
31
0.0
0
LINE
5
21a5
8
0-0
6
CONTINUOUS
62
  7
10
1093.417
20
512.297
30
0.0
11
1094.339
21
511.947
31
0.0
0
LINE
5
21a6
8
0-0
6
CONTINUOUS
62
  7
10
1094.339
20
511.947
30
0.0
11
1095.289
21
511.636
31
0.0
0
LINE
5
21a7
8
0-0
6
CONTINUOUS
62
  7
10
1095.289
20
511.636
30
0.0
11
1096.260
21
511.364
31
0.0
0
LINE
5
21a8
8
0-0
6
CONTINUOUS
62
  7
10
1096.260
20
511.364
30
0.0
11
1097.248
21
511.129
31
0.0
0
LINE
5
21a9
8
0-0
6
CONTINUOUS
62
  7
10
1097.248
20
511.129
30
0.0
11
1098.248
21
510.930
31
0.0
0
LINE
5
21aa
8
0-0
6
CONTINUOUS
62
  7
10
1098.248
20
510.930
30
0.0
11
1099.255
21
510.766
31
0.0
0
LINE
5
21ab
8
0-0
6
CONTINUOUS
62
  7
10
1099.255
20
510.766
30
0.0
11
1100.266
21
510.634
31
0.0
0
LINE
5
21ac
8
0-0
6
CONTINUOUS
62
  7
10
1100.266
20
510.634
30
0.0
11
1101.276
21
510.534
31
0.0
0
LINE
5
21ad
8
0-0
6
CONTINUOUS
62
  7
10
1101.276
20
510.534
30
0.0
11
1102.282
21
510.463
31
0.0
0
LINE
5
21ae
8
0-0
6
CONTINUOUS
62
  7
10
1102.282
20
510.463
30
0.0
11
1103.280
21
510.420
31
0.0
0
LINE
5
21af
8
0-0
6
CONTINUOUS
62
  7
10
1103.280
20
510.420
30
0.0
11
1104.268
21
510.403
31
0.0
0
LINE
5
21b0
8
0-0
6
CONTINUOUS
62
  7
10
1104.268
20
510.403
30
0.0
11
1105.242
21
510.411
31
0.0
0
LINE
5
21b1
8
0-0
6
CONTINUOUS
62
  7
10
1105.242
20
510.411
30
0.0
11
1106.199
21
510.441
31
0.0
0
LINE
5
21b2
8
0-0
6
CONTINUOUS
62
  7
10
1106.199
20
510.441
30
0.0
11
1107.136
21
510.494
31
0.0
0
LINE
5
21b3
8
0-0
6
CONTINUOUS
62
  7
10
1107.136
20
510.494
30
0.0
11
1108.051
21
510.566
31
0.0
0
LINE
5
21b4
8
0-0
6
CONTINUOUS
62
  7
10
1108.051
20
510.566
30
0.0
11
1108.939
21
510.658
31
0.0
0
LINE
5
21b5
8
0-0
6
CONTINUOUS
62
  7
10
1108.939
20
510.658
30
0.0
11
1109.798
21
510.769
31
0.0
0
LINE
5
21b6
8
0-0
6
CONTINUOUS
62
  7
10
1109.798
20
510.769
30
0.0
11
1110.624
21
510.898
31
0.0
0
LINE
5
21b7
8
0-0
6
CONTINUOUS
62
  7
10
1110.624
20
510.898
30
0.0
11
1111.413
21
511.046
31
0.0
0
LINE
5
21b8
8
0-0
6
CONTINUOUS
62
  7
10
1111.413
20
511.046
30
0.0
11
1112.161
21
511.213
31
0.0
0
LINE
5
21b9
8
0-0
6
CONTINUOUS
62
  7
10
1112.161
20
511.213
30
0.0
11
1112.864
21
511.400
31
0.0
0
LINE
5
21ba
8
0-0
6
CONTINUOUS
62
  7
10
1112.864
20
511.400
30
0.0
11
1113.517
21
511.610
31
0.0
0
LINE
5
21bb
8
0-0
6
CONTINUOUS
62
  7
10
1113.517
20
511.610
30
0.0
11
1114.113
21
511.844
31
0.0
0
LINE
5
21bc
8
0-0
6
CONTINUOUS
62
  7
10
1114.113
20
511.844
30
0.0
11
1114.647
21
512.107
31
0.0
0
LINE
5
21bd
8
0-0
6
CONTINUOUS
62
  7
10
1114.647
20
512.107
30
0.0
11
1115.110
21
512.403
31
0.0
0
LINE
5
21be
8
0-0
6
CONTINUOUS
62
  7
10
1115.110
20
512.403
30
0.0
11
1115.495
21
512.737
31
0.0
0
LINE
5
21bf
8
0-0
6
CONTINUOUS
62
  7
10
1090.533
20
531.606
30
0.0
11
1090.347
21
530.958
31
0.0
0
LINE
5
21c0
8
0-0
6
CONTINUOUS
62
  7
10
1020.946
20
502.703
30
0.0
11
1070.946
21
502.703
31
0.0
0
LINE
5
21c1
8
0-0
6
CONTINUOUS
62
  7
10
1034.552
20
560.392
30
0.0
11
1034.567
21
560.537
31
0.0
0
LINE
5
21c2
8
0-0
6
CONTINUOUS
62
  7
10
1034.567
20
560.537
30
0.0
11
1034.586
21
560.703
31
0.0
0
LINE
5
21c3
8
0-0
6
CONTINUOUS
62
  7
10
1057.340
20
560.392
30
0.0
11
1057.293
21
560.703
31
0.0
0
LINE
5
21c4
8
0-0
6
CONTINUOUS
62
  7
10
961.015
20
638.477
30
0.0
11
957.436
21
600.206
31
0.0
0
LINE
5
21c5
8
0-0
6
CONTINUOUS
62
  7
10
970.806
20
635.773
30
0.0
11
966.842
21
593.383
31
0.0
0
LINE
5
21c6
8
0-0
6
CONTINUOUS
62
  7
10
957.436
20
600.206
30
0.0
11
957.322
21
598.986
31
0.0
0
LINE
5
21c7
8
0-0
6
CONTINUOUS
62
  7
10
962.027
20
595.595
30
0.0
11
962.000
21
595.305
31
0.0
0
LINE
5
21c8
8
0-0
6
CONTINUOUS
62
  7
10
954.562
20
555.953
30
0.0
11
956.779
21
556.469
31
0.0
0
LINE
5
21c9
8
0-0
6
CONTINUOUS
62
  7
10
956.779
20
556.469
30
0.0
11
958.840
21
557.175
31
0.0
0
LINE
5
21ca
8
0-0
6
CONTINUOUS
62
  7
10
958.840
20
557.175
30
0.0
11
960.736
21
558.043
31
0.0
0
LINE
5
21cb
8
0-0
6
CONTINUOUS
62
  7
10
960.736
20
558.043
30
0.0
11
962.463
21
559.048
31
0.0
0
LINE
5
21cc
8
0-0
6
CONTINUOUS
62
  7
10
962.463
20
559.048
30
0.0
11
964.020
21
560.169
31
0.0
0
LINE
5
21cd
8
0-0
6
CONTINUOUS
62
  7
10
964.020
20
560.169
30
0.0
11
965.412
21
561.385
31
0.0
0
LINE
5
21ce
8
0-0
6
CONTINUOUS
62
  7
10
965.412
20
561.385
30
0.0
11
966.645
21
562.677
31
0.0
0
LINE
5
21cf
8
0-0
6
CONTINUOUS
62
  7
10
966.645
20
562.677
30
0.0
11
967.725
21
564.031
31
0.0
0
LINE
5
21d0
8
0-0
6
CONTINUOUS
62
  7
10
967.725
20
564.031
30
0.0
11
968.663
21
565.430
31
0.0
0
LINE
5
21d1
8
0-0
6
CONTINUOUS
62
  7
10
968.663
20
565.430
30
0.0
11
969.466
21
566.863
31
0.0
0
LINE
5
21d2
8
0-0
6
CONTINUOUS
62
  7
10
969.466
20
566.863
30
0.0
11
970.143
21
568.317
31
0.0
0
LINE
5
21d3
8
0-0
6
CONTINUOUS
62
  7
10
970.143
20
568.317
30
0.0
11
970.705
21
569.783
31
0.0
0
LINE
5
21d4
8
0-0
6
CONTINUOUS
62
  7
10
970.705
20
569.783
30
0.0
11
971.161
21
571.249
31
0.0
0
LINE
5
21d5
8
0-0
6
CONTINUOUS
62
  7
10
971.161
20
571.249
30
0.0
11
971.517
21
572.709
31
0.0
0
LINE
5
21d6
8
0-0
6
CONTINUOUS
62
  7
10
971.517
20
572.709
30
0.0
11
971.783
21
574.154
31
0.0
0
LINE
5
21d7
8
0-0
6
CONTINUOUS
62
  7
10
971.783
20
574.154
30
0.0
11
971.965
21
575.578
31
0.0
0
LINE
5
21d8
8
0-0
6
CONTINUOUS
62
  7
10
971.965
20
575.578
30
0.0
11
972.072
21
576.974
31
0.0
0
LINE
5
21d9
8
0-0
6
CONTINUOUS
62
  7
10
972.072
20
576.974
30
0.0
11
972.108
21
578.338
31
0.0
0
LINE
5
21da
8
0-0
6
CONTINUOUS
62
  7
10
972.108
20
578.338
30
0.0
11
972.081
21
579.663
31
0.0
0
LINE
5
21db
8
0-0
6
CONTINUOUS
62
  7
10
972.081
20
579.663
30
0.0
11
971.995
21
580.947
31
0.0
0
LINE
5
21dc
8
0-0
6
CONTINUOUS
62
  7
10
971.995
20
580.947
30
0.0
11
971.857
21
582.185
31
0.0
0
LINE
5
21dd
8
0-0
6
CONTINUOUS
62
  7
10
971.857
20
582.185
30
0.0
11
971.670
21
583.374
31
0.0
0
LINE
5
21de
8
0-0
6
CONTINUOUS
62
  7
10
971.670
20
583.374
30
0.0
11
971.440
21
584.511
31
0.0
0
LINE
5
21df
8
0-0
6
CONTINUOUS
62
  7
10
971.440
20
584.511
30
0.0
11
971.171
21
585.594
31
0.0
0
LINE
5
21e0
8
0-0
6
CONTINUOUS
62
  7
10
971.171
20
585.594
30
0.0
11
970.868
21
586.620
31
0.0
0
LINE
5
21e1
8
0-0
6
CONTINUOUS
62
  7
10
970.868
20
586.620
30
0.0
11
970.535
21
587.589
31
0.0
0
LINE
5
21e2
8
0-0
6
CONTINUOUS
62
  7
10
970.535
20
587.589
30
0.0
11
970.176
21
588.499
31
0.0
0
LINE
5
21e3
8
0-0
6
CONTINUOUS
62
  7
10
970.176
20
588.499
30
0.0
11
969.794
21
589.350
31
0.0
0
LINE
5
21e4
8
0-0
6
CONTINUOUS
62
  7
10
969.794
20
589.350
30
0.0
11
969.714
21
589.508
31
0.0
0
LINE
5
21e5
8
0-0
6
CONTINUOUS
62
  7
10
969.714
20
589.508
30
0.0
11
969.650
21
589.658
31
0.0
0
LINE
5
21e6
8
0-0
6
CONTINUOUS
62
  7
10
969.650
20
589.658
30
0.0
11
969.583
21
589.803
31
0.0
0
LINE
5
21e7
8
0-0
6
CONTINUOUS
62
  7
10
969.583
20
589.803
30
0.0
11
969.514
21
589.943
31
0.0
0
LINE
5
21e8
8
0-0
6
CONTINUOUS
62
  7
10
969.514
20
589.943
30
0.0
11
969.443
21
590.079
31
0.0
0
LINE
5
21e9
8
0-0
6
CONTINUOUS
62
  7
10
969.443
20
590.079
30
0.0
11
969.372
21
590.210
31
0.0
0
LINE
5
21ea
8
0-0
6
CONTINUOUS
62
  7
10
969.372
20
590.210
30
0.0
11
969.299
21
590.336
31
0.0
0
LINE
5
21eb
8
0-0
6
CONTINUOUS
62
  7
10
969.299
20
590.336
30
0.0
11
969.225
21
590.459
31
0.0
0
LINE
5
21ec
8
0-0
6
CONTINUOUS
62
  7
10
969.225
20
590.459
30
0.0
11
969.151
21
590.577
31
0.0
0
LINE
5
21ed
8
0-0
6
CONTINUOUS
62
  7
10
969.151
20
590.577
30
0.0
11
969.075
21
590.693
31
0.0
0
LINE
5
21ee
8
0-0
6
CONTINUOUS
62
  7
10
969.075
20
590.693
30
0.0
11
968.999
21
590.805
31
0.0
0
LINE
5
21ef
8
0-0
6
CONTINUOUS
62
  7
10
968.999
20
590.805
30
0.0
11
968.922
21
590.915
31
0.0
0
LINE
5
21f0
8
0-0
6
CONTINUOUS
62
  7
10
968.922
20
590.915
30
0.0
11
968.844
21
591.023
31
0.0
0
LINE
5
21f1
8
0-0
6
CONTINUOUS
62
  7
10
968.844
20
591.023
30
0.0
11
968.765
21
591.129
31
0.0
0
LINE
5
21f2
8
0-0
6
CONTINUOUS
62
  7
10
968.765
20
591.129
30
0.0
11
968.685
21
591.234
31
0.0
0
LINE
5
21f3
8
0-0
6
CONTINUOUS
62
  7
10
968.685
20
591.234
30
0.0
11
968.604
21
591.337
31
0.0
0
LINE
5
21f4
8
0-0
6
CONTINUOUS
62
  7
10
968.604
20
591.337
30
0.0
11
968.521
21
591.440
31
0.0
0
LINE
5
21f5
8
0-0
6
CONTINUOUS
62
  7
10
968.521
20
591.440
30
0.0
11
968.438
21
591.542
31
0.0
0
LINE
5
21f6
8
0-0
6
CONTINUOUS
62
  7
10
968.438
20
591.542
30
0.0
11
968.354
21
591.644
31
0.0
0
LINE
5
21f7
8
0-0
6
CONTINUOUS
62
  7
10
968.354
20
591.644
30
0.0
11
968.269
21
591.745
31
0.0
0
LINE
5
21f8
8
0-0
6
CONTINUOUS
62
  7
10
968.269
20
591.745
30
0.0
11
968.183
21
591.847
31
0.0
0
LINE
5
21f9
8
0-0
6
CONTINUOUS
62
  7
10
968.183
20
591.847
30
0.0
11
968.096
21
591.950
31
0.0
0
LINE
5
21fa
8
0-0
6
CONTINUOUS
62
  7
10
968.096
20
591.950
30
0.0
11
968.009
21
592.053
31
0.0
0
LINE
5
21fb
8
0-0
6
CONTINUOUS
62
  7
10
968.009
20
592.053
30
0.0
11
967.920
21
592.156
31
0.0
0
LINE
5
21fc
8
0-0
6
CONTINUOUS
62
  7
10
967.920
20
592.156
30
0.0
11
967.830
21
592.261
31
0.0
0
LINE
5
21fd
8
0-0
6
CONTINUOUS
62
  7
10
967.830
20
592.261
30
0.0
11
967.739
21
592.367
31
0.0
0
LINE
5
21fe
8
0-0
6
CONTINUOUS
62
  7
10
967.739
20
592.367
30
0.0
11
967.647
21
592.474
31
0.0
0
LINE
5
21ff
8
0-0
6
CONTINUOUS
62
  7
10
967.647
20
592.474
30
0.0
11
967.554
21
592.582
31
0.0
0
LINE
5
2200
8
0-0
6
CONTINUOUS
62
  7
10
967.554
20
592.582
30
0.0
11
967.459
21
592.692
31
0.0
0
LINE
5
2201
8
0-0
6
CONTINUOUS
62
  7
10
967.459
20
592.692
30
0.0
11
967.362
21
592.804
31
0.0
0
LINE
5
2202
8
0-0
6
CONTINUOUS
62
  7
10
967.362
20
592.804
30
0.0
11
967.264
21
592.917
31
0.0
0
LINE
5
2203
8
0-0
6
CONTINUOUS
62
  7
10
967.264
20
592.917
30
0.0
11
967.163
21
593.032
31
0.0
0
LINE
5
2204
8
0-0
6
CONTINUOUS
62
  7
10
967.163
20
593.032
30
0.0
11
967.059
21
593.148
31
0.0
0
LINE
5
2205
8
0-0
6
CONTINUOUS
62
  7
10
967.059
20
593.148
30
0.0
11
966.952
21
593.265
31
0.0
0
LINE
5
2206
8
0-0
6
CONTINUOUS
62
  7
10
966.952
20
593.265
30
0.0
11
966.842
21
593.383
31
0.0
0
LINE
5
2207
8
0-0
6
CONTINUOUS
62
  7
10
966.842
20
593.383
30
0.0
11
959.703
21
596.216
31
0.0
0
LINE
5
2208
8
0-0
6
CONTINUOUS
62
  7
10
1125.874
20
638.275
30
0.0
11
1129.865
21
595.595
31
0.0
0
LINE
5
2209
8
0-0
6
CONTINUOUS
62
  7
10
1130.877
20
638.477
30
0.0
11
1134.456
21
600.206
31
0.0
0
LINE
5
220a
8
0-0
6
CONTINUOUS
62
  7
10
1121.086
20
635.773
30
0.0
11
1125.050
21
593.383
31
0.0
0
LINE
5
220b
8
0-0
6
CONTINUOUS
62
  7
10
1134.456
20
600.206
30
0.0
11
1134.570
21
598.986
31
0.0
0
LINE
5
220c
8
0-0
6
CONTINUOUS
62
  7
10
1129.865
20
595.595
30
0.0
11
1129.892
21
595.305
31
0.0
0
LINE
5
220d
8
0-0
6
CONTINUOUS
62
  7
10
1137.330
20
555.953
30
0.0
11
1135.113
21
556.469
31
0.0
0
LINE
5
220e
8
0-0
6
CONTINUOUS
62
  7
10
1135.113
20
556.469
30
0.0
11
1133.052
21
557.175
31
0.0
0
LINE
5
220f
8
0-0
6
CONTINUOUS
62
  7
10
1133.052
20
557.175
30
0.0
11
1131.156
21
558.043
31
0.0
0
LINE
5
2210
8
0-0
6
CONTINUOUS
62
  7
10
1131.156
20
558.043
30
0.0
11
1129.429
21
559.048
31
0.0
0
LINE
5
2211
8
0-0
6
CONTINUOUS
62
  7
10
1129.429
20
559.048
30
0.0
11
1127.872
21
560.169
31
0.0
0
LINE
5
2212
8
0-0
6
CONTINUOUS
62
  7
10
1127.872
20
560.169
30
0.0
11
1126.480
21
561.385
31
0.0
0
LINE
5
2213
8
0-0
6
CONTINUOUS
62
  7
10
1126.480
20
561.385
30
0.0
11
1125.247
21
562.677
31
0.0
0
LINE
5
2214
8
0-0
6
CONTINUOUS
62
  7
10
1125.247
20
562.677
30
0.0
11
1124.167
21
564.031
31
0.0
0
LINE
5
2215
8
0-0
6
CONTINUOUS
62
  7
10
1124.167
20
564.031
30
0.0
11
1123.229
21
565.430
31
0.0
0
LINE
5
2216
8
0-0
6
CONTINUOUS
62
  7
10
1123.229
20
565.430
30
0.0
11
1122.426
21
566.863
31
0.0
0
LINE
5
2217
8
0-0
6
CONTINUOUS
62
  7
10
1122.426
20
566.863
30
0.0
11
1121.749
21
568.317
31
0.0
0
LINE
5
2218
8
0-0
6
CONTINUOUS
62
  7
10
1121.749
20
568.317
30
0.0
11
1121.187
21
569.783
31
0.0
0
LINE
5
2219
8
0-0
6
CONTINUOUS
62
  7
10
1121.187
20
569.783
30
0.0
11
1120.731
21
571.249
31
0.0
0
LINE
5
221a
8
0-0
6
CONTINUOUS
62
  7
10
1120.731
20
571.249
30
0.0
11
1120.375
21
572.709
31
0.0
0
LINE
5
221b
8
0-0
6
CONTINUOUS
62
  7
10
1120.375
20
572.709
30
0.0
11
1120.109
21
574.154
31
0.0
0
LINE
5
221c
8
0-0
6
CONTINUOUS
62
  7
10
1120.109
20
574.154
30
0.0
11
1119.927
21
575.578
31
0.0
0
LINE
5
221d
8
0-0
6
CONTINUOUS
62
  7
10
1119.927
20
575.578
30
0.0
11
1119.820
21
576.974
31
0.0
0
LINE
5
221e
8
0-0
6
CONTINUOUS
62
  7
10
1119.820
20
576.974
30
0.0
11
1119.784
21
578.338
31
0.0
0
LINE
5
221f
8
0-0
6
CONTINUOUS
62
  7
10
1119.784
20
578.338
30
0.0
11
1119.811
21
579.663
31
0.0
0
LINE
5
2220
8
0-0
6
CONTINUOUS
62
  7
10
1119.811
20
579.663
30
0.0
11
1119.897
21
580.947
31
0.0
0
LINE
5
2221
8
0-0
6
CONTINUOUS
62
  7
10
1119.897
20
580.947
30
0.0
11
1120.035
21
582.185
31
0.0
0
LINE
5
2222
8
0-0
6
CONTINUOUS
62
  7
10
1120.035
20
582.185
30
0.0
11
1120.222
21
583.374
31
0.0
0
LINE
5
2223
8
0-0
6
CONTINUOUS
62
  7
10
1120.222
20
583.374
30
0.0
11
1120.452
21
584.511
31
0.0
0
LINE
5
2224
8
0-0
6
CONTINUOUS
62
  7
10
1120.452
20
584.511
30
0.0
11
1120.721
21
585.594
31
0.0
0
LINE
5
2225
8
0-0
6
CONTINUOUS
62
  7
10
1120.721
20
585.594
30
0.0
11
1121.024
21
586.620
31
0.0
0
LINE
5
2226
8
0-0
6
CONTINUOUS
62
  7
10
1121.024
20
586.620
30
0.0
11
1121.357
21
587.589
31
0.0
0
LINE
5
2227
8
0-0
6
CONTINUOUS
62
  7
10
1121.357
20
587.589
30
0.0
11
1121.717
21
588.499
31
0.0
0
LINE
5
2228
8
0-0
6
CONTINUOUS
62
  7
10
1121.717
20
588.499
30
0.0
11
1122.098
21
589.350
31
0.0
0
LINE
5
2229
8
0-0
6
CONTINUOUS
62
  7
10
1122.098
20
589.350
30
0.0
11
1122.178
21
589.508
31
0.0
0
LINE
5
222a
8
0-0
6
CONTINUOUS
62
  7
10
1122.178
20
589.508
30
0.0
11
1122.242
21
589.658
31
0.0
0
LINE
5
222b
8
0-0
6
CONTINUOUS
62
  7
10
1122.242
20
589.658
30
0.0
11
1122.309
21
589.803
31
0.0
0
LINE
5
222c
8
0-0
6
CONTINUOUS
62
  7
10
1122.309
20
589.803
30
0.0
11
1122.378
21
589.943
31
0.0
0
LINE
5
222d
8
0-0
6
CONTINUOUS
62
  7
10
1122.378
20
589.943
30
0.0
11
1122.449
21
590.079
31
0.0
0
LINE
5
222e
8
0-0
6
CONTINUOUS
62
  7
10
1122.449
20
590.079
30
0.0
11
1122.521
21
590.210
31
0.0
0
LINE
5
222f
8
0-0
6
CONTINUOUS
62
  7
10
1122.521
20
590.210
30
0.0
11
1122.593
21
590.336
31
0.0
0
LINE
5
2230
8
0-0
6
CONTINUOUS
62
  7
10
1122.593
20
590.336
30
0.0
11
1122.667
21
590.459
31
0.0
0
LINE
5
2231
8
0-0
6
CONTINUOUS
62
  7
10
1122.667
20
590.459
30
0.0
11
1122.741
21
590.577
31
0.0
0
LINE
5
2232
8
0-0
6
CONTINUOUS
62
  7
10
1122.741
20
590.577
30
0.0
11
1122.817
21
590.693
31
0.0
0
LINE
5
2233
8
0-0
6
CONTINUOUS
62
  7
10
1122.817
20
590.693
30
0.0
11
1122.893
21
590.805
31
0.0
0
LINE
5
2234
8
0-0
6
CONTINUOUS
62
  7
10
1122.893
20
590.805
30
0.0
11
1122.970
21
590.915
31
0.0
0
LINE
5
2235
8
0-0
6
CONTINUOUS
62
  7
10
1122.970
20
590.915
30
0.0
11
1123.048
21
591.023
31
0.0
0
LINE
5
2236
8
0-0
6
CONTINUOUS
62
  7
10
1123.048
20
591.023
30
0.0
11
1123.127
21
591.129
31
0.0
0
LINE
5
2237
8
0-0
6
CONTINUOUS
62
  7
10
1123.127
20
591.129
30
0.0
11
1123.207
21
591.234
31
0.0
0
LINE
5
2238
8
0-0
6
CONTINUOUS
62
  7
10
1123.207
20
591.234
30
0.0
11
1123.289
21
591.337
31
0.0
0
LINE
5
2239
8
0-0
6
CONTINUOUS
62
  7
10
1123.289
20
591.337
30
0.0
11
1123.370
21
591.440
31
0.0
0
LINE
5
223a
8
0-0
6
CONTINUOUS
62
  7
10
1123.370
20
591.440
30
0.0
11
1123.454
21
591.542
31
0.0
0
LINE
5
223b
8
0-0
6
CONTINUOUS
62
  7
10
1123.454
20
591.542
30
0.0
11
1123.538
21
591.644
31
0.0
0
LINE
5
223c
8
0-0
6
CONTINUOUS
62
  7
10
1123.538
20
591.644
30
0.0
11
1123.623
21
591.745
31
0.0
0
LINE
5
223d
8
0-0
6
CONTINUOUS
62
  7
10
1123.623
20
591.745
30
0.0
11
1123.709
21
591.847
31
0.0
0
LINE
5
223e
8
0-0
6
CONTINUOUS
62
  7
10
1123.709
20
591.847
30
0.0
11
1123.796
21
591.950
31
0.0
0
LINE
5
223f
8
0-0
6
CONTINUOUS
62
  7
10
1123.796
20
591.950
30
0.0
11
1123.883
21
592.053
31
0.0
0
LINE
5
2240
8
0-0
6
CONTINUOUS
62
  7
10
1123.883
20
592.053
30
0.0
11
1123.972
21
592.156
31
0.0
0
LINE
5
2241
8
0-0
6
CONTINUOUS
62
  7
10
1123.972
20
592.156
30
0.0
11
1124.062
21
592.261
31
0.0
0
LINE
5
2242
8
0-0
6
CONTINUOUS
62
  7
10
1124.062
20
592.261
30
0.0
11
1124.153
21
592.367
31
0.0
0
LINE
5
2243
8
0-0
6
CONTINUOUS
62
  7
10
1124.153
20
592.367
30
0.0
11
1124.245
21
592.474
31
0.0
0
LINE
5
2244
8
0-0
6
CONTINUOUS
62
  7
10
1124.245
20
592.474
30
0.0
11
1124.338
21
592.582
31
0.0
0
LINE
5
2245
8
0-0
6
CONTINUOUS
62
  7
10
1124.338
20
592.582
30
0.0
11
1124.433
21
592.692
31
0.0
0
LINE
5
2246
8
0-0
6
CONTINUOUS
62
  7
10
1124.433
20
592.692
30
0.0
11
1124.529
21
592.804
31
0.0
0
LINE
5
2247
8
0-0
6
CONTINUOUS
62
  7
10
1124.529
20
592.804
30
0.0
11
1124.628
21
592.917
31
0.0
0
LINE
5
2248
8
0-0
6
CONTINUOUS
62
  7
10
1124.628
20
592.917
30
0.0
11
1124.729
21
593.032
31
0.0
0
LINE
5
2249
8
0-0
6
CONTINUOUS
62
  7
10
1124.729
20
593.032
30
0.0
11
1124.833
21
593.148
31
0.0
0
LINE
5
224a
8
0-0
6
CONTINUOUS
62
  7
10
1124.833
20
593.148
30
0.0
11
1124.940
21
593.265
31
0.0
0
LINE
5
224b
8
0-0
6
CONTINUOUS
62
  7
10
1124.940
20
593.265
30
0.0
11
1125.050
21
593.383
31
0.0
0
LINE
5
224c
8
0-0
6
CONTINUOUS
62
  7
10
1125.050
20
593.383
30
0.0
11
1132.189
21
596.216
31
0.0
0
LINE
5
224d
8
0-0
6
CONTINUOUS
62
  7
10
1016.155
20
640.749
30
0.0
11
1016.426
21
641.000
31
0.0
0
LINE
5
224e
8
0-0
6
CONTINUOUS
62
  7
10
1016.426
20
641.000
30
0.0
11
1016.955
21
641.414
31
0.0
0
LINE
5
224f
8
0-0
6
CONTINUOUS
62
  7
10
1016.955
20
641.414
30
0.0
11
1017.592
21
641.837
31
0.0
0
LINE
5
2250
8
0-0
6
CONTINUOUS
62
  7
10
1017.592
20
641.837
30
0.0
11
1018.334
21
642.259
31
0.0
0
LINE
5
2251
8
0-0
6
CONTINUOUS
62
  7
10
1018.334
20
642.259
30
0.0
11
1019.181
21
642.674
31
0.0
0
LINE
5
2252
8
0-0
6
CONTINUOUS
62
  7
10
1019.181
20
642.674
30
0.0
11
1020.124
21
643.074
31
0.0
0
LINE
5
2253
8
0-0
6
CONTINUOUS
62
  7
10
1020.124
20
643.074
30
0.0
11
1021.155
21
643.454
31
0.0
0
LINE
5
2254
8
0-0
6
CONTINUOUS
62
  7
10
1021.155
20
643.454
30
0.0
11
1022.260
21
643.807
31
0.0
0
LINE
5
2255
8
0-0
6
CONTINUOUS
62
  7
10
1022.260
20
643.807
30
0.0
11
1023.437
21
644.134
31
0.0
0
LINE
5
2256
8
0-0
6
CONTINUOUS
62
  7
10
1023.437
20
644.134
30
0.0
11
1024.678
21
644.433
31
0.0
0
LINE
5
2257
8
0-0
6
CONTINUOUS
62
  7
10
1024.678
20
644.433
30
0.0
11
1025.979
21
644.705
31
0.0
0
LINE
5
2258
8
0-0
6
CONTINUOUS
62
  7
10
1025.979
20
644.705
30
0.0
11
1027.340
21
644.950
31
0.0
0
LINE
5
2259
8
0-0
6
CONTINUOUS
62
  7
10
1027.340
20
644.950
30
0.0
11
1028.767
21
645.171
31
0.0
0
LINE
5
225a
8
0-0
6
CONTINUOUS
62
  7
10
1028.767
20
645.171
30
0.0
11
1030.260
21
645.371
31
0.0
0
LINE
5
225b
8
0-0
6
CONTINUOUS
62
  7
10
1030.260
20
645.371
30
0.0
11
1031.840
21
645.553
31
0.0
0
LINE
5
225c
8
0-0
6
CONTINUOUS
62
  7
10
1031.840
20
645.553
30
0.0
11
1033.504
21
645.719
31
0.0
0
LINE
5
225d
8
0-0
6
CONTINUOUS
62
  7
10
1033.504
20
645.719
30
0.0
11
1035.285
21
645.876
31
0.0
0
LINE
5
225e
8
0-0
6
CONTINUOUS
62
  7
10
1035.285
20
645.876
30
0.0
11
1037.178
21
646.026
31
0.0
0
LINE
5
225f
8
0-0
6
CONTINUOUS
62
  7
10
1037.178
20
646.026
30
0.0
11
1039.217
21
646.173
31
0.0
0
LINE
5
2260
8
0-0
6
CONTINUOUS
62
  7
10
1039.217
20
646.173
30
0.0
11
1041.435
21
646.323
31
0.0
0
LINE
5
2261
8
0-0
6
CONTINUOUS
62
  7
10
1041.435
20
646.323
30
0.0
11
1043.794
21
646.477
31
0.0
0
LINE
5
2262
8
0-0
6
CONTINUOUS
62
  7
10
1043.794
20
646.477
30
0.0
11
1046.458
21
646.648
31
0.0
0
LINE
5
2263
8
0-0
6
CONTINUOUS
62
  7
10
999.064
20
575.703
30
0.0
11
999.064
21
624.031
31
0.0
0
LINE
5
2264
8
0-0
6
CONTINUOUS
62
  7
10
1004.064
20
575.703
30
0.0
11
1004.064
21
623.138
31
0.0
0
LINE
5
2265
8
0-0
6
CONTINUOUS
62
  7
10
1004.917
20
624.673
30
0.0
11
1004.875
21
624.619
31
0.0
0
LINE
5
2266
8
0-0
6
CONTINUOUS
62
  7
10
1004.875
20
624.619
30
0.0
11
1004.836
21
624.568
31
0.0
0
LINE
5
2267
8
0-0
6
CONTINUOUS
62
  7
10
1004.836
20
624.568
30
0.0
11
1004.797
21
624.518
31
0.0
0
LINE
5
2268
8
0-0
6
CONTINUOUS
62
  7
10
1004.797
20
624.518
30
0.0
11
1004.761
21
624.471
31
0.0
0
LINE
5
2269
8
0-0
6
CONTINUOUS
62
  7
10
1004.761
20
624.471
30
0.0
11
1004.725
21
624.426
31
0.0
0
LINE
5
226a
8
0-0
6
CONTINUOUS
62
  7
10
1004.725
20
624.426
30
0.0
11
1004.692
21
624.383
31
0.0
0
LINE
5
226b
8
0-0
6
CONTINUOUS
62
  7
10
1004.692
20
624.383
30
0.0
11
1004.660
21
624.341
31
0.0
0
LINE
5
226c
8
0-0
6
CONTINUOUS
62
  7
10
1004.660
20
624.341
30
0.0
11
1004.629
21
624.301
31
0.0
0
LINE
5
226d
8
0-0
6
CONTINUOUS
62
  7
10
1004.629
20
624.301
30
0.0
11
1004.600
21
624.263
31
0.0
0
LINE
5
226e
8
0-0
6
CONTINUOUS
62
  7
10
1004.600
20
624.263
30
0.0
11
1004.572
21
624.226
31
0.0
0
LINE
5
226f
8
0-0
6
CONTINUOUS
62
  7
10
1004.572
20
624.226
30
0.0
11
1004.545
21
624.190
31
0.0
0
LINE
5
2270
8
0-0
6
CONTINUOUS
62
  7
10
1004.545
20
624.190
30
0.0
11
1004.520
21
624.154
31
0.0
0
LINE
5
2271
8
0-0
6
CONTINUOUS
62
  7
10
1004.520
20
624.154
30
0.0
11
1004.496
21
624.120
31
0.0
0
LINE
5
2272
8
0-0
6
CONTINUOUS
62
  7
10
1004.496
20
624.120
30
0.0
11
1004.472
21
624.085
31
0.0
0
LINE
5
2273
8
0-0
6
CONTINUOUS
62
  7
10
1004.472
20
624.085
30
0.0
11
1004.450
21
624.051
31
0.0
0
LINE
5
2274
8
0-0
6
CONTINUOUS
62
  7
10
1004.450
20
624.051
30
0.0
11
1004.428
21
624.017
31
0.0
0
LINE
5
2275
8
0-0
6
CONTINUOUS
62
  7
10
1004.428
20
624.017
30
0.0
11
1004.407
21
623.982
31
0.0
0
LINE
5
2276
8
0-0
6
CONTINUOUS
62
  7
10
1004.407
20
623.982
30
0.0
11
1004.387
21
623.947
31
0.0
0
LINE
5
2277
8
0-0
6
CONTINUOUS
62
  7
10
1004.387
20
623.947
30
0.0
11
1004.367
21
623.911
31
0.0
0
LINE
5
2278
8
0-0
6
CONTINUOUS
62
  7
10
1004.367
20
623.911
30
0.0
11
1004.347
21
623.874
31
0.0
0
LINE
5
2279
8
0-0
6
CONTINUOUS
62
  7
10
1004.347
20
623.874
30
0.0
11
1004.328
21
623.836
31
0.0
0
LINE
5
227a
8
0-0
6
CONTINUOUS
62
  7
10
1004.328
20
623.836
30
0.0
11
1004.309
21
623.796
31
0.0
0
LINE
5
227b
8
0-0
6
CONTINUOUS
62
  7
10
1004.309
20
623.796
30
0.0
11
1004.290
21
623.754
31
0.0
0
LINE
5
227c
8
0-0
6
CONTINUOUS
62
  7
10
1004.290
20
623.754
30
0.0
11
1004.271
21
623.710
31
0.0
0
LINE
5
227d
8
0-0
6
CONTINUOUS
62
  7
10
1004.271
20
623.710
30
0.0
11
1004.252
21
623.663
31
0.0
0
LINE
5
227e
8
0-0
6
CONTINUOUS
62
  7
10
1004.252
20
623.663
30
0.0
11
1004.232
21
623.612
31
0.0
0
LINE
5
227f
8
0-0
6
CONTINUOUS
62
  7
10
1004.232
20
623.612
30
0.0
11
1004.211
21
623.557
31
0.0
0
LINE
5
2280
8
0-0
6
CONTINUOUS
62
  7
10
1004.211
20
623.557
30
0.0
11
1004.189
21
623.497
31
0.0
0
LINE
5
2281
8
0-0
6
CONTINUOUS
62
  7
10
1004.189
20
623.497
30
0.0
11
1004.166
21
623.431
31
0.0
0
LINE
5
2282
8
0-0
6
CONTINUOUS
62
  7
10
1004.166
20
623.431
30
0.0
11
1004.140
21
623.357
31
0.0
0
LINE
5
2283
8
0-0
6
CONTINUOUS
62
  7
10
1004.140
20
623.357
30
0.0
11
1004.111
21
623.275
31
0.0
0
LINE
5
2284
8
0-0
6
CONTINUOUS
62
  7
10
1004.111
20
623.275
30
0.0
11
1004.079
21
623.181
31
0.0
0
LINE
5
2285
8
0-0
6
CONTINUOUS
62
  7
10
1004.079
20
623.181
30
0.0
11
1004.064
21
623.138
31
0.0
0
LINE
5
2286
8
0-0
6
CONTINUOUS
62
  7
10
1072.828
20
560.703
30
0.0
11
1055.946
21
560.703
31
0.0
0
LINE
5
2287
8
0-0
6
CONTINUOUS
62
  7
10
1057.340
20
560.392
30
0.0
11
1057.324
21
560.537
31
0.0
0
LINE
5
2288
8
0-0
6
CONTINUOUS
62
  7
10
1057.324
20
560.537
30
0.0
11
1057.306
21
560.703
31
0.0
0
LINE
5
2289
8
0-0
6
CONTINUOUS
62
  7
10
1092.828
20
575.703
30
0.0
11
1092.828
21
624.031
31
0.0
0
LINE
5
228a
8
0-0
6
CONTINUOUS
62
  7
10
1087.828
20
575.703
30
0.0
11
1087.828
21
623.138
31
0.0
0
LINE
5
228b
8
0-0
6
CONTINUOUS
62
  7
10
1086.975
20
624.673
30
0.0
11
1087.017
21
624.619
31
0.0
0
LINE
5
228c
8
0-0
6
CONTINUOUS
62
  7
10
1087.017
20
624.619
30
0.0
11
1087.056
21
624.568
31
0.0
0
LINE
5
228d
8
0-0
6
CONTINUOUS
62
  7
10
1087.056
20
624.568
30
0.0
11
1087.095
21
624.518
31
0.0
0
LINE
5
228e
8
0-0
6
CONTINUOUS
62
  7
10
1087.095
20
624.518
30
0.0
11
1087.131
21
624.471
31
0.0
0
LINE
5
228f
8
0-0
6
CONTINUOUS
62
  7
10
1087.131
20
624.471
30
0.0
11
1087.167
21
624.426
31
0.0
0
LINE
5
2290
8
0-0
6
CONTINUOUS
62
  7
10
1087.167
20
624.426
30
0.0
11
1087.200
21
624.383
31
0.0
0
LINE
5
2291
8
0-0
6
CONTINUOUS
62
  7
10
1087.200
20
624.383
30
0.0
11
1087.232
21
624.341
31
0.0
0
LINE
5
2292
8
0-0
6
CONTINUOUS
62
  7
10
1087.232
20
624.341
30
0.0
11
1087.263
21
624.301
31
0.0
0
LINE
5
2293
8
0-0
6
CONTINUOUS
62
  7
10
1087.263
20
624.301
30
0.0
11
1087.292
21
624.263
31
0.0
0
LINE
5
2294
8
0-0
6
CONTINUOUS
62
  7
10
1087.292
20
624.263
30
0.0
11
1087.320
21
624.226
31
0.0
0
LINE
5
2295
8
0-0
6
CONTINUOUS
62
  7
10
1087.320
20
624.226
30
0.0
11
1087.347
21
624.190
31
0.0
0
LINE
5
2296
8
0-0
6
CONTINUOUS
62
  7
10
1087.347
20
624.190
30
0.0
11
1087.372
21
624.154
31
0.0
0
LINE
5
2297
8
0-0
6
CONTINUOUS
62
  7
10
1087.372
20
624.154
30
0.0
11
1087.396
21
624.120
31
0.0
0
LINE
5
2298
8
0-0
6
CONTINUOUS
62
  7
10
1087.396
20
624.120
30
0.0
11
1087.420
21
624.085
31
0.0
0
LINE
5
2299
8
0-0
6
CONTINUOUS
62
  7
10
1087.420
20
624.085
30
0.0
11
1087.442
21
624.051
31
0.0
0
LINE
5
229a
8
0-0
6
CONTINUOUS
62
  7
10
1087.442
20
624.051
30
0.0
11
1087.464
21
624.017
31
0.0
0
LINE
5
229b
8
0-0
6
CONTINUOUS
62
  7
10
1087.464
20
624.017
30
0.0
11
1087.485
21
623.982
31
0.0
0
LINE
5
229c
8
0-0
6
CONTINUOUS
62
  7
10
1087.485
20
623.982
30
0.0
11
1087.505
21
623.947
31
0.0
0
LINE
5
229d
8
0-0
6
CONTINUOUS
62
  7
10
1087.505
20
623.947
30
0.0
11
1087.525
21
623.911
31
0.0
0
LINE
5
229e
8
0-0
6
CONTINUOUS
62
  7
10
1087.525
20
623.911
30
0.0
11
1087.545
21
623.874
31
0.0
0
LINE
5
229f
8
0-0
6
CONTINUOUS
62
  7
10
1087.545
20
623.874
30
0.0
11
1087.564
21
623.836
31
0.0
0
LINE
5
22a0
8
0-0
6
CONTINUOUS
62
  7
10
1087.564
20
623.836
30
0.0
11
1087.583
21
623.796
31
0.0
0
LINE
5
22a1
8
0-0
6
CONTINUOUS
62
  7
10
1087.583
20
623.796
30
0.0
11
1087.602
21
623.754
31
0.0
0
LINE
5
22a2
8
0-0
6
CONTINUOUS
62
  7
10
1087.602
20
623.754
30
0.0
11
1087.621
21
623.710
31
0.0
0
LINE
5
22a3
8
0-0
6
CONTINUOUS
62
  7
10
1087.621
20
623.710
30
0.0
11
1087.640
21
623.663
31
0.0
0
LINE
5
22a4
8
0-0
6
CONTINUOUS
62
  7
10
1087.640
20
623.663
30
0.0
11
1087.660
21
623.612
31
0.0
0
LINE
5
22a5
8
0-0
6
CONTINUOUS
62
  7
10
1087.660
20
623.612
30
0.0
11
1087.681
21
623.557
31
0.0
0
LINE
5
22a6
8
0-0
6
CONTINUOUS
62
  7
10
1087.681
20
623.557
30
0.0
11
1087.703
21
623.497
31
0.0
0
LINE
5
22a7
8
0-0
6
CONTINUOUS
62
  7
10
1087.703
20
623.497
30
0.0
11
1087.726
21
623.431
31
0.0
0
LINE
5
22a8
8
0-0
6
CONTINUOUS
62
  7
10
1087.726
20
623.431
30
0.0
11
1087.752
21
623.357
31
0.0
0
LINE
5
22a9
8
0-0
6
CONTINUOUS
62
  7
10
1087.752
20
623.357
30
0.0
11
1087.781
21
623.275
31
0.0
0
LINE
5
22aa
8
0-0
6
CONTINUOUS
62
  7
10
1087.781
20
623.275
30
0.0
11
1087.813
21
623.181
31
0.0
0
LINE
5
22ab
8
0-0
6
CONTINUOUS
62
  7
10
1087.813
20
623.181
30
0.0
11
1087.828
21
623.138
31
0.0
0
LINE
5
22ac
8
0-0
6
CONTINUOUS
62
  7
10
1072.340
20
637.081
30
0.0
11
1072.223
21
637.190
31
0.0
0
LINE
5
22ad
8
0-0
6
CONTINUOUS
62
  7
10
1072.223
20
637.190
30
0.0
11
1072.010
21
637.356
31
0.0
0
LINE
5
22ae
8
0-0
6
CONTINUOUS
62
  7
10
1072.010
20
637.356
30
0.0
11
1071.678
21
637.576
31
0.0
0
LINE
5
22af
8
0-0
6
CONTINUOUS
62
  7
10
1071.678
20
637.576
30
0.0
11
1071.219
21
637.837
31
0.0
0
LINE
5
22b0
8
0-0
6
CONTINUOUS
62
  7
10
1071.219
20
637.837
30
0.0
11
1070.634
21
638.124
31
0.0
0
LINE
5
22b1
8
0-0
6
CONTINUOUS
62
  7
10
1070.634
20
638.124
30
0.0
11
1069.927
21
638.424
31
0.0
0
LINE
5
22b2
8
0-0
6
CONTINUOUS
62
  7
10
1069.927
20
638.424
30
0.0
11
1069.112
21
638.724
31
0.0
0
LINE
5
22b3
8
0-0
6
CONTINUOUS
62
  7
10
1069.112
20
638.724
30
0.0
11
1068.200
21
639.016
31
0.0
0
LINE
5
22b4
8
0-0
6
CONTINUOUS
62
  7
10
1068.200
20
639.016
30
0.0
11
1067.200
21
639.293
31
0.0
0
LINE
5
22b5
8
0-0
6
CONTINUOUS
62
  7
10
1067.200
20
639.293
30
0.0
11
1066.117
21
639.554
31
0.0
0
LINE
5
22b6
8
0-0
6
CONTINUOUS
62
  7
10
1066.117
20
639.554
30
0.0
11
1064.959
21
639.796
31
0.0
0
LINE
5
22b7
8
0-0
6
CONTINUOUS
62
  7
10
1064.959
20
639.796
30
0.0
11
1063.726
21
640.018
31
0.0
0
LINE
5
22b8
8
0-0
6
CONTINUOUS
62
  7
10
1063.726
20
640.018
30
0.0
11
1062.409
21
640.222
31
0.0
0
LINE
5
22b9
8
0-0
6
CONTINUOUS
62
  7
10
1062.409
20
640.222
30
0.0
11
1061.014
21
640.409
31
0.0
0
LINE
5
22ba
8
0-0
6
CONTINUOUS
62
  7
10
1061.014
20
640.409
30
0.0
11
1059.516
21
640.581
31
0.0
0
LINE
5
22bb
8
0-0
6
CONTINUOUS
62
  7
10
1059.516
20
640.581
30
0.0
11
1057.921
21
640.741
31
0.0
0
LINE
5
22bc
8
0-0
6
CONTINUOUS
62
  7
10
1057.921
20
640.741
30
0.0
11
1056.193
21
640.893
31
0.0
0
LINE
5
22bd
8
0-0
6
CONTINUOUS
62
  7
10
1056.193
20
640.893
30
0.0
11
1054.338
21
641.040
31
0.0
0
LINE
5
22be
8
0-0
6
CONTINUOUS
62
  7
10
1054.338
20
641.040
30
0.0
11
1052.320
21
641.185
31
0.0
0
LINE
5
22bf
8
0-0
6
CONTINUOUS
62
  7
10
1052.320
20
641.185
30
0.0
11
1050.128
21
641.334
31
0.0
0
LINE
5
22c0
8
0-0
6
CONTINUOUS
62
  7
10
1050.128
20
641.334
30
0.0
11
1047.771
21
641.488
31
0.0
0
LINE
5
22c1
8
0-0
6
CONTINUOUS
62
  7
10
1047.771
20
641.488
30
0.0
11
1045.115
21
641.659
31
0.0
0
LINE
5
22c2
8
0-0
6
CONTINUOUS
62
  7
10
1072.510
20
636.844
30
0.0
11
1072.441
21
636.959
31
0.0
0
LINE
5
22c3
8
0-0
6
CONTINUOUS
62
  7
10
1072.441
20
636.959
30
0.0
11
1072.397
21
637.017
31
0.0
0
LINE
5
22c4
8
0-0
6
CONTINUOUS
62
  7
10
1072.397
20
637.017
30
0.0
11
1072.340
21
637.081
31
0.0
0
LINE
5
22c5
8
0-0
6
CONTINUOUS
62
  7
10
1072.340
20
637.081
30
0.0
11
1072.223
21
637.190
31
0.0
0
LINE
5
22c6
8
0-0
6
CONTINUOUS
62
  7
10
1072.223
20
637.190
30
0.0
11
1072.010
21
637.356
31
0.0
0
LINE
5
22c7
8
0-0
6
CONTINUOUS
62
  7
10
1072.010
20
637.356
30
0.0
11
1071.678
21
637.576
31
0.0
0
LINE
5
22c8
8
0-0
6
CONTINUOUS
62
  7
10
1071.678
20
637.576
30
0.0
11
1071.219
21
637.837
31
0.0
0
LINE
5
22c9
8
0-0
6
CONTINUOUS
62
  7
10
1071.219
20
637.837
30
0.0
11
1070.634
21
638.124
31
0.0
0
LINE
5
22ca
8
0-0
6
CONTINUOUS
62
  7
10
1070.634
20
638.124
30
0.0
11
1069.927
21
638.424
31
0.0
0
LINE
5
22cb
8
0-0
6
CONTINUOUS
62
  7
10
1069.927
20
638.424
30
0.0
11
1069.112
21
638.724
31
0.0
0
LINE
5
22cc
8
0-0
6
CONTINUOUS
62
  7
10
1069.112
20
638.724
30
0.0
11
1068.200
21
639.016
31
0.0
0
LINE
5
22cd
8
0-0
6
CONTINUOUS
62
  7
10
1068.200
20
639.016
30
0.0
11
1067.200
21
639.293
31
0.0
0
LINE
5
22ce
8
0-0
6
CONTINUOUS
62
  7
10
1067.200
20
639.293
30
0.0
11
1066.117
21
639.554
31
0.0
0
LINE
5
22cf
8
0-0
6
CONTINUOUS
62
  7
10
1066.117
20
639.554
30
0.0
11
1064.959
21
639.796
31
0.0
0
LINE
5
22d0
8
0-0
6
CONTINUOUS
62
  7
10
1064.959
20
639.796
30
0.0
11
1063.726
21
640.018
31
0.0
0
LINE
5
22d1
8
0-0
6
CONTINUOUS
62
  7
10
1063.726
20
640.018
30
0.0
11
1062.409
21
640.222
31
0.0
0
LINE
5
22d2
8
0-0
6
CONTINUOUS
62
  7
10
1062.409
20
640.222
30
0.0
11
1061.014
21
640.409
31
0.0
0
LINE
5
22d3
8
0-0
6
CONTINUOUS
62
  7
10
1061.014
20
640.409
30
0.0
11
1059.516
21
640.581
31
0.0
0
LINE
5
22d4
8
0-0
6
CONTINUOUS
62
  7
10
1059.516
20
640.581
30
0.0
11
1057.921
21
640.741
31
0.0
0
LINE
5
22d5
8
0-0
6
CONTINUOUS
62
  7
10
1057.921
20
640.741
30
0.0
11
1056.193
21
640.893
31
0.0
0
LINE
5
22d6
8
0-0
6
CONTINUOUS
62
  7
10
1056.193
20
640.893
30
0.0
11
1054.338
21
641.040
31
0.0
0
LINE
5
22d7
8
0-0
6
CONTINUOUS
62
  7
10
1054.338
20
641.040
30
0.0
11
1052.320
21
641.185
31
0.0
0
LINE
5
22d8
8
0-0
6
CONTINUOUS
62
  7
10
1052.320
20
641.185
30
0.0
11
1050.128
21
641.334
31
0.0
0
LINE
5
22d9
8
0-0
6
CONTINUOUS
62
  7
10
1050.128
20
641.334
30
0.0
11
1047.771
21
641.488
31
0.0
0
LINE
5
22da
8
0-0
6
CONTINUOUS
62
  7
10
1047.771
20
641.488
30
0.0
11
1045.115
21
641.659
31
0.0
0
LINE
5
22db
8
0-0
6
CONTINUOUS
62
  7
10
1075.737
20
640.749
30
0.0
11
1075.466
21
641.000
31
0.0
0
LINE
5
22dc
8
0-0
6
CONTINUOUS
62
  7
10
1075.466
20
641.000
30
0.0
11
1074.937
21
641.414
31
0.0
0
LINE
5
22dd
8
0-0
6
CONTINUOUS
62
  7
10
1074.937
20
641.414
30
0.0
11
1074.300
21
641.837
31
0.0
0
LINE
5
22de
8
0-0
6
CONTINUOUS
62
  7
10
1074.300
20
641.837
30
0.0
11
1073.558
21
642.259
31
0.0
0
LINE
5
22df
8
0-0
6
CONTINUOUS
62
  7
10
1073.558
20
642.259
30
0.0
11
1072.711
21
642.674
31
0.0
0
LINE
5
22e0
8
0-0
6
CONTINUOUS
62
  7
10
1072.711
20
642.674
30
0.0
11
1071.768
21
643.074
31
0.0
0
LINE
5
22e1
8
0-0
6
CONTINUOUS
62
  7
10
1071.768
20
643.074
30
0.0
11
1070.737
21
643.454
31
0.0
0
LINE
5
22e2
8
0-0
6
CONTINUOUS
62
  7
10
1070.737
20
643.454
30
0.0
11
1069.632
21
643.807
31
0.0
0
LINE
5
22e3
8
0-0
6
CONTINUOUS
62
  7
10
1069.632
20
643.807
30
0.0
11
1068.455
21
644.134
31
0.0
0
LINE
5
22e4
8
0-0
6
CONTINUOUS
62
  7
10
1068.455
20
644.134
30
0.0
11
1067.214
21
644.433
31
0.0
0
LINE
5
22e5
8
0-0
6
CONTINUOUS
62
  7
10
1067.214
20
644.433
30
0.0
11
1065.913
21
644.705
31
0.0
0
LINE
5
22e6
8
0-0
6
CONTINUOUS
62
  7
10
1065.913
20
644.705
30
0.0
11
1064.552
21
644.950
31
0.0
0
LINE
5
22e7
8
0-0
6
CONTINUOUS
62
  7
10
1064.552
20
644.950
30
0.0
11
1063.125
21
645.171
31
0.0
0
LINE
5
22e8
8
0-0
6
CONTINUOUS
62
  7
10
1063.125
20
645.171
30
0.0
11
1061.631
21
645.371
31
0.0
0
LINE
5
22e9
8
0-0
6
CONTINUOUS
62
  7
10
1061.631
20
645.371
30
0.0
11
1060.052
21
645.553
31
0.0
0
LINE
5
22ea
8
0-0
6
CONTINUOUS
62
  7
10
1060.052
20
645.553
30
0.0
11
1058.388
21
645.719
31
0.0
0
LINE
5
22eb
8
0-0
6
CONTINUOUS
62
  7
10
1058.388
20
645.719
30
0.0
11
1056.607
21
645.876
31
0.0
0
LINE
5
22ec
8
0-0
6
CONTINUOUS
62
  7
10
1056.607
20
645.876
30
0.0
11
1054.714
21
646.026
31
0.0
0
LINE
5
22ed
8
0-0
6
CONTINUOUS
62
  7
10
1054.714
20
646.026
30
0.0
11
1052.675
21
646.173
31
0.0
0
LINE
5
22ee
8
0-0
6
CONTINUOUS
62
  7
10
1052.675
20
646.173
30
0.0
11
1050.457
21
646.323
31
0.0
0
LINE
5
22ef
8
0-0
6
CONTINUOUS
62
  7
10
1050.457
20
646.323
30
0.0
11
1048.098
21
646.477
31
0.0
0
LINE
5
22f0
8
0-0
6
CONTINUOUS
62
  7
10
1048.098
20
646.477
30
0.0
11
1045.434
21
646.648
31
0.0
0
LINE
5
22f1
8
ADD_LINE
6
HIDDEN
62
  3
10
1045.946
20
535.375
30
0.0
11
1045.946
21
267.568
31
0.0
0
LINE
5
22f2
8
ADD_LINE
6
HIDDEN
62
  3
10
1045.946
20
1151.351
30
0.0
11
1045.946
21
545.409
31
0.0
0
LINE
5
22f3
8
0-0
6
CONTINUOUS
62
  7
10
1045.946
20
537.703
30
0.0
11
1045.946
21
534.728
31
0.0
0
LINE
5
22f4
8
0-0
6
CONTINUOUS
62
  7
10
1100.825
20
623.566
30
0.0
11
1100.825
21
575.261
31
0.0
0
LINE
5
22f5
8
0-0
6
CONTINUOUS
62
  7
10
1100.825
20
623.566
30
0.0
11
1100.825
21
575.261
31
0.0
0
LINE
5
22f6
8
0-0
6
CONTINUOUS
62
  7
10
1100.825
20
623.566
30
0.0
11
1100.825
21
575.261
31
0.0
0
LINE
5
22f7
8
0-0
6
CONTINUOUS
62
  7
10
1072.828
20
560.703
30
0.0
11
1055.946
21
560.703
31
0.0
0
LINE
5
22f8
8
0-0
6
CONTINUOUS
62
  7
10
1057.340
20
560.392
30
0.0
11
1057.324
21
560.537
31
0.0
0
LINE
5
22f9
8
0-0
6
CONTINUOUS
62
  7
10
1057.324
20
560.537
30
0.0
11
1057.306
21
560.703
31
0.0
0
LINE
5
22fa
8
0-0
6
CONTINUOUS
62
  7
10
880.584
20
1033.784
30
0.0
11
1210.742
21
1033.784
31
0.0
0
LINE
5
22fb
8
0-0
6
CONTINUOUS
62
  7
10
880.584
20
966.784
30
0.0
11
880.584
21
1033.784
31
0.0
0
LINE
5
22fc
8
0-0
6
CONTINUOUS
62
  7
10
898.987
20
958.784
30
0.0
11
898.987
21
1033.784
31
0.0
0
LINE
5
22fd
8
0-0
6
CONTINUOUS
62
  7
10
880.584
20
966.784
30
0.0
11
898.987
21
958.784
31
0.0
0
LINE
5
22fe
8
0-0
6
CONTINUOUS
62
  7
10
938.446
20
958.784
30
0.0
11
938.446
21
1033.784
31
0.0
0
LINE
5
22ff
8
0-0
6
CONTINUOUS
62
  7
10
963.446
20
958.784
30
0.0
11
963.446
21
1033.784
31
0.0
0
LINE
5
2300
8
0-0
6
CONTINUOUS
62
  7
10
938.446
20
958.784
30
0.0
11
969.302
21
958.784
31
0.0
0
LINE
5
2301
8
0-0
6
CONTINUOUS
62
  7
10
1211.308
20
966.784
30
0.0
11
1211.308
21
1033.784
31
0.0
0
LINE
5
2302
8
0-0
6
CONTINUOUS
62
  7
10
1192.905
20
958.784
30
0.0
11
1192.905
21
1033.784
31
0.0
0
LINE
5
2303
8
0-0
6
CONTINUOUS
62
  7
10
1211.308
20
966.784
30
0.0
11
1192.905
21
958.784
31
0.0
0
LINE
5
2304
8
0-0
6
CONTINUOUS
62
  7
10
1153.446
20
958.784
30
0.0
11
1153.446
21
1033.784
31
0.0
0
LINE
5
2305
8
0-0
6
CONTINUOUS
62
  7
10
1128.446
20
958.784
30
0.0
11
1128.446
21
1033.784
31
0.0
0
LINE
5
2306
8
0-0
6
CONTINUOUS
62
  7
10
1153.446
20
958.784
30
0.0
11
1122.589
21
958.784
31
0.0
0
LINE
5
2307
8
0-0
6
CONTINUOUS
62
  7
10
938.446
20
958.784
30
0.0
11
1153.446
21
958.784
31
0.0
0
LINE
5
2308
8
0-0
6
CONTINUOUS
62
  7
10
1108.446
20
948.784
30
0.0
11
983.446
21
948.784
31
0.0
0
LINE
5
2309
8
0-0
6
CONTINUOUS
62
  7
10
1153.446
20
958.784
30
0.0
11
1122.589
21
958.784
31
0.0
0
LINE
5
230a
8
0-0
6
CONTINUOUS
62
  7
10
1579.216
20
524.776
30
0.0
11
1589.216
21
586.790
31
0.0
0
LINE
5
230b
8
0-0
6
CONTINUOUS
62
  7
10
1590.216
20
610.643
30
0.0
11
1590.216
21
702.703
31
0.0
0
LINE
5
230c
8
0-0
6
CONTINUOUS
62
  7
10
1589.216
20
586.790
30
0.0
11
1591.142
21
595.977
31
0.0
0
LINE
5
230d
8
0-0
6
CONTINUOUS
62
  7
10
1591.142
20
595.977
30
0.0
11
1594.216
21
610.643
31
0.0
0
LINE
5
230e
8
0-0
6
CONTINUOUS
62
  7
10
1590.216
20
702.703
30
0.0
11
1591.062
21
701.770
31
0.0
0
LINE
5
230f
8
0-0
6
CONTINUOUS
62
  7
10
1591.062
20
701.770
30
0.0
11
1591.860
21
700.796
31
0.0
0
LINE
5
2310
8
0-0
6
CONTINUOUS
62
  7
10
1591.860
20
700.796
30
0.0
11
1592.616
21
699.789
31
0.0
0
LINE
5
2311
8
0-0
6
CONTINUOUS
62
  7
10
1592.616
20
699.789
30
0.0
11
1593.332
21
698.754
31
0.0
0
LINE
5
2312
8
0-0
6
CONTINUOUS
62
  7
10
1593.332
20
698.754
30
0.0
11
1594.011
21
697.698
31
0.0
0
LINE
5
2313
8
0-0
6
CONTINUOUS
62
  7
10
1594.011
20
697.698
30
0.0
11
1594.656
21
696.624
31
0.0
0
LINE
5
2314
8
0-0
6
CONTINUOUS
62
  7
10
1594.656
20
696.624
30
0.0
11
1595.268
21
695.537
31
0.0
0
LINE
5
2315
8
0-0
6
CONTINUOUS
62
  7
10
1595.268
20
695.537
30
0.0
11
1595.849
21
694.439
31
0.0
0
LINE
5
2316
8
0-0
6
CONTINUOUS
62
  7
10
1595.849
20
694.439
30
0.0
11
1596.399
21
693.331
31
0.0
0
LINE
5
2317
8
0-0
6
CONTINUOUS
62
  7
10
1596.399
20
693.331
30
0.0
11
1596.919
21
692.214
31
0.0
0
LINE
5
2318
8
0-0
6
CONTINUOUS
62
  7
10
1596.919
20
692.214
30
0.0
11
1597.409
21
691.086
31
0.0
0
LINE
5
2319
8
0-0
6
CONTINUOUS
62
  7
10
1597.409
20
691.086
30
0.0
11
1597.871
21
689.947
31
0.0
0
LINE
5
231a
8
0-0
6
CONTINUOUS
62
  7
10
1597.871
20
689.947
30
0.0
11
1598.303
21
688.792
31
0.0
0
LINE
5
231b
8
0-0
6
CONTINUOUS
62
  7
10
1598.303
20
688.792
30
0.0
11
1598.707
21
687.618
31
0.0
0
LINE
5
231c
8
0-0
6
CONTINUOUS
62
  7
10
1598.707
20
687.618
30
0.0
11
1599.084
21
686.420
31
0.0
0
LINE
5
231d
8
0-0
6
CONTINUOUS
62
  7
10
1599.084
20
686.420
30
0.0
11
1599.433
21
685.191
31
0.0
0
LINE
5
231e
8
0-0
6
CONTINUOUS
62
  7
10
1599.433
20
685.191
30
0.0
11
1599.758
21
683.924
31
0.0
0
LINE
5
231f
8
0-0
6
CONTINUOUS
62
  7
10
1599.758
20
683.924
30
0.0
11
1600.058
21
682.610
31
0.0
0
LINE
5
2320
8
0-0
6
CONTINUOUS
62
  7
10
1600.058
20
682.610
30
0.0
11
1600.337
21
681.240
31
0.0
0
LINE
5
2321
8
0-0
6
CONTINUOUS
62
  7
10
1600.337
20
681.240
30
0.0
11
1600.598
21
679.803
31
0.0
0
LINE
5
2322
8
0-0
6
CONTINUOUS
62
  7
10
1600.598
20
679.803
30
0.0
11
1600.843
21
678.286
31
0.0
0
LINE
5
2323
8
0-0
6
CONTINUOUS
62
  7
10
1600.843
20
678.286
30
0.0
11
1601.078
21
676.676
31
0.0
0
LINE
5
2324
8
0-0
6
CONTINUOUS
62
  7
10
1601.078
20
676.676
30
0.0
11
1601.216
21
675.641
31
0.0
0
LINE
5
2325
8
0-0
6
CONTINUOUS
62
  7
10
1582.177
20
526.644
30
0.0
11
1579.216
21
524.776
31
0.0
0
LINE
5
2326
8
0-0
6
CONTINUOUS
62
  7
10
1516.216
20
524.776
30
0.0
11
1579.216
21
524.776
31
0.0
0
LINE
5
2327
8
0-0
6
CONTINUOUS
62
  7
10
1516.216
20
586.790
30
0.0
11
1589.216
21
586.790
31
0.0
0
LINE
5
2328
8
0-0
6
CONTINUOUS
62
  7
10
1606.216
20
601.393
30
0.0
11
1582.177
21
526.644
31
0.0
0
LINE
5
2329
8
0-0
6
CONTINUOUS
62
  7
10
1594.216
20
610.643
30
0.0
11
1606.216
21
601.393
31
0.0
0
LINE
5
232a
8
0-0
6
CONTINUOUS
62
  7
10
1589.216
20
586.790
30
0.0
11
1599.405
21
580.213
31
0.0
0
LINE
5
232b
8
0-0
6
CONTINUOUS
62
  7
10
1601.020
20
645.963
30
0.0
11
1601.042
21
646.580
31
0.0
0
LINE
5
232c
8
0-0
6
CONTINUOUS
62
  7
10
1601.042
20
646.580
30
0.0
11
1601.062
21
647.570
31
0.0
0
LINE
5
232d
8
0-0
6
CONTINUOUS
62
  7
10
1601.062
20
647.570
30
0.0
11
1601.080
21
648.858
31
0.0
0
LINE
5
232e
8
0-0
6
CONTINUOUS
62
  7
10
1601.080
20
648.858
30
0.0
11
1601.096
21
650.376
31
0.0
0
LINE
5
232f
8
0-0
6
CONTINUOUS
62
  7
10
1601.096
20
650.376
30
0.0
11
1601.111
21
652.064
31
0.0
0
LINE
5
2330
8
0-0
6
CONTINUOUS
62
  7
10
1601.111
20
652.064
30
0.0
11
1601.124
21
653.867
31
0.0
0
LINE
5
2331
8
0-0
6
CONTINUOUS
62
  7
10
1601.124
20
653.867
30
0.0
11
1601.136
21
655.739
31
0.0
0
LINE
5
2332
8
0-0
6
CONTINUOUS
62
  7
10
1601.136
20
655.739
30
0.0
11
1601.147
21
657.638
31
0.0
0
LINE
5
2333
8
0-0
6
CONTINUOUS
62
  7
10
1601.147
20
657.638
30
0.0
11
1601.158
21
659.532
31
0.0
0
LINE
5
2334
8
0-0
6
CONTINUOUS
62
  7
10
1601.158
20
659.532
30
0.0
11
1601.168
21
661.394
31
0.0
0
LINE
5
2335
8
0-0
6
CONTINUOUS
62
  7
10
1601.168
20
661.394
30
0.0
11
1601.177
21
663.203
31
0.0
0
LINE
5
2336
8
0-0
6
CONTINUOUS
62
  7
10
1601.177
20
663.203
30
0.0
11
1601.185
21
664.947
31
0.0
0
LINE
5
2337
8
0-0
6
CONTINUOUS
62
  7
10
1601.185
20
664.947
30
0.0
11
1601.193
21
666.619
31
0.0
0
LINE
5
2338
8
0-0
6
CONTINUOUS
62
  7
10
1601.193
20
666.619
30
0.0
11
1601.200
21
668.219
31
0.0
0
LINE
5
2339
8
0-0
6
CONTINUOUS
62
  7
10
1601.200
20
668.219
30
0.0
11
1601.206
21
669.755
31
0.0
0
LINE
5
233a
8
0-0
6
CONTINUOUS
62
  7
10
1601.206
20
669.755
30
0.0
11
1601.211
21
671.241
31
0.0
0
LINE
5
233b
8
0-0
6
CONTINUOUS
62
  7
10
1601.211
20
671.241
30
0.0
11
1601.214
21
672.698
31
0.0
0
LINE
5
233c
8
0-0
6
CONTINUOUS
62
  7
10
1601.214
20
672.698
30
0.0
11
1601.216
21
674.153
31
0.0
0
LINE
5
233d
8
0-0
6
CONTINUOUS
62
  7
10
1601.216
20
674.153
30
0.0
11
1601.216
21
675.641
31
0.0
0
LINE
5
233e
8
0-0
6
CONTINUOUS
62
  7
10
1590.216
20
662.703
30
0.0
11
1591.402
21
661.720
31
0.0
0
LINE
5
233f
8
0-0
6
CONTINUOUS
62
  7
10
1591.402
20
661.720
30
0.0
11
1592.481
21
660.764
31
0.0
0
LINE
5
2340
8
0-0
6
CONTINUOUS
62
  7
10
1592.481
20
660.764
30
0.0
11
1593.464
21
659.824
31
0.0
0
LINE
5
2341
8
0-0
6
CONTINUOUS
62
  7
10
1593.464
20
659.824
30
0.0
11
1594.360
21
658.890
31
0.0
0
LINE
5
2342
8
0-0
6
CONTINUOUS
62
  7
10
1594.360
20
658.890
30
0.0
11
1595.179
21
657.954
31
0.0
0
LINE
5
2343
8
0-0
6
CONTINUOUS
62
  7
10
1595.179
20
657.954
30
0.0
11
1595.929
21
657.007
31
0.0
0
LINE
5
2344
8
0-0
6
CONTINUOUS
62
  7
10
1595.929
20
657.007
30
0.0
11
1596.616
21
656.043
31
0.0
0
LINE
5
2345
8
0-0
6
CONTINUOUS
62
  7
10
1596.616
20
656.043
30
0.0
11
1597.249
21
655.056
31
0.0
0
LINE
5
2346
8
0-0
6
CONTINUOUS
62
  7
10
1597.249
20
655.056
30
0.0
11
1597.834
21
654.040
31
0.0
0
LINE
5
2347
8
0-0
6
CONTINUOUS
62
  7
10
1597.834
20
654.040
30
0.0
11
1598.377
21
652.993
31
0.0
0
LINE
5
2348
8
0-0
6
CONTINUOUS
62
  7
10
1598.377
20
652.993
30
0.0
11
1598.884
21
651.912
31
0.0
0
LINE
5
2349
8
0-0
6
CONTINUOUS
62
  7
10
1598.884
20
651.912
30
0.0
11
1599.359
21
650.794
31
0.0
0
LINE
5
234a
8
0-0
6
CONTINUOUS
62
  7
10
1599.359
20
650.794
30
0.0
11
1599.806
21
649.639
31
0.0
0
LINE
5
234b
8
0-0
6
CONTINUOUS
62
  7
10
1599.806
20
649.639
30
0.0
11
1600.230
21
648.448
31
0.0
0
LINE
5
234c
8
0-0
6
CONTINUOUS
62
  7
10
1600.230
20
648.448
30
0.0
11
1600.634
21
647.222
31
0.0
0
LINE
5
234d
8
0-0
6
CONTINUOUS
62
  7
10
1600.634
20
647.222
30
0.0
11
1601.020
21
645.963
31
0.0
0
LINE
5
234e
8
0-0
6
CONTINUOUS
62
  7
10
1516.216
20
662.703
30
0.0
11
1590.216
21
662.703
31
0.0
0
LINE
5
234f
8
0-0
6
CONTINUOUS
62
  7
10
1516.216
20
610.643
30
0.0
11
1594.216
21
610.643
31
0.0
0
LINE
5
2350
8
0-0
6
CONTINUOUS
62
  7
10
1601.020
20
645.963
30
0.0
11
1601.074
21
644.254
31
0.0
0
LINE
5
2351
8
0-0
6
CONTINUOUS
62
  7
10
1601.074
20
644.254
30
0.0
11
1601.086
21
642.539
31
0.0
0
LINE
5
2352
8
0-0
6
CONTINUOUS
62
  7
10
1601.086
20
642.539
30
0.0
11
1601.058
21
640.797
31
0.0
0
LINE
5
2353
8
0-0
6
CONTINUOUS
62
  7
10
1601.058
20
640.797
30
0.0
11
1600.996
21
639.012
31
0.0
0
LINE
5
2354
8
0-0
6
CONTINUOUS
62
  7
10
1600.996
20
639.012
30
0.0
11
1600.901
21
637.178
31
0.0
0
LINE
5
2355
8
0-0
6
CONTINUOUS
62
  7
10
1600.901
20
637.178
30
0.0
11
1600.779
21
635.292
31
0.0
0
LINE
5
2356
8
0-0
6
CONTINUOUS
62
  7
10
1600.779
20
635.292
30
0.0
11
1600.633
21
633.359
31
0.0
0
LINE
5
2357
8
0-0
6
CONTINUOUS
62
  7
10
1600.633
20
633.359
30
0.0
11
1600.467
21
631.385
31
0.0
0
LINE
5
2358
8
0-0
6
CONTINUOUS
62
  7
10
1600.467
20
631.385
30
0.0
11
1600.284
21
629.382
31
0.0
0
LINE
5
2359
8
0-0
6
CONTINUOUS
62
  7
10
1600.284
20
629.382
30
0.0
11
1600.090
21
627.366
31
0.0
0
LINE
5
235a
8
0-0
6
CONTINUOUS
62
  7
10
1600.090
20
627.366
30
0.0
11
1599.887
21
625.353
31
0.0
0
LINE
5
235b
8
0-0
6
CONTINUOUS
62
  7
10
1599.887
20
625.353
30
0.0
11
1599.679
21
623.362
31
0.0
0
LINE
5
235c
8
0-0
6
CONTINUOUS
62
  7
10
1599.679
20
623.362
30
0.0
11
1599.469
21
621.414
31
0.0
0
LINE
5
235d
8
0-0
6
CONTINUOUS
62
  7
10
1599.469
20
621.414
30
0.0
11
1599.259
21
619.527
31
0.0
0
LINE
5
235e
8
0-0
6
CONTINUOUS
62
  7
10
1599.259
20
619.527
30
0.0
11
1599.054
21
617.724
31
0.0
0
LINE
5
235f
8
0-0
6
CONTINUOUS
62
  7
10
1599.054
20
617.724
30
0.0
11
1598.854
21
616.022
31
0.0
0
LINE
5
2360
8
0-0
6
CONTINUOUS
62
  7
10
1598.854
20
616.022
30
0.0
11
1598.662
21
614.439
31
0.0
0
LINE
5
2361
8
0-0
6
CONTINUOUS
62
  7
10
1598.662
20
614.439
30
0.0
11
1598.478
21
612.992
31
0.0
0
LINE
5
2362
8
0-0
6
CONTINUOUS
62
  7
10
1598.478
20
612.992
30
0.0
11
1598.304
21
611.691
31
0.0
0
LINE
5
2363
8
0-0
6
CONTINUOUS
62
  7
10
1598.304
20
611.691
30
0.0
11
1598.140
21
610.545
31
0.0
0
LINE
5
2364
8
0-0
6
CONTINUOUS
62
  7
10
1598.140
20
610.545
30
0.0
11
1597.984
21
609.560
31
0.0
0
LINE
5
2365
8
0-0
6
CONTINUOUS
62
  7
10
1597.984
20
609.560
30
0.0
11
1597.837
21
608.733
31
0.0
0
LINE
5
2366
8
0-0
6
CONTINUOUS
62
  7
10
1597.837
20
608.733
30
0.0
11
1597.696
21
608.059
31
0.0
0
LINE
5
2367
8
0-0
6
CONTINUOUS
62
  7
10
1597.696
20
608.059
30
0.0
11
1597.676
21
607.977
31
0.0
0
LINE
5
2368
8
0-0
6
CONTINUOUS
62
  7
10
1605.099
20
586.790
30
0.0
11
1601.844
21
587.798
31
0.0
0
LINE
5
2369
8
0-0
6
CONTINUOUS
62
  7
10
1605.099
20
586.790
30
0.0
11
1605.099
21
556.716
31
0.0
0
LINE
5
236a
8
0-0
6
CONTINUOUS
62
  7
10
1605.099
20
556.716
30
0.0
11
1591.268
21
554.911
31
0.0
0
LINE
5
236b
8
0-0
6
CONTINUOUS
62
  7
10
1517.630
20
702.703
30
0.0
11
1590.216
21
702.703
31
0.0
0
LINE
5
236c
8
0-0
6
CONTINUOUS
62
  7
10
1516.216
20
701.288
30
0.0
11
1516.216
21
502.703
31
0.0
0
LINE
5
236d
8
0-0
6
CONTINUOUS
62
  7
10
1517.630
20
702.703
30
0.0
11
1516.216
21
701.288
31
0.0
0
LINE
5
236e
8
0-0
6
CONTINUOUS
62
  7
10
1577.802
20
502.703
30
0.0
11
1516.216
21
502.703
31
0.0
0
LINE
5
236f
8
0-0
6
CONTINUOUS
62
  7
10
1579.216
20
504.117
30
0.0
11
1579.216
21
524.776
31
0.0
0
LINE
5
2370
8
0-0
6
CONTINUOUS
62
  7
10
1577.802
20
502.703
30
0.0
11
1579.216
21
504.117
31
0.0
0
LINE
5
2371
8
0-0
6
CONTINUOUS
62
  7
10
1150.182
20
645.544
30
0.0
11
1151.418
21
610.047
31
0.0
0
LINE
5
2372
8
0-0
6
CONTINUOUS
62
  7
10
940.446
20
610.056
30
0.0
11
941.710
21
645.544
31
0.0
0
LINE
5
2373
8
0-0
6
CONTINUOUS
62
  7
10
935.094
20
559.001
30
0.0
11
934.296
21
559.265
31
0.0
0
LINE
5
2374
8
0-0
6
CONTINUOUS
62
  7
10
934.296
20
559.265
30
0.0
11
933.138
21
559.720
31
0.0
0
LINE
5
2375
8
0-0
6
CONTINUOUS
62
  7
10
933.138
20
559.720
30
0.0
11
932.059
21
560.218
31
0.0
0
LINE
5
2376
8
0-0
6
CONTINUOUS
62
  7
10
932.059
20
560.218
30
0.0
11
931.052
21
560.759
31
0.0
0
LINE
5
2377
8
0-0
6
CONTINUOUS
62
  7
10
931.052
20
560.759
30
0.0
11
930.110
21
561.340
31
0.0
0
LINE
5
2378
8
0-0
6
CONTINUOUS
62
  7
10
930.110
20
561.340
30
0.0
11
929.228
21
561.958
31
0.0
0
LINE
5
2379
8
0-0
6
CONTINUOUS
62
  7
10
929.228
20
561.958
30
0.0
11
928.402
21
562.609
31
0.0
0
LINE
5
237a
8
0-0
6
CONTINUOUS
62
  7
10
928.402
20
562.609
30
0.0
11
927.632
21
563.288
31
0.0
0
LINE
5
237b
8
0-0
6
CONTINUOUS
62
  7
10
927.632
20
563.288
30
0.0
11
926.916
21
563.991
31
0.0
0
LINE
5
237c
8
0-0
6
CONTINUOUS
62
  7
10
926.916
20
563.991
30
0.0
11
926.254
21
564.714
31
0.0
0
LINE
5
237d
8
0-0
6
CONTINUOUS
62
  7
10
926.254
20
564.714
30
0.0
11
925.647
21
565.452
31
0.0
0
LINE
5
237e
8
0-0
6
CONTINUOUS
62
  7
10
925.647
20
565.452
30
0.0
11
925.095
21
566.201
31
0.0
0
LINE
5
237f
8
0-0
6
CONTINUOUS
62
  7
10
925.095
20
566.201
30
0.0
11
924.599
21
566.957
31
0.0
0
LINE
5
2380
8
0-0
6
CONTINUOUS
62
  7
10
924.599
20
566.957
30
0.0
11
924.162
21
567.718
31
0.0
0
LINE
5
2381
8
0-0
6
CONTINUOUS
62
  7
10
924.162
20
567.718
30
0.0
11
923.785
21
568.479
31
0.0
0
LINE
5
2382
8
0-0
6
CONTINUOUS
62
  7
10
923.785
20
568.479
30
0.0
11
923.469
21
569.238
31
0.0
0
LINE
5
2383
8
0-0
6
CONTINUOUS
62
  7
10
923.469
20
569.238
30
0.0
11
923.217
21
569.993
31
0.0
0
LINE
5
2384
8
0-0
6
CONTINUOUS
62
  7
10
923.217
20
569.993
30
0.0
11
923.030
21
570.742
31
0.0
0
LINE
5
2385
8
0-0
6
CONTINUOUS
62
  7
10
923.030
20
570.742
30
0.0
11
922.909
21
571.481
31
0.0
0
LINE
5
2386
8
0-0
6
CONTINUOUS
62
  7
10
922.909
20
571.481
30
0.0
11
922.856
21
572.208
31
0.0
0
LINE
5
2387
8
0-0
6
CONTINUOUS
62
  7
10
922.856
20
572.208
30
0.0
11
922.871
21
572.922
31
0.0
0
LINE
5
2388
8
0-0
6
CONTINUOUS
62
  7
10
922.871
20
572.922
30
0.0
11
922.956
21
573.621
31
0.0
0
LINE
5
2389
8
0-0
6
CONTINUOUS
62
  7
10
922.956
20
573.621
30
0.0
11
923.111
21
574.302
31
0.0
0
LINE
5
238a
8
0-0
6
CONTINUOUS
62
  7
10
923.111
20
574.302
30
0.0
11
923.335
21
574.964
31
0.0
0
LINE
5
238b
8
0-0
6
CONTINUOUS
62
  7
10
923.335
20
574.964
30
0.0
11
923.628
21
575.603
31
0.0
0
LINE
5
238c
8
0-0
6
CONTINUOUS
62
  7
10
923.628
20
575.603
30
0.0
11
923.990
21
576.218
31
0.0
0
LINE
5
238d
8
0-0
6
CONTINUOUS
62
  7
10
923.990
20
576.218
30
0.0
11
924.418
21
576.807
31
0.0
0
LINE
5
238e
8
0-0
6
CONTINUOUS
62
  7
10
924.418
20
576.807
30
0.0
11
924.911
21
577.366
31
0.0
0
LINE
5
238f
8
0-0
6
CONTINUOUS
62
  7
10
924.911
20
577.366
30
0.0
11
925.467
21
577.895
31
0.0
0
LINE
5
2390
8
0-0
6
CONTINUOUS
62
  7
10
925.467
20
577.895
30
0.0
11
926.083
21
578.390
31
0.0
0
LINE
5
2391
8
0-0
6
CONTINUOUS
62
  7
10
926.083
20
578.390
30
0.0
11
926.755
21
578.848
31
0.0
0
LINE
5
2392
8
0-0
6
CONTINUOUS
62
  7
10
926.755
20
578.848
30
0.0
11
927.479
21
579.268
31
0.0
0
LINE
5
2393
8
0-0
6
CONTINUOUS
62
  7
10
927.479
20
579.268
30
0.0
11
928.252
21
579.648
31
0.0
0
LINE
5
2394
8
0-0
6
CONTINUOUS
62
  7
10
928.252
20
579.648
30
0.0
11
929.067
21
579.984
31
0.0
0
LINE
5
2395
8
0-0
6
CONTINUOUS
62
  7
10
929.067
20
579.984
30
0.0
11
929.920
21
580.276
31
0.0
0
LINE
5
2396
8
0-0
6
CONTINUOUS
62
  7
10
929.920
20
580.276
30
0.0
11
930.806
21
580.521
31
0.0
0
LINE
5
2397
8
0-0
6
CONTINUOUS
62
  7
10
930.806
20
580.521
30
0.0
11
931.717
21
580.718
31
0.0
0
LINE
5
2398
8
0-0
6
CONTINUOUS
62
  7
10
931.717
20
580.718
30
0.0
11
932.648
21
580.866
31
0.0
0
LINE
5
2399
8
0-0
6
CONTINUOUS
62
  7
10
932.648
20
580.866
30
0.0
11
933.591
21
580.964
31
0.0
0
LINE
5
239a
8
0-0
6
CONTINUOUS
62
  7
10
933.591
20
580.964
30
0.0
11
934.541
21
581.011
31
0.0
0
LINE
5
239b
8
0-0
6
CONTINUOUS
62
  7
10
934.541
20
581.011
30
0.0
11
935.491
21
581.008
31
0.0
0
LINE
5
239c
8
0-0
6
CONTINUOUS
62
  7
10
935.491
20
581.008
30
0.0
11
936.432
21
580.954
31
0.0
0
LINE
5
239d
8
0-0
6
CONTINUOUS
62
  7
10
936.432
20
580.954
30
0.0
11
937.359
21
580.851
31
0.0
0
LINE
5
239e
8
0-0
6
CONTINUOUS
62
  7
10
937.359
20
580.851
30
0.0
11
938.265
21
580.700
31
0.0
0
LINE
5
239f
8
0-0
6
CONTINUOUS
62
  7
10
938.265
20
580.700
30
0.0
11
939.142
21
580.503
31
0.0
0
LINE
5
23a0
8
0-0
6
CONTINUOUS
62
  7
10
939.142
20
580.503
30
0.0
11
939.984
21
580.262
31
0.0
0
LINE
5
23a1
8
0-0
6
CONTINUOUS
62
  7
10
939.984
20
580.262
30
0.0
11
940.786
21
579.980
31
0.0
0
LINE
5
23a2
8
0-0
6
CONTINUOUS
62
  7
10
940.786
20
579.980
30
0.0
11
941.541
21
579.661
31
0.0
0
LINE
5
23a3
8
0-0
6
CONTINUOUS
62
  7
10
941.541
20
579.661
30
0.0
11
942.244
21
579.309
31
0.0
0
LINE
5
23a4
8
0-0
6
CONTINUOUS
62
  7
10
942.244
20
579.309
30
0.0
11
942.890
21
578.929
31
0.0
0
LINE
5
23a5
8
0-0
6
CONTINUOUS
62
  7
10
942.890
20
578.929
30
0.0
11
943.474
21
578.527
31
0.0
0
LINE
5
23a6
8
0-0
6
CONTINUOUS
62
  7
10
943.474
20
578.527
30
0.0
11
943.994
21
578.108
31
0.0
0
LINE
5
23a7
8
0-0
6
CONTINUOUS
62
  7
10
943.994
20
578.108
30
0.0
11
944.445
21
577.681
31
0.0
0
LINE
5
23a8
8
0-0
6
CONTINUOUS
62
  7
10
944.445
20
577.681
30
0.0
11
944.826
21
577.255
31
0.0
0
LINE
5
23a9
8
0-0
6
CONTINUOUS
62
  7
10
944.826
20
577.255
30
0.0
11
945.135
21
576.839
31
0.0
0
LINE
5
23aa
8
0-0
6
CONTINUOUS
62
  7
10
945.135
20
576.839
30
0.0
11
945.372
21
576.445
31
0.0
0
LINE
5
23ab
8
0-0
6
CONTINUOUS
62
  7
10
945.372
20
576.445
30
0.0
11
945.504
21
576.158
31
0.0
0
LINE
5
23ac
8
0-0
6
CONTINUOUS
62
  7
10
1141.638
20
554.567
30
0.0
11
1143.835
21
556.025
31
0.0
0
LINE
5
23ad
8
0-0
6
CONTINUOUS
62
  7
10
1156.798
20
559.001
30
0.0
11
1157.596
21
559.265
31
0.0
0
LINE
5
23ae
8
0-0
6
CONTINUOUS
62
  7
10
1157.596
20
559.265
30
0.0
11
1158.754
21
559.720
31
0.0
0
LINE
5
23af
8
0-0
6
CONTINUOUS
62
  7
10
1158.754
20
559.720
30
0.0
11
1159.833
21
560.218
31
0.0
0
LINE
5
23b0
8
0-0
6
CONTINUOUS
62
  7
10
1159.833
20
560.218
30
0.0
11
1160.840
21
560.759
31
0.0
0
LINE
5
23b1
8
0-0
6
CONTINUOUS
62
  7
10
1160.840
20
560.759
30
0.0
11
1161.782
21
561.340
31
0.0
0
LINE
5
23b2
8
0-0
6
CONTINUOUS
62
  7
10
1161.782
20
561.340
30
0.0
11
1162.664
21
561.958
31
0.0
0
LINE
5
23b3
8
0-0
6
CONTINUOUS
62
  7
10
1162.664
20
561.958
30
0.0
11
1163.490
21
562.609
31
0.0
0
LINE
5
23b4
8
0-0
6
CONTINUOUS
62
  7
10
1163.490
20
562.609
30
0.0
11
1164.260
21
563.288
31
0.0
0
LINE
5
23b5
8
0-0
6
CONTINUOUS
62
  7
10
1164.260
20
563.288
30
0.0
11
1164.976
21
563.991
31
0.0
0
LINE
5
23b6
8
0-0
6
CONTINUOUS
62
  7
10
1164.976
20
563.991
30
0.0
11
1165.638
21
564.714
31
0.0
0
LINE
5
23b7
8
0-0
6
CONTINUOUS
62
  7
10
1165.638
20
564.714
30
0.0
11
1166.245
21
565.452
31
0.0
0
LINE
5
23b8
8
0-0
6
CONTINUOUS
62
  7
10
1166.245
20
565.452
30
0.0
11
1166.797
21
566.201
31
0.0
0
LINE
5
23b9
8
0-0
6
CONTINUOUS
62
  7
10
1166.797
20
566.201
30
0.0
11
1167.293
21
566.957
31
0.0
0
LINE
5
23ba
8
0-0
6
CONTINUOUS
62
  7
10
1167.293
20
566.957
30
0.0
11
1167.730
21
567.718
31
0.0
0
LINE
5
23bb
8
0-0
6
CONTINUOUS
62
  7
10
1167.730
20
567.718
30
0.0
11
1168.107
21
568.479
31
0.0
0
LINE
5
23bc
8
0-0
6
CONTINUOUS
62
  7
10
1168.107
20
568.479
30
0.0
11
1168.422
21
569.238
31
0.0
0
LINE
5
23bd
8
0-0
6
CONTINUOUS
62
  7
10
1168.422
20
569.238
30
0.0
11
1168.675
21
569.993
31
0.0
0
LINE
5
23be
8
0-0
6
CONTINUOUS
62
  7
10
1168.675
20
569.993
30
0.0
11
1168.862
21
570.742
31
0.0
0
LINE
5
23bf
8
0-0
6
CONTINUOUS
62
  7
10
1168.862
20
570.742
30
0.0
11
1168.983
21
571.481
31
0.0
0
LINE
5
23c0
8
0-0
6
CONTINUOUS
62
  7
10
1168.983
20
571.481
30
0.0
11
1169.036
21
572.208
31
0.0
0
LINE
5
23c1
8
0-0
6
CONTINUOUS
62
  7
10
1169.036
20
572.208
30
0.0
11
1169.021
21
572.922
31
0.0
0
LINE
5
23c2
8
0-0
6
CONTINUOUS
62
  7
10
1169.021
20
572.922
30
0.0
11
1168.936
21
573.621
31
0.0
0
LINE
5
23c3
8
0-0
6
CONTINUOUS
62
  7
10
1168.936
20
573.621
30
0.0
11
1168.781
21
574.302
31
0.0
0
LINE
5
23c4
8
0-0
6
CONTINUOUS
62
  7
10
1168.781
20
574.302
30
0.0
11
1168.557
21
574.964
31
0.0
0
LINE
5
23c5
8
0-0
6
CONTINUOUS
62
  7
10
1168.557
20
574.964
30
0.0
11
1168.264
21
575.603
31
0.0
0
LINE
5
23c6
8
0-0
6
CONTINUOUS
62
  7
10
1168.264
20
575.603
30
0.0
11
1167.902
21
576.218
31
0.0
0
LINE
5
23c7
8
0-0
6
CONTINUOUS
62
  7
10
1167.902
20
576.218
30
0.0
11
1167.474
21
576.807
31
0.0
0
LINE
5
23c8
8
0-0
6
CONTINUOUS
62
  7
10
1167.474
20
576.807
30
0.0
11
1166.981
21
577.366
31
0.0
0
LINE
5
23c9
8
0-0
6
CONTINUOUS
62
  7
10
1166.981
20
577.366
30
0.0
11
1166.425
21
577.895
31
0.0
0
LINE
5
23ca
8
0-0
6
CONTINUOUS
62
  7
10
1166.425
20
577.895
30
0.0
11
1165.809
21
578.390
31
0.0
0
LINE
5
23cb
8
0-0
6
CONTINUOUS
62
  7
10
1165.809
20
578.390
30
0.0
11
1165.137
21
578.848
31
0.0
0
LINE
5
23cc
8
0-0
6
CONTINUOUS
62
  7
10
1165.137
20
578.848
30
0.0
11
1164.412
21
579.268
31
0.0
0
LINE
5
23cd
8
0-0
6
CONTINUOUS
62
  7
10
1164.412
20
579.268
30
0.0
11
1163.640
21
579.648
31
0.0
0
LINE
5
23ce
8
0-0
6
CONTINUOUS
62
  7
10
1163.640
20
579.648
30
0.0
11
1162.825
21
579.984
31
0.0
0
LINE
5
23cf
8
0-0
6
CONTINUOUS
62
  7
10
1162.825
20
579.984
30
0.0
11
1161.972
21
580.276
31
0.0
0
LINE
5
23d0
8
0-0
6
CONTINUOUS
62
  7
10
1161.972
20
580.276
30
0.0
11
1161.086
21
580.521
31
0.0
0
LINE
5
23d1
8
0-0
6
CONTINUOUS
62
  7
10
1161.086
20
580.521
30
0.0
11
1160.175
21
580.718
31
0.0
0
LINE
5
23d2
8
0-0
6
CONTINUOUS
62
  7
10
1160.175
20
580.718
30
0.0
11
1159.244
21
580.866
31
0.0
0
LINE
5
23d3
8
0-0
6
CONTINUOUS
62
  7
10
1159.244
20
580.866
30
0.0
11
1158.301
21
580.964
31
0.0
0
LINE
5
23d4
8
0-0
6
CONTINUOUS
62
  7
10
1158.301
20
580.964
30
0.0
11
1157.351
21
581.011
31
0.0
0
LINE
5
23d5
8
0-0
6
CONTINUOUS
62
  7
10
1157.351
20
581.011
30
0.0
11
1156.401
21
581.008
31
0.0
0
LINE
5
23d6
8
0-0
6
CONTINUOUS
62
  7
10
1156.401
20
581.008
30
0.0
11
1155.460
21
580.954
31
0.0
0
LINE
5
23d7
8
0-0
6
CONTINUOUS
62
  7
10
1155.460
20
580.954
30
0.0
11
1154.533
21
580.851
31
0.0
0
LINE
5
23d8
8
0-0
6
CONTINUOUS
62
  7
10
1154.533
20
580.851
30
0.0
11
1153.627
21
580.700
31
0.0
0
LINE
5
23d9
8
0-0
6
CONTINUOUS
62
  7
10
1153.627
20
580.700
30
0.0
11
1152.750
21
580.503
31
0.0
0
LINE
5
23da
8
0-0
6
CONTINUOUS
62
  7
10
1152.750
20
580.503
30
0.0
11
1151.907
21
580.262
31
0.0
0
LINE
5
23db
8
0-0
6
CONTINUOUS
62
  7
10
1151.907
20
580.262
30
0.0
11
1151.106
21
579.980
31
0.0
0
LINE
5
23dc
8
0-0
6
CONTINUOUS
62
  7
10
1151.106
20
579.980
30
0.0
11
1150.351
21
579.661
31
0.0
0
LINE
5
23dd
8
0-0
6
CONTINUOUS
62
  7
10
1150.351
20
579.661
30
0.0
11
1149.648
21
579.309
31
0.0
0
LINE
5
23de
8
0-0
6
CONTINUOUS
62
  7
10
1149.648
20
579.309
30
0.0
11
1149.002
21
578.929
31
0.0
0
LINE
5
23df
8
0-0
6
CONTINUOUS
62
  7
10
1149.002
20
578.929
30
0.0
11
1148.418
21
578.527
31
0.0
0
LINE
5
23e0
8
0-0
6
CONTINUOUS
62
  7
10
1148.418
20
578.527
30
0.0
11
1147.898
21
578.108
31
0.0
0
LINE
5
23e1
8
0-0
6
CONTINUOUS
62
  7
10
1147.898
20
578.108
30
0.0
11
1147.447
21
577.681
31
0.0
0
LINE
5
23e2
8
0-0
6
CONTINUOUS
62
  7
10
1147.447
20
577.681
30
0.0
11
1147.066
21
577.255
31
0.0
0
LINE
5
23e3
8
0-0
6
CONTINUOUS
62
  7
10
1147.066
20
577.255
30
0.0
11
1146.757
21
576.839
31
0.0
0
LINE
5
23e4
8
0-0
6
CONTINUOUS
62
  7
10
1146.757
20
576.839
30
0.0
11
1146.520
21
576.445
31
0.0
0
LINE
5
23e5
8
0-0
6
CONTINUOUS
62
  7
10
1146.520
20
576.445
30
0.0
11
1146.388
21
576.158
31
0.0
0
LINE
5
23e6
8
0-0
6
CONTINUOUS
62
  7
10
693.243
20
502.703
30
0.0
11
693.243
21
702.703
31
0.0
0
LINE
5
23e7
8
0-0
6
CONTINUOUS
62
  7
10
835.135
20
502.703
30
0.0
11
693.243
21
502.703
31
0.0
0
LINE
5
23e8
8
0-0
6
CONTINUOUS
62
  7
10
835.135
20
702.703
30
0.0
11
693.243
21
702.703
31
0.0
0
LINE
5
23e9
8
ADD_LINE
6
HIDDEN
62
  3
10
1145.946
20
502.703
30
0.0
11
1654.054
21
502.703
31
0.0
0
ARC
5
23ea
8
0-0
6
CONTINUOUS
62
  7
10
959.631
20
643.868
30
0.0
40
18.000
50
99.053787
51
174.657684
0
ARC
5
23eb
8
0-0
6
CONTINUOUS
62
  7
10
1132.261
20
643.868
30
0.0
40
18.000
50
365.342316
51
440.946228
0
ARC
5
23ec
8
0-0
6
CONTINUOUS
62
  7
10
980.763
20
634.842
30
0.0
40
10.000
50
102.797943
51
174.657700
0
ARC
5
23ed
8
0-0
6
CONTINUOUS
62
  7
10
975.975
20
637.344
30
0.0
40
10.000
50
102.797684
51
174.657700
0
ARC
5
23ee
8
0-0
6
CONTINUOUS
62
  7
10
1004.854
20
623.885
30
0.0
40
13.791
50
85.458221
51
181.324493
0
ARC
5
23ef
8
0-0
6
CONTINUOUS
62
  7
10
1012.497
20
619.501
30
0.0
40
9.177
50
67.645981
51
145.695267
0
ARC
5
23f0
8
0-0
6
CONTINUOUS
62
  7
10
1025.360
20
629.474
30
0.0
40
9.490
50
129.045990
51
189.007965
0
ARC
5
23f1
8
0-0
6
CONTINUOUS
62
  7
10
1132.261
20
643.868
30
0.0
40
18.000
50
365.342316
51
440.946228
0
ARC
5
23f2
8
0-0
6
CONTINUOUS
62
  7
10
1111.129
20
634.842
30
0.0
40
10.000
50
365.342285
51
437.202057
0
ARC
5
23f3
8
0-0
6
CONTINUOUS
62
  7
10
1115.917
20
637.344
30
0.0
40
10.000
50
365.342285
51
437.202332
0
ARC
5
23f4
8
0-0
6
CONTINUOUS
62
  7
10
1087.038
20
623.885
30
0.0
40
13.791
50
358.675507
51
454.541779
0
ARC
5
23f5
8
0-0
6
CONTINUOUS
62
  7
10
1066.532
20
629.474
30
0.0
40
9.490
50
350.992035
51
410.954010
0
ARC
5
23f6
8
0-0
6
CONTINUOUS
62
  7
10
1015.577
20
517.115
30
0.0
40
15.380
50
290.430847
51
2.188873
0
ARC
5
23f7
8
0-0
6
CONTINUOUS
62
  7
10
1019.064
20
575.703
30
0.0
40
15.000
50
180.000000
51
270.000000
0
ARC
5
23f8
8
0-0
6
CONTINUOUS
62
  7
10
962.934
20
551.303
30
0.0
40
4.503
50
284.692017
51
306.113312
0
ARC
5
23f9
8
0-0
6
CONTINUOUS
62
  7
10
969.389
20
541.379
30
0.0
40
7.637
50
351.477783
51
8.726639
0
ARC
5
23fa
8
0-0
6
CONTINUOUS
62
  7
10
999.114
20
528.173
30
0.0
40
4.102
50
37.828827
51
56.830429
0
ARC
5
23fb
8
0-0
6
CONTINUOUS
62
  7
10
1076.315
20
517.115
30
0.0
40
15.380
50
537.811157
51
249.569138
0
ARC
5
23fc
8
0-0
6
CONTINUOUS
62
  7
10
1072.828
20
575.703
30
0.0
40
15.000
50
270.000000
51
360.000000
0
ARC
5
23fd
8
0-0
6
CONTINUOUS
62
  7
10
1128.958
20
551.303
30
0.0
40
4.503
50
233.886688
51
255.307999
0
ARC
5
23fe
8
0-0
6
CONTINUOUS
62
  7
10
1122.503
20
541.379
30
0.0
40
7.637
50
531.273376
51
188.522202
0
ARC
5
23ff
8
0-0
6
CONTINUOUS
62
  7
10
1092.778
20
528.173
30
0.0
40
4.102
50
483.169556
51
502.171173
0
ARC
5
2400
8
0-0
6
CONTINUOUS
62
  7
10
1016.080
20
563.086
30
0.0
40
15.670
50
280.975647
51
351.252563
0
ARC
5
2401
8
0-0
6
CONTINUOUS
62
  7
10
1075.812
20
563.086
30
0.0
40
15.670
50
188.747192
51
259.024353
0
ARC
5
2402
8
0-0
6
CONTINUOUS
62
  7
10
1111.129
20
634.842
30
0.0
40
10.000
50
365.342285
51
437.202057
0
ARC
5
2403
8
0-0
6
CONTINUOUS
62
  7
10
1115.917
20
637.344
30
0.0
40
10.000
50
365.342285
51
437.202332
0
ARC
5
2404
8
0-0
6
CONTINUOUS
62
  7
10
1019.064
20
575.703
30
0.0
40
20.000
50
180.000000
51
270.000000
0
ARC
5
2405
8
0-0
6
CONTINUOUS
62
  7
10
1025.360
20
629.474
30
0.0
40
14.490
50
129.045990
51
163.285507
0
ARC
5
2406
8
0-0
6
CONTINUOUS
62
  7
10
1012.497
20
619.501
30
0.0
40
14.177
50
94.104141
51
161.363525
0
ARC
5
2407
8
0-0
6
CONTINUOUS
62
  7
10
1087.038
20
623.885
30
0.0
40
13.791
50
358.675507
51
454.541779
0
ARC
5
2408
8
0-0
6
CONTINUOUS
62
  7
10
1079.395
20
619.501
30
0.0
40
9.177
50
394.304749
51
472.354004
0
ARC
5
2409
8
0-0
6
CONTINUOUS
62
  7
10
1066.532
20
629.474
30
0.0
40
9.490
50
350.992035
51
410.954010
0
ARC
5
240a
8
0-0
6
CONTINUOUS
62
  7
10
1072.828
20
575.703
30
0.0
40
15.000
50
270.000000
51
360.000000
0
ARC
5
240b
8
0-0
6
CONTINUOUS
62
  7
10
1072.828
20
575.703
30
0.0
40
20.000
50
270.000000
51
360.000000
0
ARC
5
240c
8
0-0
6
CONTINUOUS
62
  7
10
1066.532
20
629.474
30
0.0
40
14.490
50
376.714478
51
410.954010
0
ARC
5
240d
8
0-0
6
CONTINUOUS
62
  7
10
1079.395
20
619.501
30
0.0
40
14.177
50
378.636475
51
445.895874
0
ARC
5
240e
8
0-0
6
CONTINUOUS
62
  7
10
1066.532
20
629.474
30
0.0
40
14.490
50
376.714478
51
410.954010
0
ARC
5
240f
8
0-0
6
CONTINUOUS
62
  7
10
1018.608
20
574.977
30
0.0
40
19.279
50
271.353394
51
312.236664
0
ARC
5
2410
8
0-0
6
CONTINUOUS
62
  7
10
1019.064
20
575.703
30
0.0
40
28.000
50
180.859283
51
270.000000
0
ARC
5
2411
8
0-0
6
CONTINUOUS
62
  7
10
1027.096
20
536.215
30
0.0
40
18.909
50
281.748474
51
355.488892
0
ARC
5
2412
8
0-0
6
CONTINUOUS
62
  7
10
1027.096
20
536.215
30
0.0
40
18.909
50
4.511002
51
4.511841
0
ARC
5
2413
8
0-0
6
CONTINUOUS
62
  7
10
1064.796
20
536.215
30
0.0
40
18.909
50
184.511002
51
258.251526
0
ARC
5
2414
8
0-0
6
CONTINUOUS
62
  7
10
1072.828
20
575.703
30
0.0
40
15.000
50
270.000000
51
360.000000
0
ARC
5
2415
8
0-0
6
CONTINUOUS
62
  7
10
1075.812
20
563.086
30
0.0
40
15.670
50
188.747421
51
259.024353
0
ARC
5
2416
8
0-0
6
CONTINUOUS
62
  7
10
1072.828
20
575.703
30
0.0
40
20.000
50
270.000000
51
360.000000
0
ARC
5
2417
8
0-0
6
CONTINUOUS
62
  7
10
1073.284
20
574.977
30
0.0
40
19.279
50
227.763336
51
268.646606
0
ARC
5
2418
8
0-0
6
CONTINUOUS
62
  7
10
1072.828
20
575.703
30
0.0
40
28.000
50
270.000000
51
359.140717
0
ARC
5
2419
8
0-0
6
CONTINUOUS
62
  7
10
989.751
20
986.393
30
0.0
40
38.134
50
226.386444
51
260.483765
0
ARC
5
241a
8
0-0
6
CONTINUOUS
62
  7
10
904.659
20
986.810
30
0.0
40
31.316
50
219.753494
51
270.254883
0
ARC
5
241b
8
0-0
6
CONTINUOUS
62
  7
10
918.717
20
1030.333
30
0.0
40
74.220
50
254.584198
51
285.415833
0
ARC
5
241c
8
0-0
6
CONTINUOUS
62
  7
10
1102.141
20
986.393
30
0.0
40
38.134
50
279.516235
51
313.613556
0
ARC
5
241d
8
0-0
6
CONTINUOUS
62
  7
10
1187.233
20
986.810
30
0.0
40
31.316
50
269.745117
51
320.246521
0
ARC
5
241e
8
0-0
6
CONTINUOUS
62
  7
10
1173.175
20
1030.333
30
0.0
40
74.220
50
254.584152
51
285.415802
0
ARC
5
241f
8
0-0
6
CONTINUOUS
62
  7
10
981.659
20
1046.994
30
0.0
40
98.226
50
243.900314
51
271.041962
0
ARC
5
2420
8
0-0
6
CONTINUOUS
62
  7
10
932.399
20
1011.031
30
0.0
40
62.017
50
237.401810
51
290.153503
0
ARC
5
2421
8
0-0
6
CONTINUOUS
62
  7
10
1102.141
20
986.393
30
0.0
40
38.134
50
279.516235
51
313.613556
0
ARC
5
2422
8
0-0
6
CONTINUOUS
62
  7
10
1110.233
20
1046.994
30
0.0
40
98.226
50
268.958038
51
296.099670
0
ARC
5
2423
8
0-0
6
CONTINUOUS
62
  7
10
1159.493
20
1011.031
30
0.0
40
62.017
50
249.846481
51
302.598206
0
ARC
5
2424
8
0-0
6
CONTINUOUS
62
  7
10
1504.444
20
571.753
30
0.0
40
101.772
50
351.503540
51
8.496445
0
CIRCLE
5
2425
8
ADD_LINE
6
HIDDEN
62
  3
10
1045.946
20
502.703
30
0.0
40
3.000
0
TEXT
5
2426
100
AcDbEntity
8
0-0
62
7
100
AcDbText
10
690.743
20
593.328
30
0.0
40
9.750
41
0.800
50
90.000
1
200
100
AcDbText
0
POINT
5
2427
8
0-0
62
  7
10
693.243
20
502.703
30
0.0
0
POINT
5
2428
8
0-0
62
  7
10
693.243
20
702.703
30
0.0
0
ENDSEC
0
EOF
