0
SECTION
2
HEADER
  9
$EXTMIN
10
0
20
0
30
0
  9
$EXTMAX
10
1379.192
20
1304.622
30
0
  9
$LTSCALE
40
5.000
  9
$DIMSCALE
40
5.000
  9
$PDMODE
70
0
  9
$PDSIZE
40
40
0
ENDSEC
0
SECTION
2
TABLES
0
TABLE
2
LTYPE
70
9
0
LTYPE
5
1f4
2
CONTINUOUS
70
0
3
実線
72
65
73
0
40
0.0
0
LTYPE
5
1f5
2
DOT
70
0
3
--  --  --  --  --  --  --  --     
72
65
73
2
40
5.000
49
1.000
49
-4.000
0
LTYPE
5
1f6
2
DASHED
70
0
3
----    ----    ----    ----    
72
65
73
2
40
5.000
49
2.000
49
-3.000
0
LTYPE
5
1f7
2
DASHED2
70
0
3
------  ------  ------  ------ 
72
65
73
2
40
10.000
49
4.000
49
-6.000
0
LTYPE
5
1f8
2
CENTER
70
0
3
----- - ----- - ----- - ----- - 
72
65
73
4
40
9.000
49
6.000
49
-1.000
49
1.000
49
-1.000
0
LTYPE
5
1f9
2
CENTER2
70
0
3
----------  --  ----------  -- 
72
65
73
4
40
18.000
49
12.000
49
-2.000
49
2.000
49
-2.000
0
LTYPE
5
1fa
2
PHANTOM
70
0
3
--- - - --- - - --- - - --- - -
72
65
73
6
40
10.000
49
5.000
49
-1.000
49
1.000
49
-1.000
49
1.000
49
-1.000
0
LTYPE
5
1fb
2
PHANTOM2
70
0
3
--------  -  -  --------  -  -
72
65
73
6
40
16.000
49
6.000
49
-2.000
49
2.000
49
-2.000
49
2.000
49
-2.000
0
LTYPE
5
1fc
2
HIDDEN
70
0
3
-   -   -   -   -   -   -   -   
72
65
73
2
40
2.500
49
0.500
49
-2.000
0
ENDTAB
0
TABLE
2
STYLE
70
1
0
STYLE
5
1fd
100
AcDbSymbolTableRecord
100
AcDbTextStyleTableRecord
2
STANDARD
70
0
40
0.0
41
1.0
50
0.0
71
0
42
0.0
3
txt.shx
4
extfont.shx
0
STYLE
5
1fe
100
AcDbSymbolTableRecord
100
AcDbTextStyleTableRecord
2
TATEGAKI
70
4
40
0.0
41
1.0
50
0.0
71
0
42
0.0
3
txt.shx
4
extfont.shx
0
STYLE
5
1ff
100
AcDbSymbolTableRecord
100
AcDbTextStyleTableRecord
2
MT
70
0
40
0.0
41
1.0
50
0.0
71
0
42
0.0
3
MS Mincho
4

0
STYLE
5
200
100
AcDbSymbolTableRecord
100
AcDbTextStyleTableRecord
2
TMT
70
4
40
0.0
41
1.0
50
0.0
71
0
42
0.0
3
@MS Mincho
4

0
ENDTAB
0
TABLE
2
LAYER
5
10f6
100
AcDbSymbolTable
70
10
0
LAYER
5
10f7
100
AcDbSymbolTableRecord
100
AcDbLayerTableRecord
2
0
70
64
62
  7
  6
CONTINUOUS
0
LAYER
5
10f8
100
AcDbSymbolTableRecord
100
AcDbLayerTableRecord
2
0-0
70
64
62
  7
  6
CONTINUOUS
0
LAYER
5
10f9
100
AcDbSymbolTableRecord
100
AcDbLayerTableRecord
2
0-1
70
64
62
  7
  6
CONTINUOUS
0
LAYER
5
10fa
100
AcDbSymbolTableRecord
100
AcDbLayerTableRecord
2
0-2
70
64
62
  7
  6
CONTINUOUS
0
LAYER
5
10fb
100
AcDbSymbolTableRecord
100
AcDbLayerTableRecord
2
ADD_LINE
70
64
62
  -7
  6
CONTINUOUS
0
ENDTAB
0
ENDSEC
0
SECTION
2
ENTITIES
0
LINE
5
10fc
8
ADD_LINE
6
HIDDEN
62
  3
10
912.162
20
1244.595
30
0.0
11
912.162
21
595.946
31
0.0
0
LINE
5
10fd
8
0-0
6
CONTINUOUS
62
  7
10
784.662
20
1110.811
30
0.0
11
1039.662
21
1110.811
31
0.0
0
LINE
5
10fe
8
0-0
6
CONTINUOUS
62
  7
10
1022.162
20
815.811
30
0.0
11
1039.662
21
1110.811
31
0.0
0
LINE
5
10ff
8
0-0
6
CONTINUOUS
62
  7
10
822.162
20
815.811
30
0.0
11
822.162
21
800.811
31
0.0
0
LINE
5
1100
8
0-0
6
CONTINUOUS
62
  7
10
822.162
20
800.811
30
0.0
11
1002.162
21
800.811
31
0.0
0
LINE
5
1101
8
0-0
6
CONTINUOUS
62
  7
10
1002.162
20
815.811
30
0.0
11
1002.162
21
800.811
31
0.0
0
LINE
5
1102
8
0-0
6
CONTINUOUS
62
  7
10
793.269
20
1100.811
30
0.0
11
1031.055
21
1100.811
31
0.0
0
LINE
5
1103
8
0-0
6
CONTINUOUS
62
  7
10
793.269
20
1100.811
30
0.0
11
806.914
21
870.811
31
0.0
0
LINE
5
1104
8
0-0
6
CONTINUOUS
62
  7
10
806.914
20
870.811
30
0.0
11
814.222
21
865.811
31
0.0
0
LINE
5
1105
8
0-0
6
CONTINUOUS
62
  7
10
1017.411
20
870.811
30
0.0
11
1010.102
21
865.811
31
0.0
0
LINE
5
1106
8
0-0
6
CONTINUOUS
62
  7
10
798.899
20
870.811
30
0.0
11
806.914
21
870.811
31
0.0
0
LINE
5
1107
8
0-0
6
CONTINUOUS
62
  7
10
1017.411
20
870.811
30
0.0
11
1025.425
21
870.811
31
0.0
0
LINE
5
1108
8
0-0
6
CONTINUOUS
62
  7
10
799.196
20
865.811
30
0.0
11
814.222
21
865.811
31
0.0
0
LINE
5
1109
8
0-0
6
CONTINUOUS
62
  7
10
1010.102
20
865.811
30
0.0
11
1025.128
21
865.811
31
0.0
0
LINE
5
110a
8
0-0
6
CONTINUOUS
62
  7
10
1017.411
20
870.811
30
0.0
11
1031.055
21
1100.811
31
0.0
0
LINE
5
110b
8
0-0
6
CONTINUOUS
62
  7
10
802.162
20
815.811
30
0.0
11
822.162
21
815.811
31
0.0
0
LINE
5
110c
8
0-0
6
CONTINUOUS
62
  7
10
1002.162
20
815.811
30
0.0
11
1022.162
21
815.811
31
0.0
0
LINE
5
110d
8
0-0
6
CONTINUOUS
62
  7
10
793.269
20
1100.811
30
0.0
11
800.460
21
1097.811
31
0.0
0
LINE
5
110e
8
0-0
6
CONTINUOUS
62
  7
10
800.460
20
1097.811
30
0.0
11
817.189
21
815.811
31
0.0
0
LINE
5
110f
8
0-0
6
CONTINUOUS
62
  7
10
1023.865
20
1097.811
30
0.0
11
1031.055
21
1100.811
31
0.0
0
LINE
5
1110
8
0-0
6
CONTINUOUS
62
  7
10
1007.136
20
815.811
30
0.0
11
1023.865
21
1097.811
31
0.0
0
LINE
5
1111
8
0-0
6
CONTINUOUS
62
  7
10
876.662
20
1097.811
30
0.0
11
876.662
21
1090.811
31
0.0
0
LINE
5
1112
8
0-0
6
CONTINUOUS
62
  7
10
862.662
20
1097.811
30
0.0
11
862.662
21
1090.811
31
0.0
0
LINE
5
1113
8
0-0
6
CONTINUOUS
62
  7
10
860.662
20
1097.011
30
0.0
11
860.662
21
1090.811
31
0.0
0
LINE
5
1114
8
0-0
6
CONTINUOUS
62
  7
10
878.662
20
1097.011
30
0.0
11
878.662
21
1090.811
31
0.0
0
LINE
5
1115
8
0-0
6
CONTINUOUS
62
  7
10
800.460
20
1097.811
30
0.0
11
859.862
21
1097.811
31
0.0
0
LINE
5
1116
8
0-0
6
CONTINUOUS
62
  7
10
947.662
20
1097.811
30
0.0
11
947.662
21
1090.811
31
0.0
0
LINE
5
1117
8
0-0
6
CONTINUOUS
62
  7
10
961.662
20
1097.811
30
0.0
11
961.662
21
1090.811
31
0.0
0
LINE
5
1118
8
0-0
6
CONTINUOUS
62
  7
10
963.662
20
1097.011
30
0.0
11
963.662
21
1090.811
31
0.0
0
LINE
5
1119
8
0-0
6
CONTINUOUS
62
  7
10
945.662
20
1097.011
30
0.0
11
945.662
21
1090.811
31
0.0
0
LINE
5
111a
8
0-0
6
CONTINUOUS
62
  7
10
879.462
20
1097.811
30
0.0
11
944.862
21
1097.811
31
0.0
0
LINE
5
111b
8
0-0
6
CONTINUOUS
62
  7
10
964.462
20
1097.811
30
0.0
11
1023.865
21
1097.811
31
0.0
0
LINE
5
111c
8
0-0
6
CONTINUOUS
62
  7
10
784.662
20
1110.811
30
0.0
11
802.162
21
815.811
31
0.0
0
LINE
5
111d
8
0-0
6
CONTINUOUS
62
  7
10
839.662
20
1074.811
30
0.0
11
839.662
21
1070.811
31
0.0
0
LINE
5
111e
8
0-0
6
CONTINUOUS
62
  7
10
839.662
20
1074.811
30
0.0
11
883.662
21
1074.811
31
0.0
0
LINE
5
111f
8
0-0
6
CONTINUOUS
62
  7
10
839.662
20
1070.811
30
0.0
11
879.662
21
1070.811
31
0.0
0
LINE
5
1120
8
0-0
6
CONTINUOUS
62
  7
10
879.662
20
1070.811
30
0.0
11
883.662
21
1074.811
31
0.0
0
LINE
5
1121
8
0-0
6
CONTINUOUS
62
  7
10
889.662
20
1070.811
30
0.0
11
893.662
21
1074.811
31
0.0
0
LINE
5
1122
8
0-0
6
CONTINUOUS
62
  7
10
934.662
20
1070.811
30
0.0
11
930.662
21
1074.811
31
0.0
0
LINE
5
1123
8
0-0
6
CONTINUOUS
62
  7
10
893.662
20
1074.811
30
0.0
11
930.662
21
1074.811
31
0.0
0
LINE
5
1124
8
0-0
6
CONTINUOUS
62
  7
10
889.662
20
1070.811
30
0.0
11
934.662
21
1070.811
31
0.0
0
LINE
5
1125
8
0-0
6
CONTINUOUS
62
  7
10
984.662
20
1074.811
30
0.0
11
984.662
21
1070.811
31
0.0
0
LINE
5
1126
8
0-0
6
CONTINUOUS
62
  7
10
984.662
20
1074.811
30
0.0
11
940.662
21
1074.811
31
0.0
0
LINE
5
1127
8
0-0
6
CONTINUOUS
62
  7
10
984.662
20
1070.811
30
0.0
11
944.662
21
1070.811
31
0.0
0
LINE
5
1128
8
0-0
6
CONTINUOUS
62
  7
10
944.662
20
1070.811
30
0.0
11
940.662
21
1074.811
31
0.0
0
LINE
5
1129
8
ADD_LINE
6
HIDDEN
62
  3
10
912.162
20
595.946
30
0.0
11
912.162
21
275.676
31
0.0
0
LINE
5
112a
8
0-0
6
CONTINUOUS
62
  7
10
822.162
20
444.514
30
0.0
11
822.162
21
428.514
31
0.0
0
LINE
5
112b
8
0-0
6
CONTINUOUS
62
  7
10
1002.162
20
444.514
30
0.0
11
1002.162
21
428.514
31
0.0
0
LINE
5
112c
8
0-0
6
CONTINUOUS
62
  7
10
797.162
20
646.000
30
0.0
11
797.162
21
633.000
31
0.0
0
LINE
5
112d
8
0-0
6
CONTINUOUS
62
  7
10
797.162
20
646.000
30
0.0
11
806.162
21
646.000
31
0.0
0
LINE
5
112e
8
0-0
6
CONTINUOUS
62
  7
10
1018.162
20
646.000
30
0.0
11
1027.162
21
646.000
31
0.0
0
LINE
5
112f
8
0-0
6
CONTINUOUS
62
  7
10
1027.162
20
646.000
30
0.0
11
1027.162
21
633.000
31
0.0
0
LINE
5
1130
8
ADD_LINE
6
HIDDEN
62
  7
10
797.162
20
900.097
30
0.0
11
741.618
21
900.097
31
0.0
0
LINE
5
1131
8
0-0
6
CONTINUOUS
62
  7
10
1344.108
20
1097.811
30
0.0
11
1344.108
21
800.811
31
0.0
0
LINE
5
1132
8
0-0
6
CONTINUOUS
62
  7
10
1364.108
20
813.811
30
0.0
11
1364.108
21
800.811
31
0.0
0
LINE
5
1133
8
0-0
6
CONTINUOUS
62
  7
10
1341.108
20
1100.811
30
0.0
11
1344.108
21
1097.811
31
0.0
0
LINE
5
1134
8
0-0
6
CONTINUOUS
62
  7
10
1341.108
20
1110.811
30
0.0
11
1341.108
21
1100.811
31
0.0
0
LINE
5
1135
8
0-0
6
CONTINUOUS
62
  7
10
1364.108
20
813.811
30
0.0
11
1361.108
21
820.559
31
0.0
0
LINE
5
1136
8
0-0
6
CONTINUOUS
62
  7
10
1361.108
20
1110.811
30
0.0
11
1361.108
21
820.559
31
0.0
0
LINE
5
1137
8
0-0
6
CONTINUOUS
62
  7
10
1341.108
20
1110.811
30
0.0
11
1371.108
21
1110.811
31
0.0
0
LINE
5
1138
8
0-0
6
CONTINUOUS
62
  7
10
1361.108
20
1099.811
30
0.0
11
1371.108
21
1101.811
31
0.0
0
LINE
5
1139
8
0-0
6
CONTINUOUS
62
  7
10
1371.108
20
1110.811
30
0.0
11
1371.108
21
1101.811
31
0.0
0
LINE
5
113a
8
0-0
6
CONTINUOUS
62
  7
10
1314.108
20
870.811
30
0.0
11
1321.108
21
865.811
31
0.0
0
LINE
5
113b
8
0-0
6
CONTINUOUS
62
  7
10
1344.108
20
800.811
30
0.0
11
1364.108
21
800.811
31
0.0
0
LINE
5
113c
8
0-0
6
CONTINUOUS
62
  7
10
1344.108
20
800.811
30
0.0
11
1328.108
21
800.811
31
0.0
0
LINE
5
113d
8
0-0
6
CONTINUOUS
62
  7
10
1321.108
20
865.811
30
0.0
11
1321.108
21
815.811
31
0.0
0
LINE
5
113e
8
0-0
6
CONTINUOUS
62
  7
10
1328.108
20
815.811
30
0.0
11
1328.108
21
800.811
31
0.0
0
LINE
5
113f
8
0-0
6
CONTINUOUS
62
  7
10
1321.108
20
815.811
30
0.0
11
1328.108
21
815.811
31
0.0
0
LINE
5
1140
8
0-0
6
CONTINUOUS
62
  7
10
1308.108
20
1110.811
30
0.0
11
1308.368
21
1100.407
31
0.0
0
LINE
5
1141
8
0-0
6
CONTINUOUS
62
  7
10
1308.368
20
1100.407
30
0.0
11
1314.108
21
870.811
31
0.0
0
LINE
5
1142
8
0-0
6
CONTINUOUS
62
  7
10
1341.108
20
1100.811
30
0.0
11
1308.358
21
1100.811
31
0.0
0
LINE
5
1143
8
0-0
6
CONTINUOUS
62
  7
10
1341.108
20
1110.811
30
0.0
11
1308.108
21
1110.811
31
0.0
0
LINE
5
1144
8
0-0
6
CONTINUOUS
62
  7
10
1308.368
20
1100.407
30
0.0
11
1315.435
21
1097.811
31
0.0
0
LINE
5
1145
8
0-0
6
CONTINUOUS
62
  7
10
1344.108
20
1097.811
30
0.0
11
1315.435
21
1097.811
31
0.0
0
LINE
5
1146
8
0-0
6
CONTINUOUS
62
  7
10
1315.435
20
1097.811
30
0.0
11
1316.834
21
1041.856
31
0.0
0
LINE
5
1147
8
ADD_LINE
6
HIDDEN
62
  7
10
797.162
20
900.097
30
0.0
11
1093.091
21
900.097
31
0.0
0
LINE
5
1148
8
ADD_LINE
6
HIDDEN
62
  3
10
741.892
20
600.000
30
0.0
11
1093.091
21
600.000
31
0.0
0
LINE
5
1149
8
ADD_LINE
6
HIDDEN
62
  3
10
741.892
20
413.514
30
0.0
11
1093.091
21
413.514
31
0.0
0
LINE
5
114a
8
ADD_LINE
6
HIDDEN
62
  3
10
1361.108
20
1099.811
30
0.0
11
1368.715
21
1099.811
31
0.0
0
LINE
5
114b
8
ADD_LINE
6
HIDDEN
62
  3
10
1361.108
20
1099.811
30
0.0
11
1354.639
21
1099.811
31
0.0
0
LINE
5
114c
8
0-2
6
CONTINUOUS
62
  7
10
784.662
20
1302.122
30
0.0
11
1039.662
21
1302.122
31
0.0
0
LINE
5
114d
8
0-2
6
CONTINUOUS
62
  7
10
784.662
20
1155.777
30
0.0
11
784.662
21
1302.122
31
0.0
0
LINE
5
114e
8
0-2
6
CONTINUOUS
62
  7
10
1039.662
20
1155.777
30
0.0
11
1039.662
21
1302.122
31
0.0
0
LINE
5
114f
8
0-2
6
CONTINUOUS
62
  7
10
1341.108
20
1302.122
30
0.0
11
1361.108
21
1302.122
31
0.0
0
LINE
5
1150
8
0-2
6
CONTINUOUS
62
  7
10
1341.108
20
1155.777
30
0.0
11
1341.108
21
1302.122
31
0.0
0
LINE
5
1151
8
0-2
6
CONTINUOUS
62
  7
10
1361.108
20
1155.777
30
0.0
11
1361.108
21
1302.122
31
0.0
0
LINE
5
1152
8
0-2
6
CONTINUOUS
62
  7
10
802.162
20
729.730
30
0.0
11
1022.162
21
729.730
31
0.0
0
LINE
5
1153
8
0-2
6
CONTINUOUS
62
  7
10
802.162
20
770.270
30
0.0
11
802.162
21
729.730
31
0.0
0
LINE
5
1154
8
0-2
6
CONTINUOUS
62
  7
10
1022.162
20
770.270
30
0.0
11
1022.162
21
729.730
31
0.0
0
LINE
5
1155
8
0-2
6
CONTINUOUS
62
  7
10
1344.108
20
729.730
30
0.0
11
1364.108
21
729.730
31
0.0
0
LINE
5
1156
8
0-2
6
CONTINUOUS
62
  7
10
1344.108
20
770.270
30
0.0
11
1344.108
21
729.730
31
0.0
0
LINE
5
1157
8
0-2
6
CONTINUOUS
62
  7
10
1364.108
20
770.270
30
0.0
11
1364.108
21
729.730
31
0.0
0
LINE
5
1158
8
0-2
6
CONTINUOUS
62
  7
10
822.162
20
346.845
30
0.0
11
1002.162
21
346.845
31
0.0
0
LINE
5
1159
8
0-2
6
CONTINUOUS
62
  7
10
822.162
20
386.086
30
0.0
11
822.162
21
346.845
31
0.0
0
LINE
5
115a
8
0-2
6
CONTINUOUS
62
  7
10
1002.162
20
386.086
30
0.0
11
1002.162
21
346.845
31
0.0
0
LINE
5
115b
8
0-2
6
CONTINUOUS
62
  7
10
1228.378
20
1110.811
30
0.0
11
1228.378
21
800.811
31
0.0
0
LINE
5
115c
8
0-2
6
CONTINUOUS
62
  7
10
1094.595
20
1110.811
30
0.0
11
1228.378
21
1110.811
31
0.0
0
LINE
5
115d
8
0-2
6
CONTINUOUS
62
  7
10
1094.595
20
800.811
30
0.0
11
1228.378
21
800.811
31
0.0
0
LINE
5
115e
8
0-2
6
CONTINUOUS
62
  7
10
1228.378
20
444.514
30
0.0
11
1228.378
21
428.514
31
0.0
0
LINE
5
115f
8
0-2
6
CONTINUOUS
62
  7
10
1094.595
20
444.514
30
0.0
11
1228.378
21
444.514
31
0.0
0
LINE
5
1160
8
0-2
6
CONTINUOUS
62
  7
10
1094.595
20
428.514
30
0.0
11
1228.378
21
428.514
31
0.0
0
LINE
5
1161
8
0-2
6
CONTINUOUS
62
  7
10
1344.108
20
909.006
30
0.0
11
1361.108
21
909.006
31
0.0
0
LINE
5
1162
8
0-2
6
CONTINUOUS
62
  7
10
1344.108
20
926.129
30
0.0
11
1344.108
21
909.006
31
0.0
0
LINE
5
1163
8
0-2
6
CONTINUOUS
62
  7
10
1361.108
20
926.129
30
0.0
11
1361.108
21
909.006
31
0.0
0
CIRCLE
5
1164
8
0-0
6
CONTINUOUS
62
  7
10
869.662
20
1090.811
30
0.0
40
3.000
0
ARC
5
1165
8
0-0
6
CONTINUOUS
62
  7
10
869.662
20
1090.811
30
0.0
40
7.000
50
180.000000
51
0.000000
0
ARC
5
1166
8
0-0
6
CONTINUOUS
62
  7
10
859.362
20
1097.510
30
0.0
40
3.314
50
5.202560
51
84.798508
0
ARC
5
1167
8
0-0
6
CONTINUOUS
62
  7
10
880.010
20
1097.463
30
0.0
40
3.366
50
95.936264
51
174.061539
0
ARC
5
1168
8
0-0
6
CONTINUOUS
62
  7
10
869.662
20
1090.811
30
0.0
40
9.000
50
180.000000
51
0.000000
0
ARC
5
1169
8
0-0
6
CONTINUOUS
62
  7
10
859.800
20
1096.949
30
0.0
40
0.864
50
4.105789
51
85.898605
0
ARC
5
116a
8
0-0
6
CONTINUOUS
62
  7
10
879.524
20
1096.949
30
0.0
40
0.864
50
94.078598
51
175.917007
0
CIRCLE
5
116b
8
0-0
6
CONTINUOUS
62
  7
10
954.662
20
1090.811
30
0.0
40
3.000
0
ARC
5
116c
8
0-0
6
CONTINUOUS
62
  7
10
954.662
20
1090.811
30
0.0
40
7.000
50
540.000000
51
360.000000
0
ARC
5
116d
8
0-0
6
CONTINUOUS
62
  7
10
964.963
20
1097.510
30
0.0
40
3.314
50
455.201477
51
534.797424
0
ARC
5
116e
8
0-0
6
CONTINUOUS
62
  7
10
944.314
20
1097.463
30
0.0
40
3.366
50
365.938477
51
444.063721
0
ARC
5
116f
8
0-0
6
CONTINUOUS
62
  7
10
954.662
20
1090.811
30
0.0
40
9.000
50
540.000000
51
360.000000
0
ARC
5
1170
8
0-0
6
CONTINUOUS
62
  7
10
964.524
20
1096.949
30
0.0
40
0.864
50
454.101379
51
535.894226
0
ARC
5
1171
8
0-0
6
CONTINUOUS
62
  7
10
944.801
20
1096.949
30
0.0
40
0.864
50
364.083008
51
445.921387
0
ARC
5
1172
8
0-0
6
CONTINUOUS
62
  7
10
912.162
20
691.014
30
0.0
40
277.500
50
251.075363
51
288.924622
0
ARC
5
1173
8
0-0
6
CONTINUOUS
62
  7
10
912.162
20
807.196
30
0.0
40
373.683
50
256.063538
51
283.936462
0
ARC
5
1174
8
0-0
6
CONTINUOUS
62
  7
10
912.162
20
816.879
30
0.0
40
216.879
50
237.977646
51
302.022339
0
ARC
5
1175
8
0-0
6
CONTINUOUS
62
  7
10
912.162
20
850.749
30
0.0
40
233.749
50
244.942322
51
295.057678
0
ARC
5
1176
8
0-0
6
CONTINUOUS
62
  7
10
825.782
20
658.620
30
0.0
40
23.329
50
212.750397
51
237.250153
0
ARC
5
1177
8
0-0
6
CONTINUOUS
62
  7
10
998.542
20
658.620
30
0.0
40
23.329
50
302.749847
51
327.249603
0
CIRCLE
5
1178
8
ADD_LINE
6
HIDDEN
62
  3
10
912.162
20
413.514
30
0.0
40
3.000
0
CIRCLE
5
1179
8
ADD_LINE
6
HIDDEN
62
  3
10
912.162
20
600.000
30
0.0
40
3.000
0
CIRCLE
5
117a
8
ADD_LINE
6
HIDDEN
62
  3
10
1361.108
20
1099.811
30
0.0
40
3.000
0
TEXT
5
117b
100
AcDbEntity
8
0-2
62
7
100
AcDbText
10
902.787
20
1304.622
30
0.0
40
9.750
41
0.800
50
0.000
1
255
100
AcDbText
0
TEXT
5
117c
100
AcDbEntity
8
0-2
62
7
100
AcDbText
10
1344.858
20
1304.622
30
0.0
40
9.750
41
0.800
50
0.000
1
20
100
AcDbText
0
TEXT
5
117d
100
AcDbEntity
8
0-2
62
7
100
AcDbText
10
902.787
20
732.230
30
0.0
40
9.750
41
0.800
50
0.000
1
220
100
AcDbText
0
TEXT
5
117e
100
AcDbEntity
8
0-2
62
7
100
AcDbText
10
1347.858
20
732.230
30
0.0
40
9.750
41
0.800
50
0.000
1
20
100
AcDbText
0
TEXT
5
117f
100
AcDbEntity
8
0-2
62
7
100
AcDbText
10
902.787
20
349.345
30
0.0
40
9.750
41
0.800
50
0.000
1
180
100
AcDbText
0
TEXT
5
1180
100
AcDbEntity
8
0-2
62
7
100
AcDbText
10
1225.878
20
946.436
30
0.0
40
9.750
41
0.800
50
90.000
1
310
100
AcDbText
0
TEXT
5
1181
100
AcDbEntity
8
0-2
62
7
100
AcDbText
10
1225.878
20
430.264
30
0.0
40
9.750
41
0.800
50
90.000
1
16
100
AcDbText
0
TEXT
5
1182
100
AcDbEntity
8
0-2
62
7
100
AcDbText
10
1366.692
20
908.831
30
0.0
40
9.750
41
0.800
50
0.000
1
17
100
AcDbText
0
POINT
5
1183
8
0-2
62
  7
10
784.662
20
1302.122
30
0.0
0
POINT
5
1184
8
0-2
62
  7
10
1039.662
20
1302.122
30
0.0
0
POINT
5
1185
8
0-2
62
  7
10
1341.108
20
1302.122
30
0.0
0
POINT
5
1186
8
0-2
62
  7
10
1361.108
20
1302.122
30
0.0
0
POINT
5
1187
8
0-2
62
  7
10
802.162
20
729.730
30
0.0
0
POINT
5
1188
8
0-2
62
  7
10
1022.162
20
729.730
30
0.0
0
POINT
5
1189
8
0-2
62
  7
10
1344.108
20
729.730
30
0.0
0
POINT
5
118a
8
0-2
62
  7
10
1364.108
20
729.730
30
0.0
0
POINT
5
118b
8
0-2
62
  7
10
822.162
20
346.845
30
0.0
0
POINT
5
118c
8
0-2
62
  7
10
1002.162
20
346.845
30
0.0
0
POINT
5
118d
8
0-2
62
  7
10
1228.378
20
1110.811
30
0.0
0
POINT
5
118e
8
0-2
62
  7
10
1228.378
20
800.811
30
0.0
0
POINT
5
118f
8
0-2
62
  7
10
1228.378
20
444.514
30
0.0
0
POINT
5
1190
8
0-2
62
  7
10
1228.378
20
428.514
30
0.0
0
POINT
5
1191
8
0-2
62
  7
10
1344.108
20
909.006
30
0.0
0
POINT
5
1192
8
0-2
62
  7
10
1361.108
20
909.006
30
0.0
0
ENDSEC
0
EOF
