0
SECTION
2
HEADER
  9
$EXTMIN
10
0
20
0
30
0
  9
$EXTMAX
10
1441.324
20
1170.817
30
0
  9
$LTSCALE
40
5.000
  9
$DIMSCALE
40
5.000
  9
$PDMODE
70
0
  9
$PDSIZE
40
40
0
ENDSEC
0
SECTION
2
TABLES
0
TABLE
2
LTYPE
70
9
0
LTYPE
5
1f4
2
CONTINUOUS
70
0
3
実線
72
65
73
0
40
0.0
0
LTYPE
5
1f5
2
DOT
70
0
3
--  --  --  --  --  --  --  --     
72
65
73
2
40
5.000
49
1.000
49
-4.000
0
LTYPE
5
1f6
2
DASHED
70
0
3
----    ----    ----    ----    
72
65
73
2
40
5.000
49
2.000
49
-3.000
0
LTYPE
5
1f7
2
DASHED2
70
0
3
------  ------  ------  ------ 
72
65
73
2
40
10.000
49
4.000
49
-6.000
0
LTYPE
5
1f8
2
CENTER
70
0
3
----- - ----- - ----- - ----- - 
72
65
73
4
40
9.000
49
6.000
49
-1.000
49
1.000
49
-1.000
0
LTYPE
5
1f9
2
CENTER2
70
0
3
----------  --  ----------  -- 
72
65
73
4
40
18.000
49
12.000
49
-2.000
49
2.000
49
-2.000
0
LTYPE
5
1fa
2
PHANTOM
70
0
3
--- - - --- - - --- - - --- - -
72
65
73
6
40
10.000
49
5.000
49
-1.000
49
1.000
49
-1.000
49
1.000
49
-1.000
0
LTYPE
5
1fb
2
PHANTOM2
70
0
3
--------  -  -  --------  -  -
72
65
73
6
40
16.000
49
6.000
49
-2.000
49
2.000
49
-2.000
49
2.000
49
-2.000
0
LTYPE
5
1fc
2
HIDDEN
70
0
3
-   -   -   -   -   -   -   -   
72
65
73
2
40
2.500
49
0.500
49
-2.000
0
ENDTAB
0
TABLE
2
STYLE
70
1
0
STYLE
5
1fd
100
AcDbSymbolTableRecord
100
AcDbTextStyleTableRecord
2
STANDARD
70
0
40
0.0
41
1.0
50
0.0
71
0
42
0.0
3
txt.shx
4
extfont.shx
0
STYLE
5
1fe
100
AcDbSymbolTableRecord
100
AcDbTextStyleTableRecord
2
TATEGAKI
70
4
40
0.0
41
1.0
50
0.0
71
0
42
0.0
3
txt.shx
4
extfont.shx
0
STYLE
5
1ff
100
AcDbSymbolTableRecord
100
AcDbTextStyleTableRecord
2
MT
70
0
40
0.0
41
1.0
50
0.0
71
0
42
0.0
3
MS Mincho
4

0
STYLE
5
200
100
AcDbSymbolTableRecord
100
AcDbTextStyleTableRecord
2
TMT
70
4
40
0.0
41
1.0
50
0.0
71
0
42
0.0
3
@MS Mincho
4

0
ENDTAB
0
TABLE
2
LAYER
5
1330
100
AcDbSymbolTable
70
10
0
LAYER
5
1331
100
AcDbSymbolTableRecord
100
AcDbLayerTableRecord
2
0
70
64
62
  7
  6
CONTINUOUS
0
LAYER
5
1332
100
AcDbSymbolTableRecord
100
AcDbLayerTableRecord
2
0-0
70
64
62
  7
  6
CONTINUOUS
0
LAYER
5
1333
100
AcDbSymbolTableRecord
100
AcDbLayerTableRecord
2
0-1
70
64
62
  7
  6
CONTINUOUS
0
LAYER
5
1334
100
AcDbSymbolTableRecord
100
AcDbLayerTableRecord
2
0-2
70
64
62
  7
  6
CONTINUOUS
0
LAYER
5
1335
100
AcDbSymbolTableRecord
100
AcDbLayerTableRecord
2
ADD_LINE
70
64
62
  -7
  6
CONTINUOUS
0
ENDTAB
0
ENDSEC
0
SECTION
2
ENTITIES
0
LINE
5
1336
8
0-0
6
CONTINUOUS
62
  7
10
885.811
20
429.730
30
0.0
11
905.329
21
439.730
31
0.0
0
LINE
5
1337
8
0-0
6
CONTINUOUS
62
  7
10
1016.292
20
439.730
30
0.0
11
1035.811
21
429.730
31
0.0
0
LINE
5
1338
8
0-0
6
CONTINUOUS
62
  7
10
885.811
20
660.811
30
0.0
11
1035.811
21
660.811
31
0.0
0
LINE
5
1339
8
0-0
6
CONTINUOUS
62
  7
10
1001.011
20
960.811
30
0.0
11
1006.731
21
915.811
31
0.0
0
LINE
5
133a
8
0-0
6
CONTINUOUS
62
  7
10
1006.731
20
915.811
30
0.0
11
1014.731
21
915.811
31
0.0
0
LINE
5
133b
8
0-0
6
CONTINUOUS
62
  7
10
1035.811
20
660.811
30
0.0
11
1014.731
21
915.811
31
0.0
0
LINE
5
133c
8
0-0
6
CONTINUOUS
62
  7
10
925.111
20
960.811
30
0.0
11
1001.011
21
960.811
31
0.0
0
LINE
5
133d
8
0-0
6
CONTINUOUS
62
  7
10
907.800
20
926.811
30
0.0
11
885.811
21
660.811
31
0.0
0
LINE
5
133e
8
0-0
6
CONTINUOUS
62
  7
10
907.800
20
926.811
30
0.0
11
909.800
21
929.811
31
0.0
0
LINE
5
133f
8
0-0
6
CONTINUOUS
62
  7
10
909.800
20
929.811
30
0.0
11
925.111
21
960.811
31
0.0
0
LINE
5
1340
8
0-0
6
CONTINUOUS
62
  7
10
1374.324
20
960.811
30
0.0
11
1374.324
21
660.811
31
0.0
0
LINE
5
1341
8
0-0
6
CONTINUOUS
62
  7
10
1374.324
20
660.811
30
0.0
11
1441.324
21
660.811
31
0.0
0
LINE
5
1342
8
0-0
6
CONTINUOUS
62
  7
10
1400.374
20
915.811
30
0.0
11
1435.374
21
915.811
31
0.0
0
LINE
5
1343
8
0-0
6
CONTINUOUS
62
  7
10
1435.374
20
915.811
30
0.0
11
1441.324
21
660.811
31
0.0
0
LINE
5
1344
8
0-0
6
CONTINUOUS
62
  7
10
1374.324
20
960.811
30
0.0
11
1397.324
21
960.811
31
0.0
0
LINE
5
1345
8
0-0
6
CONTINUOUS
62
  7
10
1397.324
20
960.811
30
0.0
11
1400.374
21
915.811
31
0.0
0
LINE
5
1346
8
0-0
6
CONTINUOUS
62
  7
10
648.676
20
960.811
30
0.0
11
648.676
21
660.811
31
0.0
0
LINE
5
1347
8
0-0
6
CONTINUOUS
62
  7
10
648.676
20
660.811
30
0.0
11
581.676
21
660.811
31
0.0
0
LINE
5
1348
8
0-0
6
CONTINUOUS
62
  7
10
598.188
20
939.811
30
0.0
11
618.676
21
960.811
31
0.0
0
LINE
5
1349
8
0-0
6
CONTINUOUS
62
  7
10
648.676
20
960.811
30
0.0
11
618.676
21
960.811
31
0.0
0
LINE
5
134a
8
0-0
6
CONTINUOUS
62
  7
10
587.882
20
926.811
30
0.0
11
598.188
21
939.811
31
0.0
0
LINE
5
134b
8
0-0
6
CONTINUOUS
62
  7
10
587.882
20
926.811
30
0.0
11
581.676
21
660.811
31
0.0
0
LINE
5
134c
8
ADD_LINE
6
HIDDEN
62
  3
10
960.811
20
1066.216
30
0.0
11
960.811
21
409.459
31
0.0
0
LINE
5
134d
8
ADD_LINE
6
HIDDEN
62
  3
10
831.081
20
429.730
30
0.0
11
1086.487
21
429.730
31
0.0
0
LINE
5
134e
8
0-2
6
CONTINUOUS
62
  7
10
909.800
20
1131.081
30
0.0
11
1014.731
21
1131.081
31
0.0
0
LINE
5
134f
8
0-2
6
CONTINUOUS
62
  7
10
909.800
20
1013.514
30
0.0
11
909.800
21
1131.081
31
0.0
0
LINE
5
1350
8
0-2
6
CONTINUOUS
62
  7
10
1014.731
20
1013.514
30
0.0
11
1014.731
21
1131.081
31
0.0
0
LINE
5
1351
8
0-2
6
CONTINUOUS
62
  7
10
1374.324
20
1131.081
30
0.0
11
1435.374
21
1131.081
31
0.0
0
LINE
5
1352
8
0-2
6
CONTINUOUS
62
  7
10
1374.324
20
1013.514
30
0.0
11
1374.324
21
1131.081
31
0.0
0
LINE
5
1353
8
0-2
6
CONTINUOUS
62
  7
10
1435.374
20
1013.514
30
0.0
11
1435.374
21
1131.081
31
0.0
0
LINE
5
1354
8
0-2
6
CONTINUOUS
62
  7
10
648.676
20
1131.081
30
0.0
11
587.882
21
1131.081
31
0.0
0
LINE
5
1355
8
0-2
6
CONTINUOUS
62
  7
10
648.676
20
1013.514
30
0.0
11
648.676
21
1131.081
31
0.0
0
LINE
5
1356
8
0-2
6
CONTINUOUS
62
  7
10
587.882
20
1013.514
30
0.0
11
587.882
21
1131.081
31
0.0
0
LINE
5
1357
8
0-2
6
CONTINUOUS
62
  7
10
581.676
20
589.931
30
0.0
11
648.676
21
589.931
31
0.0
0
LINE
5
1358
8
0-2
6
CONTINUOUS
62
  7
10
581.676
20
637.829
30
0.0
11
581.676
21
589.931
31
0.0
0
LINE
5
1359
8
0-2
6
CONTINUOUS
62
  7
10
648.676
20
637.829
30
0.0
11
648.676
21
589.931
31
0.0
0
LINE
5
135a
8
0-2
6
CONTINUOUS
62
  7
10
885.811
20
589.931
30
0.0
11
1035.811
21
589.931
31
0.0
0
LINE
5
135b
8
0-2
6
CONTINUOUS
62
  7
10
885.811
20
637.829
30
0.0
11
885.811
21
589.931
31
0.0
0
LINE
5
135c
8
0-2
6
CONTINUOUS
62
  7
10
1035.811
20
637.829
30
0.0
11
1035.811
21
589.931
31
0.0
0
LINE
5
135d
8
0-2
6
CONTINUOUS
62
  7
10
1374.324
20
589.931
30
0.0
11
1441.324
21
589.931
31
0.0
0
LINE
5
135e
8
0-2
6
CONTINUOUS
62
  7
10
1374.324
20
637.829
30
0.0
11
1374.324
21
589.931
31
0.0
0
LINE
5
135f
8
0-2
6
CONTINUOUS
62
  7
10
1441.324
20
637.829
30
0.0
11
1441.324
21
589.931
31
0.0
0
LINE
5
1360
8
0-2
6
CONTINUOUS
62
  7
10
1171.622
20
960.811
30
0.0
11
1171.622
21
660.811
31
0.0
0
LINE
5
1361
8
0-2
6
CONTINUOUS
62
  7
10
1070.270
20
960.811
30
0.0
11
1171.622
21
960.811
31
0.0
0
LINE
5
1362
8
0-2
6
CONTINUOUS
62
  7
10
1070.270
20
660.811
30
0.0
11
1171.622
21
660.811
31
0.0
0
LINE
5
1363
8
0-2
6
CONTINUOUS
62
  7
10
1171.622
20
496.730
30
0.0
11
1171.622
21
429.730
31
0.0
0
LINE
5
1364
8
0-2
6
CONTINUOUS
62
  7
10
1070.270
20
496.730
30
0.0
11
1171.622
21
496.730
31
0.0
0
LINE
5
1365
8
0-2
6
CONTINUOUS
62
  7
10
1070.270
20
429.730
30
0.0
11
1171.622
21
429.730
31
0.0
0
LINE
5
1366
8
0-2
6
CONTINUOUS
62
  7
10
885.811
20
296.259
30
0.0
11
1035.811
21
296.259
31
0.0
0
LINE
5
1367
8
0-2
6
CONTINUOUS
62
  7
10
885.811
20
396.436
30
0.0
11
885.811
21
296.259
31
0.0
0
LINE
5
1368
8
0-2
6
CONTINUOUS
62
  7
10
1035.811
20
396.436
30
0.0
11
1035.811
21
296.259
31
0.0
0
LINE
5
1369
8
0-2
6
CONTINUOUS
62
  7
10
885.811
20
341.339
30
0.0
11
905.329
21
341.339
31
0.0
0
LINE
5
136a
8
0-2
6
CONTINUOUS
62
  7
10
885.811
20
396.436
30
0.0
11
885.811
21
341.339
31
0.0
0
LINE
5
136b
8
0-2
6
CONTINUOUS
62
  7
10
905.329
20
396.436
30
0.0
11
905.329
21
341.339
31
0.0
0
ARC
5
136c
8
0-0
6
CONTINUOUS
62
  7
10
960.811
20
421.252
30
0.0
40
75.478
50
6.449036
51
173.550964
0
ARC
5
136d
8
0-0
6
CONTINUOUS
62
  7
10
960.811
20
421.252
30
0.0
40
58.478
50
18.419861
51
161.580185
0
CIRCLE
5
136e
8
0-0
6
CONTINUOUS
62
  7
10
960.811
20
937.811
30
0.0
40
3.000
0
ARC
5
136f
8
0-0
6
CONTINUOUS
62
  7
10
533.042
20
1042.651
30
0.0
40
128.166
50
295.333527
51
320.316223
0
CIRCLE
5
1370
8
0-1
6
CONTINUOUS
62
  7
10
960.811
20
429.730
30
0.0
40
3.000
0
CIRCLE
5
1371
8
ADD_LINE
6
HIDDEN
62
  3
10
960.811
20
660.811
30
0.0
40
3.000
0
TEXT
5
1372
100
AcDbEntity
8
0-2
62
7
100
AcDbText
10
952.891
20
1133.581
30
0.0
40
9.750
41
0.800
50
0.000
1
105
100
AcDbText
0
TEXT
5
1373
100
AcDbEntity
8
0-2
62
7
100
AcDbText
10
1398.599
20
1133.581
30
0.0
40
9.750
41
0.800
50
0.000
1
61
100
AcDbText
0
TEXT
5
1374
100
AcDbEntity
8
0-2
62
7
100
AcDbText
10
612.029
20
1133.581
30
0.0
40
9.750
41
0.800
50
0.000
1
61
100
AcDbText
0
TEXT
5
1375
100
AcDbEntity
8
0-2
62
7
100
AcDbText
10
608.926
20
592.431
30
0.0
40
9.750
41
0.800
50
0.000
1
67
100
AcDbText
0
TEXT
5
1376
100
AcDbEntity
8
0-2
62
7
100
AcDbText
10
951.436
20
592.431
30
0.0
40
9.750
41
0.800
50
0.000
1
150
100
AcDbText
0
TEXT
5
1377
100
AcDbEntity
8
0-2
62
7
100
AcDbText
10
1401.574
20
592.431
30
0.0
40
9.750
41
0.800
50
0.000
1
67
100
AcDbText
0
TEXT
5
1378
100
AcDbEntity
8
0-2
62
7
100
AcDbText
10
1169.122
20
801.436
30
0.0
40
9.750
41
0.800
50
90.000
1
300
100
AcDbText
0
TEXT
5
1379
100
AcDbEntity
8
0-2
62
7
100
AcDbText
10
1169.122
20
456.980
30
0.0
40
9.750
41
0.800
50
90.000
1
67
100
AcDbText
0
TEXT
5
137a
100
AcDbEntity
8
0-2
62
7
100
AcDbText
10
951.436
20
298.759
30
0.0
40
9.750
41
0.800
50
0.000
1
150
100
AcDbText
0
TEXT
5
137b
100
AcDbEntity
8
0-2
62
7
100
AcDbText
10
889.320
20
343.839
30
0.0
40
9.750
41
0.800
50
0.000
1
20
100
AcDbText
0
POINT
5
137c
8
0-2
62
  7
10
909.800
20
1131.081
30
0.0
0
POINT
5
137d
8
0-2
62
  7
10
1014.731
20
1131.081
30
0.0
0
POINT
5
137e
8
0-2
62
  7
10
1374.324
20
1131.081
30
0.0
0
POINT
5
137f
8
0-2
62
  7
10
1435.374
20
1131.081
30
0.0
0
POINT
5
1380
8
0-2
62
  7
10
648.676
20
1131.081
30
0.0
0
POINT
5
1381
8
0-2
62
  7
10
587.882
20
1131.081
30
0.0
0
POINT
5
1382
8
0-2
62
  7
10
581.676
20
589.931
30
0.0
0
POINT
5
1383
8
0-2
62
  7
10
648.676
20
589.931
30
0.0
0
POINT
5
1384
8
0-2
62
  7
10
885.811
20
589.931
30
0.0
0
POINT
5
1385
8
0-2
62
  7
10
1035.811
20
589.931
30
0.0
0
POINT
5
1386
8
0-2
62
  7
10
1374.324
20
589.931
30
0.0
0
POINT
5
1387
8
0-2
62
  7
10
1441.324
20
589.931
30
0.0
0
POINT
5
1388
8
0-2
62
  7
10
1171.622
20
960.811
30
0.0
0
POINT
5
1389
8
0-2
62
  7
10
1171.622
20
660.811
30
0.0
0
POINT
5
138a
8
0-2
62
  7
10
1171.622
20
496.730
30
0.0
0
POINT
5
138b
8
0-2
62
  7
10
1171.622
20
429.730
30
0.0
0
POINT
5
138c
8
0-2
62
  7
10
885.811
20
296.259
30
0.0
0
POINT
5
138d
8
0-2
62
  7
10
1035.811
20
296.259
30
0.0
0
POINT
5
138e
8
0-2
62
  7
10
885.811
20
341.339
30
0.0
0
POINT
5
138f
8
0-2
62
  7
10
905.329
20
341.339
30
0.0
0
ENDSEC
0
EOF
