  0
SECTION
  2
HEADER
  9
$ACADVER
  1
AC1009
  9
$INSBASE
 10
0
 20
0
 30
0
  9
$EXTMIN
 10
0
 20
0
  9
$EXTMAX
 10
2100
 20
1485
  9
$LIMMIN
 10
0
 20
0
  9
$LIMMAX
 10
2100
 20
1485
  9
$LTSCALE
 40
5
  0
ENDSEC
  0
SECTION
  2
TABLES
  0
TABLE
  2
LTYPE
 70
     9
  0
LTYPE
  2
CONTINUOUS
 70
    64
  3
実線
 72
    65
 73
     0
 40
0.0
  0
LTYPE
  2
DASHED1
 70
    64
  3
--  --  --  --  --  --  --  --  
 72
    65
 73
     2
 40
2.5
 49
1.25
 49
-1.25
  0
LTYPE
  2
DASHED2
 70
    64
  3
----    ----    ----    ----    
 72
    65
 73
     2
 40
5.0
 49
2.5
 49
-2.5
  0
LTYPE
  2
DASHED3
 70
    64
  3
------  ------  ------  ------  
 72
    65
 73
     2
 40
5.0
 49
3.75
 49
-1.25
  0
LTYPE
  2
CENTER1
 70
    64
  3
----- - ----- - ----- - ----- - 
 72
    65
 73
     4
 40
10.0
 49
6.25
 49
-1.25
 49
1.25
 49
-1.25
  0
LTYPE
  2
CENTER2
 70
    64
  3
----------  --  ----------  --  
 72
    65
 73
     4
 40
20.0
 49
12.5
 49
-2.5
 49
2.5
 49
-2.5
  0
LTYPE
  2
PHANTOM1
 70
    64
  3
--- - - --- - - --- - - --- - - 
 72
    65
 73
     6
 40
10.0
 49
3.25
 49
-1.25
 49
1.25
 49
-1.25
 49
1.25
 49
-1.25
  0
LTYPE
  2
PHANTOM2
 70
    64
  3
--------  -  -  --------  -  -  
 72
    65
 73
     6
 40
20.0
 49
10.0
 49
-2.5
 49
1.25
 49
-2.5
 49
1.25
 49
-2.5
  0
LTYPE
  2
DOT
 70
    64
  3
-   -   -   -   -   -   -   -   
 72
    65
 73
     2
 40
2.5
 49
0.625
 49
-1.875
  0
LTYPE
  2
DUMMY
 70
    64
  3
ダミー
 72
    65
 73
     0
 40
0.0
  0
LTYPE
  2
RAND1
 70
    64
  3
ランダム線1
 72
    65
 73
     4
 40
10.0
 49
1.0
 49
-2.0
 49
3.0
 49
-4.0
  0
LTYPE
  2
RAND2
 70
    64
  3
ランダム線2
 72
    65
 73
     4
 40
14.0
 49
2.0
 49
-3.0
 49
4.0
 49
-5.0
  0
LTYPE
  2
RAND3
 70
    64
  3
ランダム線3
 72
    65
 73
     4
 40
18.0
 49
3.0
 49
-4.0
 49
5.0
 49
-6.0
  0
LTYPE
  2
RAND4
 70
    64
  3
ランダム線4
 72
    65
 73
     4
 40
22.0
 49
4.0
 49
-5.0
 49
6.0
 49
-7.0
  0
LTYPE
  2
RAND5
 70
    64
  3
ランダム線5
 72
    65
 73
     4
 40
26.0
 49
5.0
 49
-6.0
 49
7.0
 49
-8.0
  0
LTYPE
  2
LONG1
 70
    64
  3
----------  --  ----------  --  
 72
    65
 73
     4
 40
40.0
 49
32.5
 49
-2.5
 49
2.5
 49
-2.5
  0
LTYPE
  2
LONG2
 70
    64
  3
--------  -  -  --------  -  -  
 72
    65
 73
     6
 40
40.0
 49
30.0
 49
-2.5
 49
1.25
 49
-2.5
 49
1.25
 49
-2.5
  0
LTYPE
  2
LONG3
 70
    64
  3
+++++++++++++++..+++++++++++++++
 72
    65
 73
     2
 40
40.0
 49
37.5
 49
-2.5
  0
LTYPE
  2
LONG4
 70
    64
  3
+++++++++++++++..+++++++++++++++
 72
    65
 73
     2
 40
80.0
 49
75.0
 49
-5.0
  0
LTYPE
  2
LONG5
 70
    64
  3
----------  --  ----------  --  
 72
    65
 73
     4
 40
60.0
 49
37.5
 49
-7.5
 49
7.5
 49
-7.5
  0
LTYPE
  2
dashed
 70
   64
  3
-------   -------------   ------
 72
   65
 73
    2
 40
7.5
 49
6
 49
-1.5
  0
LTYPE
  2
dashed_spaced
 70
   64
  3
----        --------        ----
 72
   65
 73
    2
 40
12
 49
6
 49
-6
  0
LTYPE
  2
long_dashed_dotted
 70
   64
  3
------------- --- --------------
 72
   65
 73
    4
 40
15.25
 49
12
 49
-1.5
 49
0.25
 49
-1.5
  0
LTYPE
  2
long_dashed_double-dotted
 70
   64
  3
----------- --- --- ------------
 72
   65
 73
    6
 40
17
 49
12
 49
-1.5
 49
0.25
 49
-1.5
 49
0.25
 49
-1.5
  0
LTYPE
  2
long_dashed_triplicate-dotted
 70
   64
  3
--------- --- --- --- ----------
 72
   65
 73
    8
 40
18.75
 49
12
 49
-1.5
 49
0.25
 49
-1.5
 49
0.25
 49
-1.5
 49
0.25
 49
-1.5
  0
LTYPE
  2
dotted
 70
   64
  3
   -       -       -       -    
 72
   65
 73
    2
 40
1.75
 49
0.25
 49
-1.5
  0
LTYPE
  2
chain
 70
   64
  3
-------------- -- --------------
 72
   65
 73
    4
 40
18.5
 49
12
 49
-1.5
 49
3.5
 49
-1.5
  0
LTYPE
  2
chain_double_dash
 70
   64
  3
------------ -- -- -------------
 72
   65
 73
    6
 40
23.5
 49
12
 49
-1.5
 49
3.5
 49
-1.5
 49
3.5
 49
-1.5
  0
LTYPE
  2
dashed_dotted
 70
   64
  3
-----------     -     ----------
 72
   65
 73
    4
 40
9.25
 49
6
 49
-1.5
 49
0.25
 49
-1.5
  0
LTYPE
  2
double-dashed_dotted
 70
   64
  3
------   -----------   -   -----
 72
   65
 73
    6
 40
16.75
 49
6
 49
-1.5
 49
6
 49
-1.5
 49
0.25
 49
-1.5
  0
LTYPE
  2
dashed_double-dotted
 70
   64
  3
---------    -    -    ---------
 72
   65
 73
    6
 40
11
 49
6
 49
-1.5
 49
0.25
 49
-1.5
 49
0.25
 49
-1.5
  0
LTYPE
  2
double-dashed_double-dotted
 70
   64
  3
-----   ---------   -   -   ----
 72
   65
 73
    8
 40
18.5
 49
6
 49
-1.5
 49
6
 49
-1.5
 49
0.25
 49
-1.5
 49
0.25
 49
-1.5
  0
LTYPE
  2
dashed_triplicate-dotted
 70
   64
  3
-------    -    -    -    ------
 72
   65
 73
    8
 40
12.75
 49
6
 49
-1.5
 49
0.25
 49
-1.5
 49
0.25
 49
-1.5
 49
0.25
 49
-1.5
  0
LTYPE
  2
double-dashed_triplicate-dotted
 70
   64
  3
-----  ---------  -  -  -  -----
 72
   65
 73
   10
 40
20.25
 49
6
 49
-1.5
 49
6
 49
-1.5
 49
0.25
 49
-1.5
 49
0.25
 49
-1.5
 49
0.25
 49
-1.5
  0
LTYPE
  2
undefined
 70
   64
  3
--------------------------------
 72
   65
 73
    0
 40
0
  0
ENDTAB
  0
TABLE
  2
STYLE
  5
3
100
AcDbSymbolTable
 70
     1
  0
STYLE
  5
10
100
AcDbSymbolTableRecord
100
AcDbTextStyleTableRecord
  2
STANDARD
 70
     0
 40
0.0
 41
1.0
 50
0.0
 71
     0
 42
0.2
  3
txt
  4
bigfont.shx
  0
STYLE
  5
26
100
AcDbSymbolTableRecord
100
AcDbTextStyleTableRecord
  2
TATEGAKI
 70
    68
 40
0.0
 41
1.0
 50
0.0
 71
     0
 42
1.0
  3
txt
  4
bigfont.shx
  0
ENDTAB
  0
TABLE
  2
LAYER
 70
   10
  0
LAYER
  2
_0-0_
 70
   64
 62
    7
  6
CONTINUOUS
  0
LAYER
  2
_0-1_
 70
   64
 62
    7
  6
CONTINUOUS
  0
LAYER
  2
_0-2_
 70
   64
 62
    7
  6
CONTINUOUS
  0
LAYER
  2
_0-3_
 70
   64
 62
    7
  6
CONTINUOUS
  0
LAYER
  2
_0-4_下地
 70
   64
 62
    7
  6
CONTINUOUS
  0
LAYER
  2
_0-5_
 70
   64
 62
    7
  6
CONTINUOUS
  0
LAYER
  2
_0-6_
 70
   64
 62
    7
  6
CONTINUOUS
  0
LAYER
  2
_0-7_
 70
   64
 62
    7
  6
CONTINUOUS
  0
LAYER
  2
_1-0_
 70
   64
 62
    7
  6
CONTINUOUS
  0
LAYER
  2
ADD_LINE
 70
   64
 62
    7
  6
CONTINUOUS
  0
ENDTAB
  0
ENDSEC
  0
SECTION
  2
BLOCKS
  0
ENDSEC
  0
SECTION
  2
ENTITIES
  0
LINE
  8
_0-7_
  6
CONTINUOUS
 62
    7
 10
634.9545865445524
 20
732.33186876451657
 11
569.81778531461157
 21
732.33186876451657
  0
LINE
  8
_1-0_
  6
CONTINUOUS
 62
    5
 10
41.891871271906638
 20
1425
 11
2041.8919743718329
 21
1425
  0
LINE
  8
_1-0_
  6
CONTINUOUS
 62
    5
 10
1866.8921393317146
 20
75
 11
1866.8921393317146
 21
174.99998969000742
  0
LINE
  8
_1-0_
  6
CONTINUOUS
 62
    5
 10
1082.4324324324325
 20
174.99998969000742
 11
1082.4324324324325
 21
75
  0
LINE
  8
_1-0_
  6
CONTINUOUS
 62
    5
 10
693.24330510319896
 20
124.99999484500371
 11
1082.4324324324325
 21
124.99999484500371
  0
LINE
  8
_1-0_
  6
CONTINUOUS
 62
    5
 10
1990.5406642604521
 20
154.05405405405403
 11
1927.7025789827915
 21
91.216223948710677
  0
LINE
  8
_1-0_
  6
CONTINUOUS
 62
    5
 10
2041.8919743718329
 20
174.99998969000742
 11
41.891809411951044
 21
174.99998969000742
  0
LINE
  8
_0-5_
  6
CONTINUOUS
 62
    7
 10
678.48716942039698
 20
730.54758020349459
 11
698.48698796452709
 21
730.54758020349459
  0
LINE
  8
_0-5_
  6
CONTINUOUS
 62
    7
 10
822.43281184016053
 20
753.33190093169355
 11
822.43281184016053
 21
743.27136890308282
  0
LINE
  8
_0-5_
  6
CONTINUOUS
 62
    7
 10
822.43281184016053
 20
735.33189103410052
 11
822.43281184016053
 21
732.33186876451657
  0
LINE
  8
_0-5_
  6
CONTINUOUS
 62
    3
 10
818.48713642842074
 20
732.33186876451657
 11
701.85043747360646
 21
732.33186876451657
  0
LINE
  8
_0-5_
  6
CONTINUOUS
 62
    3
 10
818.48713642842074
 20
751.70257155959678
 11
796.0918529613599
 21
751.70257155959678
  0
LINE
  8
_0-5_
  6
CONTINUOUS
 62
    3
 10
818.48713642842074
 20
751.70257155959678
 11
818.48713642842074
 21
732.33186876451657
  0
LINE
  8
_0-5_
  6
CONTINUOUS
 62
    3
 10
796.0918529613599
 20
751.70257155959678
 11
799.85219594594594
 21
746.92970482078761
  0
LINE
  8
_0-7_
  6
CONTINUOUS
 62
    7
 10
818.48713642842074
 20
564.15289801520271
 11
701.85043747360646
 21
564.15289801520271
  0
LINE
  8
_0-7_
  6
CONTINUOUS
 62
    7
 10
818.48713642842074
 20
685.11713388803844
 11
818.48713642842074
 21
564.15289801520271
  0
LINE
  8
_0-7_
  6
CONTINUOUS
 62
    7
 10
701.85043747360646
 20
685.11713388803844
 11
701.85043747360646
 21
564.15289801520271
  0
LINE
  8
_0-7_
  6
CONTINUOUS
 62
    7
 10
766.96509283942146
 20
740.32429875554271
 11
860.49115979993667
 21
483.36336290514146
  0
LINE
  8
_0-4_下地
  6
CONTINUOUS
 62
    7
 10
843.60697978251687
 20
753.33190093169355
 11
883.67070378483959
 21
753.33190093169355
  0
LINE
  8
_0-4_下地
  6
CONTINUOUS
 62
    7
 10
1363.606963286529
 20
753.33190093169355
 11
1403.6706872888512
 21
753.33190093169355
  0
LINE
  8
_0-4_下地
  6
CONTINUOUS
 62
    7
 10
1363.606963286529
 20
753.33190093169355
 11
1338.3870305241767
 21
753.33190093169355
  0
LINE
  8
_0-2_
  6
CONTINUOUS
 62
    7
 10
753.30697136956303
 20
728.33188031170823
 11
716.43280854096292
 21
728.33188031170823
  0
LINE
  8
_0-2_
  6
CONTINUOUS
 62
    7
 10
955.52091856260563
 20
732.33186876451657
 11
955.52091856260563
 21
735.3318291741449
  0
LINE
  8
_0-2_
  6
CONTINUOUS
 62
    7
 10
955.52091856260563
 20
735.3318291741449
 11
1005.520959802576
 21
735.3318291741449
  0
LINE
  8
_0-2_
  6
CONTINUOUS
 62
    7
 10
1005.520959802576
 20
735.3318291741449
 11
1005.520959802576
 21
732.33186876451657
  0
LINE
  8
_0-2_
  6
CONTINUOUS
 62
    7
 10
1005.520959802576
 20
732.33186876451657
 11
955.52091856260563
 21
732.33186876451657
  0
LINE
  8
_0-2_
  6
CONTINUOUS
 62
    7
 10
955.52091856260563
 20
735.3318291741449
 11
1005.520959802576
 21
732.33186876451657
  0
LINE
  8
_0-2_
  6
CONTINUOUS
 62
    7
 10
1215.5209103146117
 20
732.33186876451657
 11
1215.5209103146117
 21
735.3318291741449
  0
LINE
  8
_0-2_
  6
CONTINUOUS
 62
    7
 10
1215.5209103146117
 20
735.3318291741449
 11
1265.5209515545821
 21
735.3318291741449
  0
LINE
  8
_0-2_
  6
CONTINUOUS
 62
    7
 10
1265.5209515545821
 20
735.3318291741449
 11
1265.5209515545821
 21
732.33186876451657
  0
LINE
  8
_0-2_
  6
CONTINUOUS
 62
    7
 10
1265.5209515545821
 20
732.33186876451657
 11
1215.5209103146117
 21
732.33186876451657
  0
LINE
  8
_0-2_
  6
CONTINUOUS
 62
    7
 10
1215.5209103146117
 20
735.3318291741449
 11
1265.5209515545821
 21
732.33186876451657
  0
LINE
  8
ADD_LINE
  6
DOT
 62
    7
 10
1240.5208690746413
 20
739.40481237463041
 11
1240.5208690746413
 21
727.57576607369083
  0
LINE
  8
_0-2_
  6
CONTINUOUS
 62
    7
 10
1475.5209020666175
 20
732.33186876451657
 11
1475.5209020666175
 21
735.3318291741449
  0
LINE
  8
_0-2_
  6
CONTINUOUS
 62
    7
 10
1475.5209020666175
 20
735.3318291741449
 11
1525.5208195866767
 21
735.3318291741449
  0
LINE
  8
_0-2_
  6
CONTINUOUS
 62
    7
 10
1525.5208195866767
 20
735.3318291741449
 11
1525.5208195866767
 21
732.33186876451657
  0
LINE
  8
_0-2_
  6
CONTINUOUS
 62
    7
 10
1525.5208195866767
 20
732.33186876451657
 11
1475.5209020666175
 21
732.33186876451657
  0
LINE
  8
_0-2_
  6
CONTINUOUS
 62
    7
 10
1475.5209020666175
 20
735.3318291741449
 11
1525.5208195866767
 21
732.33186876451657
  0
LINE
  8
_0-5_
  6
CONTINUOUS
 62
    7
 10
1280.4614917652029
 20
815.31650440112969
 11
1236.3731590477196
 21
936.44813331397813
  0
LINE
  8
_0-5_
  6
CONTINUOUS
 62
    7
 10
1236.3731590477196
 20
936.44813331397813
 11
1218.8993299329604
 21
936.44813331397813
  0
LINE
  8
_0-5_
  6
CONTINUOUS
 62
    7
 10
1232.423277158995
 20
741.07564977697416
 11
1353.2123874973606
 21
409.21028755806589
  0
LINE
  8
_0-5_
  6
CONTINUOUS
 62
    7
 10
1374.3620588972763
 20
409.21028755806589
 11
1353.2123874973606
 21
409.21028755806589
  0
LINE
  8
_0-5_
  6
CONTINUOUS
 62
    7
 10
1374.3620588972763
 20
429.08607689110011
 11
1345.9782368428
 21
429.08607689110011
  0
LINE
  8
_0-5_
  6
CONTINUOUS
 62
    7
 10
1374.3620588972763
 20
447.76932999894427
 11
1339.1780956371413
 21
447.76932999894427
  0
LINE
  8
_0-5_
  6
CONTINUOUS
 62
    7
 10
1374.3620588972763
 20
469.63274156725083
 11
1331.220430941195
 21
469.63274156725083
  0
LINE
  8
_0-5_
  6
CONTINUOUS
 62
    7
 10
1374.3620588972763
 20
489.11101882522178
 11
1324.1309088629646
 21
489.11101882522178
  0
LINE
  8
_0-1_
  6
CONTINUOUS
 62
    7
 10
911.82898444098396
 20
732.33186876451657
 11
793.64677635399073
 21
732.33186876451657
  0
LINE
  8
_0-7_
  6
CONTINUOUS
 62
    7
 10
822.43281184016053
 20
753.33190093169355
 11
822.43281184016053
 21
732.33186876451657
  0
LINE
  8
_0-2_
  6
CONTINUOUS
 62
    7
 10
847.17308250633448
 20
753.33190093169355
 11
822.43281184016053
 21
753.33190093169355
  0
LINE
  8
_0-2_
  6
CONTINUOUS
 62
    7
 10
847.17308250633448
 20
735.33189103410052
 11
822.43281184016053
 21
735.33189103410052
  0
LINE
  8
_0-2_
  6
CONTINUOUS
 62
    7
 10
847.17308250633448
 20
732.33186876451657
 11
822.43281184016053
 21
732.33186876451657
  0
LINE
  8
_0-7_
  6
CONTINUOUS
 62
    7
 10
860.49115979993667
 20
483.36336290514146
 11
877.52918552707979
 21
483.36336290514146
  0
LINE
  8
_0-5_
  6
CONTINUOUS
 62
    7
 10
843.6466938740499
 20
735.33189103410052
 11
822.43281184016053
 21
735.33189103410052
  0
LINE
  8
_0-1_
  6
CONTINUOUS
 62
    7
 10
911.82898444098396
 20
728.33188031170823
 11
675.61488795924834
 21
728.33188031170823
  0
LINE
  8
_0-5_
  6
DASHED1
 62
    3
 10
911.82898444098396
 20
730.0771971006651
 11
675.61488795924834
 21
730.0771971006651
  0
LINE
  8
_0-1_
  6
CONTINUOUS
 62
    7
 10
911.82898444098396
 20
735.33189103410052
 11
822.43281184016053
 21
735.33189103410052
  0
LINE
  8
_0-4_下地
  6
CONTINUOUS
 62
    7
 10
843.60697978251687
 20
753.33190093169355
 11
822.43281184016053
 21
753.33190093169355
  0
LINE
  8
_0-5_
  6
CONTINUOUS
 62
    7
 10
818.38704702016469
 20
732.33186876451657
 11
843.6466938740499
 21
732.33186876451657
  0
LINE
  8
_0-7_
  6
CONTINUOUS
 62
    3
 10
793.64677635399073
 20
732.33186876451657
 11
818.38704702016469
 21
732.33186876451657
  0
LINE
  8
_0-2_
  6
CONTINUOUS
 62
    7
 10
822.43281184016053
 20
732.33186876451657
 11
822.43281184016053
 21
735.3318291741449
  0
LINE
  8
_0-2_
  6
CONTINUOUS
 62
    7
 10
822.43281184016053
 20
735.3318291741449
 11
872.43285308013105
 21
735.3318291741449
  0
LINE
  8
_0-2_
  6
CONTINUOUS
 62
    7
 10
872.43285308013105
 20
735.3318291741449
 11
872.43285308013105
 21
732.33186876451657
  0
LINE
  8
_0-2_
  6
CONTINUOUS
 62
    7
 10
872.43285308013105
 20
732.33186876451657
 11
822.43281184016053
 21
732.33186876451657
  0
LINE
  8
_0-2_
  6
CONTINUOUS
 62
    7
 10
822.43281184016053
 20
735.3318291741449
 11
872.43285308013105
 21
732.33186876451657
  0
LINE
  8
ADD_LINE
  6
DOT
 62
    7
 10
847.43283246014573
 20
739.40481237463041
 11
847.43283246014573
 21
727.57576607369083
  0
LINE
  8
_0-5_
  6
CONTINUOUS
 62
    7
 10
822.43281184016053
 20
743.27136890308282
 11
822.43281184016053
 21
732.33186876451657
  0
LINE
  8
_0-7_
  6
CONTINUOUS
 62
    7
 10
766.96509283942146
 20
740.32429875554271
 11
760.93288112331084
 21
732.33186876451657
  0
LINE
  8
_0-2_
  6
CONTINUOUS
 62
    7
 10
1700.6277960699958
 20
710.33187041411543
 11
1718.6278059675888
 21
728.33188031170823
  0
LINE
  8
_0-2_
  6
CONTINUOUS
 62
    7
 10
1689.3139813397383
 20
710.33187041411543
 11
1707.3141149572425
 21
728.33188031170823
  0
LINE
  8
_0-2_
  6
CONTINUOUS
 62
    7
 10
1678.0004140493033
 20
710.33187041411543
 11
1696.000423946896
 21
728.33188031170823
  0
LINE
  8
_0-2_
  6
CONTINUOUS
 62
    7
 10
1666.6867230389571
 20
710.33187041411543
 11
1684.6866092166385
 21
728.33188031170823
  0
LINE
  8
_0-2_
  6
CONTINUOUS
 62
    7
 10
1655.3729083086996
 20
710.33187041411543
 11
1673.3730419262038
 21
728.33188031170823
  0
LINE
  8
_0-2_
  6
CONTINUOUS
 62
    7
 10
1644.0593410182644
 20
710.33187041411543
 11
1662.0592271959461
 21
728.33188031170823
  0
LINE
  8
_0-2_
  6
CONTINUOUS
 62
    7
 10
1632.7456500079184
 20
710.33187041411543
 11
1650.7456599055108
 21
728.33188031170823
  0
LINE
  8
_0-2_
  6
CONTINUOUS
 62
    7
 10
1621.4318352776606
 20
710.33187041411543
 11
1639.4318451752533
 21
728.33188031170823
  0
LINE
  8
_0-2_
  6
CONTINUOUS
 62
    7
 10
1610.1180205474029
 20
710.33187041411543
 11
1628.1180304449958
 21
728.33188031170823
  0
LINE
  8
_0-2_
  6
CONTINUOUS
 62
    7
 10
1598.8043295370567
 20
710.33187041411543
 11
1616.8043394346496
 21
728.33188031170823
  0
LINE
  8
_0-2_
  6
CONTINUOUS
 62
    7
 10
1587.4906385267104
 20
710.33187041411543
 11
1605.4906484243033
 21
728.33188031170823
  0
LINE
  8
_0-2_
  6
CONTINUOUS
 62
    7
 10
1576.1768237964529
 20
710.33187041411543
 11
1594.1768336940456
 21
728.33188031170823
  0
LINE
  8
_0-2_
  6
CONTINUOUS
 62
    7
 10
1564.8632565060177
 20
710.33187041411543
 11
1582.8631426836996
 21
728.33188031170823
  0
LINE
  8
_0-2_
  6
CONTINUOUS
 62
    7
 10
1553.5495654956717
 20
710.33187041411543
 11
1571.5495753932644
 21
728.33188031170823
  0
LINE
  8
_0-2_
  6
CONTINUOUS
 62
    7
 10
1542.2357507654137
 20
710.33187041411543
 11
1560.2357606630067
 21
728.33188031170823
  0
LINE
  8
_0-2_
  6
CONTINUOUS
 62
    7
 10
1530.922183474979
 20
710.33187041411543
 11
1548.9221933725719
 21
728.33188031170823
  0
LINE
  8
_0-2_
  6
CONTINUOUS
 62
    7
 10
1519.6083687447212
 20
710.33187041411543
 11
1537.6083786423144
 21
728.33188031170823
  0
LINE
  8
_0-2_
  6
CONTINUOUS
 62
    7
 10
1508.2945540144638
 20
710.33187041411543
 11
1526.2945639120567
 21
728.33188031170823
  0
LINE
  8
_0-2_
  6
CONTINUOUS
 62
    7
 10
1496.9808630041175
 20
710.33187041411543
 11
1514.9808729017104
 21
728.33188031170823
  0
LINE
  8
_0-2_
  6
CONTINUOUS
 62
    7
 10
1485.667171993771
 20
710.33187041411543
 11
1503.6671818913642
 21
728.33188031170823
  0
LINE
  8
_0-2_
  6
CONTINUOUS
 62
    7
 10
1474.353480983425
 20
710.33187041411543
 11
1492.3534908810177
 21
728.33188031170823
  0
LINE
  8
_0-2_
  6
CONTINUOUS
 62
    7
 10
1463.0396662531671
 20
710.33187041411543
 11
1481.0397998706717
 21
728.33188031170823
  0
LINE
  8
_0-2_
  6
CONTINUOUS
 62
    7
 10
1451.7260989627323
 20
710.33187041411543
 11
1469.7261088603252
 21
728.33188031170823
  0
LINE
  8
_0-2_
  6
CONTINUOUS
 62
    7
 10
1440.4124079523858
 20
710.33187041411543
 11
1458.412417849979
 21
728.33188031170823
  0
LINE
  8
_0-2_
  6
CONTINUOUS
 62
    7
 10
1429.0985932221283
 20
710.33187041411543
 11
1447.0987268396325
 21
728.33188031170823
  0
LINE
  8
_0-2_
  6
CONTINUOUS
 62
    7
 10
1417.7847784918708
 20
710.33187041411543
 11
1435.7847883894638
 21
728.33188031170823
  0
LINE
  8
_0-2_
  6
CONTINUOUS
 62
    7
 10
1406.4710874815246
 20
710.33187041411543
 11
1424.4710973791175
 21
728.33188031170823
  0
LINE
  8
_0-2_
  6
CONTINUOUS
 62
    7
 10
1395.1573964711783
 20
710.33187041411543
 11
1413.157406368771
 21
728.33188031170823
  0
LINE
  8
_0-2_
  6
CONTINUOUS
 62
    7
 10
1383.8437054608321
 20
710.33187041411543
 11
1401.843715358425
 21
728.33188031170823
  0
LINE
  8
_0-2_
  6
CONTINUOUS
 62
    7
 10
1372.5300144504856
 20
710.33187041411543
 11
1390.5299006281671
 21
728.33188031170823
  0
LINE
  8
_0-2_
  6
CONTINUOUS
 62
    7
 10
1361.2161997202281
 20
710.33187041411543
 11
1379.2163333377323
 21
728.33188031170823
  0
LINE
  8
_0-2_
  6
CONTINUOUS
 62
    7
 10
1349.9025087098817
 20
710.33187041411543
 11
1367.9026423273858
 21
728.33188031170823
  0
LINE
  8
_0-2_
  6
CONTINUOUS
 62
    7
 10
1338.5888176995354
 20
710.33187041411543
 11
1356.5888275971283
 21
728.33188031170823
  0
LINE
  8
_0-2_
  6
CONTINUOUS
 62
    7
 10
1327.2751266891894
 20
710.33187041411543
 11
1345.2751365867823
 21
728.33188031170823
  0
LINE
  8
_0-2_
  6
CONTINUOUS
 62
    7
 10
1315.9613119589317
 20
710.33187041411543
 11
1333.9613218565246
 21
728.33188031170823
  0
LINE
  8
_0-2_
  6
CONTINUOUS
 62
    7
 10
1304.6476209485854
 20
710.33187041411543
 11
1322.6476308461783
 21
728.33188031170823
  0
LINE
  8
_0-2_
  6
CONTINUOUS
 62
    7
 10
1293.3339299382392
 20
710.33187041411543
 11
1311.3339398358321
 21
728.33188031170823
  0
LINE
  8
_0-2_
  6
CONTINUOUS
 62
    7
 10
1282.0203626478042
 20
710.33187041411543
 11
1300.0202488254856
 21
728.33188031170823
  0
LINE
  8
_0-2_
  6
CONTINUOUS
 62
    7
 10
1270.7065479175465
 20
710.33187041411543
 11
1288.7065578151394
 21
728.33188031170823
  0
LINE
  8
_0-2_
  6
CONTINUOUS
 62
    7
 10
1259.3928569072002
 20
710.33187041411543
 11
1277.3928668047931
 21
728.33188031170823
  0
LINE
  8
_0-2_
  6
CONTINUOUS
 62
    7
 10
1248.079165896854
 20
710.33187041411543
 11
1266.0791757944469
 21
728.33188031170823
  0
LINE
  8
_0-2_
  6
CONTINUOUS
 62
    7
 10
1236.7654748865077
 20
710.33187041411543
 11
1254.7654847841004
 21
728.33188031170823
  0
LINE
  8
_0-2_
  6
CONTINUOUS
 62
    7
 10
1225.4517838761612
 20
710.33187041411543
 11
1243.4517937737544
 21
728.33188031170823
  0
LINE
  8
_0-2_
  6
CONTINUOUS
 62
    7
 10
1214.138092865815
 20
710.33187041411543
 11
1232.1381027634079
 21
728.33188031170823
  0
LINE
  8
_0-2_
  6
CONTINUOUS
 62
    7
 10
1202.8244018554687
 20
710.33187041411543
 11
1220.8244117530617
 21
728.33188031170823
  0
LINE
  8
_0-2_
  6
CONTINUOUS
 62
    7
 10
1191.5107108451225
 20
710.33187041411543
 11
1209.5107207427154
 21
728.33188031170823
  0
LINE
  8
_0-2_
  6
CONTINUOUS
 62
    7
 10
1180.1970198347763
 20
710.33187041411543
 11
1198.1970297323692
 21
728.33188031170823
  0
LINE
  8
_0-2_
  6
CONTINUOUS
 62
    7
 10
1168.88332882443
 20
710.33187041411543
 11
1186.8833387220229
 21
728.33188031170823
  0
LINE
  8
_0-2_
  6
CONTINUOUS
 62
    7
 10
1157.5696378140838
 20
710.33187041411543
 11
1175.5696477116767
 21
728.33188031170823
  0
LINE
  8
_0-2_
  6
CONTINUOUS
 62
    7
 10
1146.2559468037373
 20
710.33187041411543
 11
1164.255832981419
 21
728.33188031170823
  0
LINE
  8
_0-2_
  6
CONTINUOUS
 62
    7
 10
1134.9422557933913
 20
710.33187041411543
 11
1152.942265690984
 21
728.33188031170823
  0
LINE
  8
_0-2_
  6
CONTINUOUS
 62
    7
 10
1123.6285647830448
 20
710.33187041411543
 11
1141.6284509607265
 21
728.33188031170823
  0
LINE
  8
_0-2_
  6
CONTINUOUS
 62
    7
 10
1112.3148737726985
 20
710.33187041411543
 11
1130.31475995038
 21
728.33188031170823
  0
LINE
  8
_0-2_
  6
CONTINUOUS
 62
    7
 10
1101.0010590424408
 20
710.33187041411543
 11
1119.0010689400337
 21
728.33188031170823
  0
LINE
  8
_0-2_
  6
CONTINUOUS
 62
    7
 10
1089.6873680320946
 20
710.33187041411543
 11
1107.6873779296875
 21
728.33188031170823
  0
LINE
  8
_0-2_
  6
CONTINUOUS
 62
    7
 10
1078.3736770217483
 20
710.33187041411543
 11
1096.3736869193413
 21
728.33188031170823
  0
LINE
  8
_0-2_
  6
CONTINUOUS
 62
    7
 10
1067.0599860114021
 20
710.33187041411543
 11
1085.059995908995
 21
728.33188031170823
  0
LINE
  8
_0-2_
  6
CONTINUOUS
 62
    7
 10
1055.7461712811446
 20
710.33187041411543
 11
1073.7463048986488
 21
728.33188031170823
  0
LINE
  8
_0-2_
  6
CONTINUOUS
 62
    7
 10
1044.4324802707981
 20
710.33187041411543
 11
1062.4326138883025
 21
728.33188031170823
  0
LINE
  8
_0-2_
  6
CONTINUOUS
 62
    7
 10
1033.1187892604519
 20
710.33187041411543
 11
1051.1187991580448
 21
728.33188031170823
  0
LINE
  8
_0-2_
  6
CONTINUOUS
 62
    7
 10
1021.8050982501056
 20
710.33187041411543
 11
1039.8051081476985
 21
728.33188031170823
  0
LINE
  8
_0-2_
  6
CONTINUOUS
 62
    7
 10
1010.4914072397594
 20
710.33187041411543
 11
1028.4914789973079
 21
728.33188031170823
  0
LINE
  8
_0-2_
  6
CONTINUOUS
 62
    7
 10
999.17771622941302
 20
710.33187041411543
 11
1017.1777261270061
 21
728.33188031170823
  0
LINE
  8
_0-2_
  6
CONTINUOUS
 62
    7
 10
987.86396335911104
 20
710.33187041411543
 11
1005.8639732567041
 21
728.33188031170823
  0
LINE
  8
_0-2_
  6
CONTINUOUS
 62
    7
 10
976.55033420872041
 20
710.33187041411543
 11
994.55022038640209
 21
728.33188031170823
  0
LINE
  8
_0-2_
  6
CONTINUOUS
 62
    7
 10
965.23658133841855
 20
710.33187041411543
 11
983.23665309596709
 21
728.33188031170823
  0
LINE
  8
_0-2_
  6
CONTINUOUS
 62
    7
 10
953.92295218802792
 20
710.33187041411543
 11
971.9229002256651
 21
728.33188031170823
  0
LINE
  8
_0-2_
  6
CONTINUOUS
 62
    7
 10
942.60913745777032
 20
710.33187041411543
 11
960.60914735536335
 21
728.33188031170823
  0
LINE
  8
_0-2_
  6
CONTINUOUS
 62
    7
 10
931.29544644742407
 20
710.33187041411543
 11
949.29545634501687
 21
728.33188031170823
  0
LINE
  8
_0-2_
  6
CONTINUOUS
 62
    7
 10
919.98175543707771
 20
710.33187041411543
 11
937.98176533467074
 21
728.33188031170823
  0
LINE
  8
_0-2_
  6
CONTINUOUS
 62
    7
 10
908.66800256677584
 20
710.33187041411543
 11
926.66807432432438
 21
728.33188031170823
  0
LINE
  8
_0-2_
  6
CONTINUOUS
 62
    7
 10
897.35431155642959
 20
710.33187041411543
 11
915.3543214540224
 21
728.33188031170823
  0
LINE
  8
_0-2_
  6
CONTINUOUS
 62
    7
 10
886.04062054608323
 20
710.33187041411543
 11
904.04063044367615
 21
728.33188031170823
  0
LINE
  8
_0-2_
  6
CONTINUOUS
 62
    7
 10
874.72692953573699
 20
710.33187041411543
 11
892.72693943332979
 21
728.33188031170823
  0
LINE
  8
_0-2_
  6
CONTINUOUS
 62
    7
 10
863.41323852539062
 20
710.33187041411543
 11
881.41324842298354
 21
728.33188031170823
  0
LINE
  8
_0-2_
  6
CONTINUOUS
 62
    7
 10
852.09948565508864
 20
710.33187041411543
 11
870.0995574126373
 21
728.33188031170823
  0
LINE
  8
_0-2_
  6
CONTINUOUS
 62
    7
 10
840.78579464474251
 20
710.33187041411543
 11
858.78580454233531
 21
728.33188031170823
  0
LINE
  8
_0-2_
  6
CONTINUOUS
 62
    7
 10
829.47204177444053
 20
710.33187041411543
 11
847.47205167203344
 21
728.33188031170823
  0
LINE
  8
_0-2_
  6
CONTINUOUS
 62
    7
 10
818.15835076409428
 20
710.33187041411543
 11
836.15836066168708
 21
728.33188031170823
  0
LINE
  8
_0-2_
  6
CONTINUOUS
 62
    7
 10
806.84465975374792
 20
710.33187041411543
 11
824.84460779138522
 21
728.33188031170823
  0
LINE
  8
_0-2_
  6
CONTINUOUS
 62
    7
 10
795.53096874340167
 20
710.33187041411543
 11
813.53104050095021
 21
728.33188031170823
  0
LINE
  8
_0-2_
  6
CONTINUOUS
 62
    7
 10
784.21727773305531
 20
710.33187041411543
 11
802.21728763064834
 21
728.33188031170823
  0
LINE
  8
_0-2_
  6
CONTINUOUS
 62
    7
 10
772.90352486275333
 20
710.33187041411543
 11
790.90353476034636
 21
728.33188031170823
  0
LINE
  8
_0-2_
  6
CONTINUOUS
 62
    7
 10
761.5898338524072
 20
710.33187041411543
 11
779.58984375
 21
728.33188031170823
  0
LINE
  8
_0-2_
  6
CONTINUOUS
 62
    7
 10
750.27614284206084
 20
710.33187041411543
 11
768.27609087969802
 21
728.33188031170823
  0
LINE
  8
_0-2_
  6
CONTINUOUS
 62
    7
 10
738.96238997175885
 20
710.33187041411543
 11
756.96239986935188
 21
728.33188031170823
  0
LINE
  8
_0-2_
  6
CONTINUOUS
 62
    7
 10
727.64869896141261
 20
710.33187041411543
 11
745.64870885900541
 21
728.33188031170823
  0
LINE
  8
_0-2_
  6
CONTINUOUS
 62
    7
 10
716.33500795106625
 20
710.33187041411543
 11
734.33507970861478
 21
728.33188031170823
  0
LINE
  8
_0-2_
  6
CONTINUOUS
 62
    7
 10
705.02131694072
 20
710.33187041411543
 11
723.02132683831303
 21
728.33188031170823
  0
LINE
  8
_0-2_
  6
CONTINUOUS
 62
    7
 10
693.70762593037387
 20
710.33187041411543
 11
711.70757396801105
 21
728.33188031170823
  0
LINE
  8
_0-2_
  6
CONTINUOUS
 62
    7
 10
682.3939349200275
 20
710.33187041411543
 11
700.39388295766469
 21
728.33188031170823
  0
LINE
  8
_0-2_
  6
CONTINUOUS
 62
    7
 10
675.61488795924834
 20
714.86657632363813
 11
689.08019194731855
 21
728.33188031170823
  0
LINE
  8
_0-2_
  6
CONTINUOUS
 62
    7
 10
675.61488795924834
 20
726.18026733398437
 11
677.76662465688344
 21
728.33188031170823
  0
LINE
  8
_0-2_
  6
CONTINUOUS
 62
    7
 10
675.61488795924834
 20
719.48101971600511
 11
684.76403726113813
 21
710.33187041411543
  0
LINE
  8
_0-2_
  6
CONTINUOUS
 62
    7
 10
678.07778023384708
 20
728.33188031170823
 11
696.07772827148437
 21
710.33187041411543
  0
LINE
  8
_0-2_
  6
CONTINUOUS
 62
    7
 10
689.3913475242822
 20
728.33188031170823
 11
707.39141928183074
 21
710.33187041411543
  0
LINE
  8
_0-2_
  6
CONTINUOUS
 62
    7
 10
700.70503853462833
 20
728.33188031170823
 11
718.70511029217698
 21
710.33187041411543
  0
LINE
  8
_0-2_
  6
CONTINUOUS
 62
    7
 10
712.0187295449748
 20
728.33188031170823
 11
730.01873944256761
 21
710.33187041411543
  0
LINE
  8
_0-2_
  6
CONTINUOUS
 62
    7
 10
723.33242055532094
 20
728.33188031170823
 11
741.33236859295823
 21
710.33187041411543
  0
LINE
  8
_0-2_
  6
CONTINUOUS
 62
    7
 10
734.64598784575605
 20
728.33188031170823
 11
752.64605960330459
 21
710.33187041411543
  0
LINE
  8
_0-2_
  6
CONTINUOUS
 62
    7
 10
745.95974071605792
 20
728.33188031170823
 11
763.95975061365084
 21
710.33187041411543
  0
LINE
  8
_0-2_
  6
CONTINUOUS
 62
    7
 10
757.27343172640417
 20
728.33188031170823
 11
775.27344162399709
 21
710.33187041411543
  0
LINE
  8
_0-2_
  6
CONTINUOUS
 62
    7
 10
768.58712273675053
 20
728.33188031170823
 11
786.58713263434333
 21
710.33187041411543
  0
LINE
  8
_0-2_
  6
CONTINUOUS
 62
    7
 10
779.90075188714115
 20
728.33188031170823
 11
797.90082364468969
 21
710.33187041411543
  0
LINE
  8
_0-2_
  6
CONTINUOUS
 62
    7
 10
791.21450475744291
 20
728.33188031170823
 11
809.21451465503594
 21
710.33187041411543
  0
LINE
  8
_0-2_
  6
CONTINUOUS
 62
    7
 10
802.52813390783353
 20
728.33188031170823
 11
820.52814380542657
 21
710.33187041411543
  0
LINE
  8
_0-2_
  6
CONTINUOUS
 62
    7
 10
813.84188677813552
 20
728.33188031170823
 11
831.84189667572855
 21
710.33187041411543
  0
LINE
  8
_0-2_
  6
CONTINUOUS
 62
    7
 10
825.15557778848188
 20
728.33188031170823
 11
843.1555876860748
 21
710.33187041411543
  0
LINE
  8
_0-2_
  6
CONTINUOUS
 62
    7
 10
836.46926879882812
 20
728.33188031170823
 11
854.46927869642104
 21
710.33187041411543
  0
LINE
  8
_0-2_
  6
CONTINUOUS
 62
    7
 10
847.78289794921875
 20
728.33188031170823
 11
865.78296970676729
 21
710.33187041411543
  0
LINE
  8
_0-2_
  6
CONTINUOUS
 62
    7
 10
859.09658895956511
 20
728.33188031170823
 11
877.09666071711365
 21
710.33187041411543
  0
LINE
  8
_0-2_
  6
CONTINUOUS
 62
    7
 10
870.41027996991136
 20
728.33188031170823
 11
888.41028986750428
 21
710.33187041411543
  0
LINE
  8
_0-2_
  6
CONTINUOUS
 62
    7
 10
881.72384726034636
 20
728.33188031170823
 11
899.7239190178949
 21
710.33187041411543
  0
LINE
  8
_0-2_
  6
CONTINUOUS
 62
    7
 10
893.03753827069261
 20
728.33188031170823
 11
911.03761002824115
 21
710.33187041411543
  0
LINE
  8
_0-2_
  6
CONTINUOUS
 62
    7
 10
904.35129114099459
 20
728.33188031170823
 11
922.35130103858751
 21
710.33187041411543
  0
LINE
  8
_0-2_
  6
CONTINUOUS
 62
    7
 10
915.66492029138522
 20
728.33188031170823
 11
933.66499204893375
 21
710.33187041411543
  0
LINE
  8
_0-2_
  6
CONTINUOUS
 62
    7
 10
926.97867316168708
 20
728.33188031170823
 11
944.97868305928012
 21
710.33187041411543
  0
LINE
  8
_0-2_
  6
CONTINUOUS
 62
    7
 10
938.29230231207771
 20
728.33188031170823
 11
956.29237406962625
 21
710.33187041411543
  0
LINE
  8
_0-2_
  6
CONTINUOUS
 62
    7
 10
949.60599332242407
 20
728.33188031170823
 11
967.60606507997272
 21
710.33187041411543
  0
LINE
  8
_0-2_
  6
CONTINUOUS
 62
    7
 10
960.91956061285896
 20
728.33188031170823
 11
978.91969423036335
 21
710.33187041411543
  0
LINE
  8
_0-2_
  6
CONTINUOUS
 62
    7
 10
972.23331348316094
 20
728.33188031170823
 11
990.23332338075397
 21
710.33187041411543
  0
LINE
  8
_0-2_
  6
CONTINUOUS
 62
    7
 10
983.54706635346292
 20
728.33188031170823
 11
1001.5470762510557
 21
710.33187041411543
  0
LINE
  8
_0-2_
  6
CONTINUOUS
 62
    7
 10
994.86063364389793
 20
728.33188031170823
 11
1012.8607054014465
 21
710.33187041411543
  0
LINE
  8
_0-2_
  6
CONTINUOUS
 62
    7
 10
1006.1743865141998
 20
728.33188031170823
 11
1024.1743345518371
 21
710.33187041411543
  0
LINE
  8
_0-2_
  6
CONTINUOUS
 62
    7
 10
1017.488077524546
 20
728.33188031170823
 11
1035.488087422139
 21
710.33187041411543
  0
LINE
  8
_0-2_
  6
CONTINUOUS
 62
    7
 10
1028.8017685348923
 20
728.33188031170823
 11
1046.8018402924408
 21
710.33187041411543
  0
LINE
  8
_0-2_
  6
CONTINUOUS
 62
    7
 10
1040.1155214051942
 20
728.33188031170823
 11
1058.1155313027873
 21
710.33187041411543
  0
LINE
  8
_0-2_
  6
CONTINUOUS
 62
    7
 10
1051.4290886956294
 20
728.33188031170823
 11
1069.4290985932221
 21
710.33187041411543
  0
LINE
  8
_0-2_
  6
CONTINUOUS
 62
    7
 10
1062.7427797059754
 20
728.33188031170823
 11
1080.7427896035686
 21
710.33187041411543
  0
LINE
  8
_0-2_
  6
CONTINUOUS
 62
    7
 10
1074.0564707163219
 20
728.33188031170823
 11
1092.0563568940033
 21
710.33187041411543
  0
LINE
  8
_0-2_
  6
CONTINUOUS
 62
    7
 10
1085.3701617266681
 20
728.33188031170823
 11
1103.370171624261
 21
710.33187041411543
  0
LINE
  8
_0-2_
  6
CONTINUOUS
 62
    7
 10
1096.6837290171031
 20
728.33188031170823
 11
1114.6838626346073
 21
710.33187041411543
  0
LINE
  8
_0-2_
  6
CONTINUOUS
 62
    7
 10
1107.9975437473606
 20
728.33188031170823
 11
1125.9974299250423
 21
710.33187041411543
  0
LINE
  8
_0-2_
  6
CONTINUOUS
 62
    7
 10
1119.3111110377956
 20
728.33188031170823
 11
1137.3111209353885
 21
710.33187041411543
  0
LINE
  8
_0-2_
  6
CONTINUOUS
 62
    7
 10
1130.6249257680533
 20
728.33188031170823
 11
1148.624811945735
 21
710.33187041411543
  0
LINE
  8
_0-2_
  6
CONTINUOUS
 62
    7
 10
1141.9384930584883
 20
728.33188031170823
 11
1159.938502956081
 21
710.33187041411543
  0
LINE
  8
_0-2_
  6
CONTINUOUS
 62
    7
 10
1153.2521840688346
 20
728.33188031170823
 11
1171.2521939664275
 21
710.33187041411543
  0
LINE
  8
_0-2_
  6
CONTINUOUS
 62
    7
 10
1164.5658750791808
 20
728.33188031170823
 11
1182.5658849767738
 21
710.33187041411543
  0
LINE
  8
_0-2_
  6
CONTINUOUS
 62
    7
 10
1175.8795660895271
 20
728.33188031170823
 11
1193.87957598712
 21
710.33187041411543
  0
LINE
  8
_0-2_
  6
CONTINUOUS
 62
    7
 10
1187.1932570998733
 20
728.33188031170823
 11
1205.193143277555
 21
710.33187041411543
  0
LINE
  8
_0-2_
  6
CONTINUOUS
 62
    7
 10
1198.5068243903083
 20
728.33188031170823
 11
1216.5068342879013
 21
710.33187041411543
  0
LINE
  8
_0-2_
  6
CONTINUOUS
 62
    7
 10
1209.8205154006546
 20
728.33188031170823
 11
1227.8205252982475
 21
710.33187041411543
  0
LINE
  8
_0-2_
  6
CONTINUOUS
 62
    7
 10
1221.1342064110008
 20
728.33188031170823
 11
1239.1342163085937
 21
710.33187041411543
  0
LINE
  8
_0-2_
  6
CONTINUOUS
 62
    7
 10
1232.4478974213471
 20
728.33188031170823
 11
1250.44790731894
 21
710.33187041411543
  0
LINE
  8
_0-2_
  6
CONTINUOUS
 62
    7
 10
1243.7615884316936
 20
728.33188031170823
 11
1261.7615983292862
 21
710.33187041411543
  0
LINE
  8
_0-2_
  6
CONTINUOUS
 62
    7
 10
1255.0751557221283
 20
728.33188031170823
 11
1273.0752893396327
 21
710.33187041411543
  0
LINE
  8
_0-2_
  6
CONTINUOUS
 62
    7
 10
1266.3888467324748
 20
728.33188031170823
 11
1284.3888566300677
 21
710.33187041411543
  0
LINE
  8
_0-2_
  6
CONTINUOUS
 62
    7
 10
1277.7026614627323
 20
728.33188031170823
 11
1295.7025476404137
 21
710.33187041411543
  0
LINE
  8
_0-2_
  6
CONTINUOUS
 62
    7
 10
1289.0162287531671
 20
728.33188031170823
 11
1307.0163623706717
 21
710.33187041411543
  0
LINE
  8
_0-2_
  6
CONTINUOUS
 62
    7
 10
1300.3299197635135
 20
728.33188031170823
 11
1318.3300533810177
 21
710.33187041411543
  0
LINE
  8
_0-2_
  6
CONTINUOUS
 62
    7
 10
1311.64361077386
 20
728.33188031170823
 11
1329.6437443913642
 21
710.33187041411543
  0
LINE
  8
_0-2_
  6
CONTINUOUS
 62
    7
 10
1322.9573017842063
 20
728.33188031170823
 11
1340.957311681799
 21
710.33187041411543
  0
LINE
  8
_0-2_
  6
CONTINUOUS
 62
    7
 10
1334.2709927945523
 20
728.33188031170823
 11
1352.2710026921454
 21
710.33187041411543
  0
LINE
  8
_0-2_
  6
CONTINUOUS
 62
    7
 10
1345.5846838048988
 20
728.33188031170823
 11
1363.5845699825802
 21
710.33187041411543
  0
LINE
  8
_0-2_
  6
CONTINUOUS
 62
    7
 10
1356.898374815245
 20
728.33188031170823
 11
1374.8982609929267
 21
710.33187041411543
  0
LINE
  8
_0-2_
  6
CONTINUOUS
 62
    7
 10
1368.21194210568
 20
728.33188031170823
 11
1386.2119520032729
 21
710.33187041411543
  0
LINE
  8
_0-2_
  6
CONTINUOUS
 62
    7
 10
1379.5256331160263
 20
728.33188031170823
 11
1397.5256430136192
 21
710.33187041411543
  0
LINE
  8
_0-2_
  6
CONTINUOUS
 62
    7
 10
1390.8393241263727
 20
728.33188031170823
 11
1408.8393340239654
 21
710.33187041411543
  0
LINE
  8
_0-2_
  6
CONTINUOUS
 62
    7
 10
1402.1530151367187
 20
728.33188031170823
 11
1420.1530250343117
 21
710.33187041411543
  0
LINE
  8
_0-2_
  6
CONTINUOUS
 62
    7
 10
1413.466706147065
 20
728.33188031170823
 11
1431.4667160446581
 21
710.33187041411543
  0
LINE
  8
_0-2_
  6
CONTINUOUS
 62
    7
 10
1424.7803971574115
 20
728.33188031170823
 11
1442.7804070550042
 21
710.33187041411543
  0
LINE
  8
_0-2_
  6
CONTINUOUS
 62
    7
 10
1436.0939644478462
 20
728.33188031170823
 11
1454.0939743454394
 21
710.33187041411543
  0
LINE
  8
_0-2_
  6
CONTINUOUS
 62
    7
 10
1447.4076554581927
 20
728.33188031170823
 11
1465.4077890756969
 21
710.33187041411543
  0
LINE
  8
_0-2_
  6
CONTINUOUS
 62
    7
 10
1458.7214701884502
 20
728.33188031170823
 11
1476.7214800860434
 21
710.33187041411543
  0
LINE
  8
_0-2_
  6
CONTINUOUS
 62
    7
 10
1470.0350374788852
 20
728.33188031170823
 11
1488.0351710963894
 21
710.33187041411543
  0
LINE
  8
_0-2_
  6
CONTINUOUS
 62
    7
 10
1481.3487284892315
 20
728.33188031170823
 11
1499.3487383868246
 21
710.33187041411543
  0
LINE
  8
_0-2_
  6
CONTINUOUS
 62
    7
 10
1492.6624194995779
 20
728.33188031170823
 11
1510.6625531170821
 21
710.33187041411543
  0
LINE
  8
_0-2_
  6
CONTINUOUS
 62
    7
 10
1503.976110509924
 20
728.33188031170823
 11
1521.9762441274283
 21
710.33187041411543
  0
LINE
  8
_0-2_
  6
CONTINUOUS
 62
    7
 10
1515.2898015202704
 20
728.33188031170823
 11
1533.2898114178633
 21
710.33187041411543
  0
LINE
  8
_0-2_
  6
CONTINUOUS
 62
    7
 10
1526.6034925306167
 20
728.33188031170823
 11
1544.6033787082981
 21
710.33187041411543
  0
LINE
  8
_0-2_
  6
CONTINUOUS
 62
    7
 10
1537.9171835409629
 20
728.33188031170823
 11
1555.9170697186446
 21
710.33187041411543
  0
LINE
  8
_0-2_
  6
CONTINUOUS
 62
    7
 10
1549.2308745513092
 20
728.33188031170823
 11
1567.2307607289908
 21
710.33187041411543
  0
LINE
  8
_0-2_
  6
CONTINUOUS
 62
    7
 10
1560.5444418417442
 20
728.33188031170823
 11
1578.5444517393371
 21
710.33187041411543
  0
LINE
  8
_0-2_
  6
CONTINUOUS
 62
    7
 10
1571.8581328520904
 20
728.33188031170823
 11
1589.8581427496833
 21
710.33187041411543
  0
LINE
  8
_0-2_
  6
CONTINUOUS
 62
    7
 10
1583.1718238624367
 20
728.33188031170823
 11
1601.1718337600296
 21
710.33187041411543
  0
LINE
  8
_0-2_
  6
CONTINUOUS
 62
    7
 10
1594.4856385926942
 20
728.33188031170823
 11
1612.4855247703761
 21
710.33187041411543
  0
LINE
  8
_0-2_
  6
CONTINUOUS
 62
    7
 10
1605.7992058831294
 20
728.33188031170823
 11
1623.7992157807221
 21
710.33187041411543
  0
LINE
  8
_0-2_
  6
CONTINUOUS
 62
    7
 10
1617.1127731735644
 20
728.33188031170823
 11
1635.1129067910686
 21
710.33187041411543
  0
LINE
  8
_0-2_
  6
CONTINUOUS
 62
    7
 10
1628.4264641839106
 20
728.33188031170823
 11
1646.4264740815033
 21
710.33187041411543
  0
LINE
  8
_0-2_
  6
CONTINUOUS
 62
    7
 10
1639.7401551942567
 20
728.33188031170823
 11
1657.7401650918498
 21
710.33187041411543
  0
LINE
  8
_0-2_
  6
CONTINUOUS
 62
    7
 10
1651.0538462046031
 20
728.33188031170823
 11
1669.0539798221073
 21
710.33187041411543
  0
LINE
  8
_0-2_
  6
CONTINUOUS
 62
    7
 10
1662.3675372149496
 20
728.33188031170823
 11
1680.3675471125421
 21
710.33187041411543
  0
LINE
  8
_0-2_
  6
CONTINUOUS
 62
    7
 10
1673.6812282252956
 20
728.33188031170823
 11
1691.6811144029773
 21
710.33187041411543
  0
LINE
  8
_0-2_
  6
CONTINUOUS
 62
    7
 10
1684.9949192356419
 20
728.33188031170823
 11
1702.994929133235
 21
710.33187041411543
  0
LINE
  8
_0-2_
  6
CONTINUOUS
 62
    7
 10
1696.3086102459883
 20
728.33188031170823
 11
1714.3087438634925
 21
710.33187041411543
  0
LINE
  8
_0-2_
  6
CONTINUOUS
 62
    7
 10
1707.6221775364231
 20
728.33188031170823
 11
1725.6221874340163
 21
710.33187041411543
  0
LINE
  8
_0-2_
  6
CONTINUOUS
 62
    3
 10
723.61474939294772
 20
690.33186629011823
 11
725.61480547930739
 21
690.33186629011823
  0
LINE
  8
_0-2_
  6
CONTINUOUS
 62
    3
 10
725.61480547930739
 20
630.33185391812719
 11
723.61474939294772
 21
630.33185391812719
  0
LINE
  8
_0-2_
  6
CONTINUOUS
 62
    3
 10
718.61473289695948
 20
708.33187618771126
 11
682.61496054159636
 21
708.33187618771126
  0
LINE
  8
_0-2_
  6
CONTINUOUS
 62
    3
 10
723.61474939294772
 20
703.33185969172303
 11
723.61474939294772
 21
690.33186629011823
  0
LINE
  8
_0-2_
  6
CONTINUOUS
 62
    3
 10
725.61480547930739
 20
705.33185391812708
 11
725.61480547930739
 21
690.33186629011823
  0
LINE
  8
_0-2_
  6
CONTINUOUS
 62
    3
 10
720.61478898331927
 20
710.33187041411543
 11
680.61490445523646
 21
710.33187041411543
  0
LINE
  8
_0-2_
  6
CONTINUOUS
 62
    3
 10
723.61474939294772
 20
617.3318605165224
 11
723.61474939294772
 21
630.33185391812719
  0
LINE
  8
_0-2_
  6
CONTINUOUS
 62
    3
 10
725.61480547930739
 20
615.33186629011834
 11
725.61480547930739
 21
630.33185391812719
  0
LINE
  8
_0-2_
  6
CONTINUOUS
 62
    3
 10
682.61496054159636
 20
612.33184402053428
 11
718.61473289695948
 21
612.33184402053428
  0
LINE
  8
_0-2_
  6
CONTINUOUS
 62
    3
 10
677.61494404560824
 20
617.3318605165224
 11
677.61494404560824
 21
703.33185969172303
  0
LINE
  8
_0-2_
  6
CONTINUOUS
 62
    3
 10
675.61488795924834
 20
615.33186629011834
 11
675.61488795924834
 21
705.33185391812708
  0
LINE
  8
_0-2_
  6
CONTINUOUS
 62
    3
 10
680.61490445523646
 20
610.33191165408573
 11
720.61478898331927
 21
610.33191165408573
  0
LINE
  8
ADD_LINE
  6
DOT
 62
    3
 10
680.61490445523646
 20
710.33187041411543
 11
673.62361598659209
 21
710.33187041411543
  0
LINE
  8
ADD_LINE
  6
DOT
 62
    3
 10
675.61488795924834
 20
705.33185391812708
 11
675.61488795924834
 21
712.88810936180323
  0
LINE
  8
ADD_LINE
  6
DOT
 62
    3
 10
680.61490445523646
 20
610.33191165408573
 11
671.11841150232272
 21
610.33191165408573
  0
LINE
  8
ADD_LINE
  6
DOT
 62
    3
 10
675.61488795924834
 20
615.33186629011834
 11
675.61488795924834
 21
608.17343222128375
  0
LINE
  8
_0-2_
  6
CONTINUOUS
 62
    3
 10
1173.9972913587417
 20
690.33186629011823
 11
1175.9973474451015
 21
690.33186629011823
  0
LINE
  8
_0-2_
  6
CONTINUOUS
 62
    3
 10
1175.9973474451015
 20
630.33185391812719
 11
1173.9972913587417
 21
630.33185391812719
  0
LINE
  8
_0-2_
  6
CONTINUOUS
 62
    3
 10
1168.9972748627533
 20
708.33187618771126
 11
1132.9975025073902
 21
708.33187618771126
  0
LINE
  8
_0-2_
  6
CONTINUOUS
 62
    3
 10
1173.9972913587417
 20
703.33185969172303
 11
1173.9972913587417
 21
690.33186629011823
  0
LINE
  8
_0-2_
  6
CONTINUOUS
 62
    3
 10
1175.9973474451015
 20
705.33185391812708
 11
1175.9973474451015
 21
690.33186629011823
  0
LINE
  8
_0-2_
  6
CONTINUOUS
 62
    3
 10
1170.9973309491133
 20
710.33187041411543
 11
1130.9974464210304
 21
710.33187041411543
  0
LINE
  8
_0-2_
  6
CONTINUOUS
 62
    3
 10
1173.9972913587417
 20
617.3318605165224
 11
1173.9972913587417
 21
630.33185391812719
  0
LINE
  8
_0-2_
  6
CONTINUOUS
 62
    3
 10
1175.9973474451015
 20
615.33186629011834
 11
1175.9973474451015
 21
630.33185391812719
  0
LINE
  8
_0-2_
  6
CONTINUOUS
 62
    3
 10
1132.9975025073902
 20
612.33184402053428
 11
1168.9972748627533
 21
612.33184402053428
  0
LINE
  8
_0-2_
  6
CONTINUOUS
 62
    3
 10
1127.9974860114021
 20
617.3318605165224
 11
1127.9974860114021
 21
703.33185969172303
  0
LINE
  8
_0-2_
  6
CONTINUOUS
 62
    3
 10
1125.9974299250423
 20
615.33186629011834
 11
1125.9974299250423
 21
705.33185391812708
  0
LINE
  8
_0-2_
  6
CONTINUOUS
 62
    3
 10
1130.9974464210304
 20
610.33191165408573
 11
1170.9973309491133
 21
610.33191165408573
  0
LINE
  8
ADD_LINE
  6
DOT
 62
    3
 10
1130.9974464210304
 20
710.33187041411543
 11
1124.006157952386
 21
710.33187041411543
  0
LINE
  8
ADD_LINE
  6
DOT
 62
    3
 10
1125.9974299250423
 20
705.33185391812708
 11
1125.9974299250423
 21
712.88810936180323
  0
LINE
  8
_0-2_
  6
CONTINUOUS
 62
    3
 10
1624.1766852301521
 20
690.33186629011823
 11
1626.1767413165121
 21
690.33186629011823
  0
LINE
  8
_0-2_
  6
CONTINUOUS
 62
    3
 10
1626.1767413165121
 20
630.33185391812719
 11
1624.1766852301521
 21
630.33185391812719
  0
LINE
  8
_0-2_
  6
CONTINUOUS
 62
    3
 10
1619.1766687341642
 20
708.33187618771126
 11
1583.1768963788008
 21
708.33187618771126
  0
LINE
  8
_0-2_
  6
CONTINUOUS
 62
    3
 10
1624.1766852301521
 20
703.33185969172303
 11
1624.1766852301521
 21
690.33186629011823
  0
LINE
  8
_0-2_
  6
CONTINUOUS
 62
    3
 10
1626.1767413165121
 20
705.33185391812708
 11
1626.1767413165121
 21
690.33186629011823
  0
LINE
  8
_0-2_
  6
CONTINUOUS
 62
    3
 10
1621.1767248205238
 20
710.33187041411543
 11
1581.1768402924408
 21
710.33187041411543
  0
LINE
  8
_0-2_
  6
CONTINUOUS
 62
    3
 10
1624.1766852301521
 20
617.3318605165224
 11
1624.1766852301521
 21
630.33185391812719
  0
LINE
  8
_0-2_
  6
CONTINUOUS
 62
    3
 10
1626.1767413165121
 20
615.33186629011834
 11
1626.1767413165121
 21
630.33185391812719
  0
LINE
  8
_0-2_
  6
CONTINUOUS
 62
    3
 10
1583.1768963788008
 20
612.33184402053428
 11
1619.1766687341642
 21
612.33184402053428
  0
LINE
  8
_0-2_
  6
CONTINUOUS
 62
    3
 10
1578.1768798828125
 20
617.3318605165224
 11
1578.1768798828125
 21
703.33185969172303
  0
LINE
  8
_0-2_
  6
CONTINUOUS
 62
    3
 10
1576.1768237964529
 20
615.33186629011834
 11
1576.1768237964529
 21
705.33185391812708
  0
LINE
  8
_0-2_
  6
CONTINUOUS
 62
    3
 10
1581.1768402924408
 20
610.33191165408573
 11
1621.1767248205238
 21
610.33191165408573
  0
LINE
  8
ADD_LINE
  6
DOT
 62
    3
 10
1581.1768402924408
 20
710.33187041411543
 11
1574.1855518237967
 21
710.33187041411543
  0
LINE
  8
_0-7_
  6
CONTINUOUS
 62
    7
 10
453.2497509105786
 20
732.33186876451657
 11
634.9545865445524
 21
732.33186876451657
  0
LINE
  8
_1-0_
  6
CONTINUOUS
 62
    5
 10
693.24330510319896
 20
124.99999484500371
 11
693.24330510319896
 21
174.99998969000742
  0
LINE
  8
_1-0_
  6
CONTINUOUS
 62
    5
 10
2041.8919743718329
 20
75
 11
632.44591790276604
 21
75
  0
LINE
  8
_1-0_
  6
CONTINUOUS
 62
    5
 10
632.44591790276604
 20
75
 11
41.891871271906638
 21
75
  0
LINE
  8
_1-0_
  6
CONTINUOUS
 62
    5
 10
693.24330510319896
 20
124.99999484500371
 11
693.24330510319896
 21
75
  0
LINE
  8
_0-5_
  6
CONTINUOUS
 62
    7
 10
698.48698796452709
 20
730.54758020349459
 11
698.48698796452709
 21
856.89858101509708
  0
LINE
  8
_0-5_
  6
CONTINUOUS
 62
    7
 10
698.48698796452709
 20
856.89858101509708
 11
678.48716942039698
 21
856.89858101509708
  0
LINE
  8
_0-5_
  6
CONTINUOUS
 62
    7
 10
678.48716942039698
 20
856.89858101509708
 11
678.48716942039698
 21
730.54758020349459
  0
LINE
  8
_0-5_
  6
CONTINUOUS
 62
    7
 10
678.48716942039698
 20
730.54758020349459
 11
698.48698796452709
 21
856.89858101509708
  0
LINE
  8
_0-5_
  6
CONTINUOUS
 62
    3
 10
701.85043747360646
 20
856.89858101509708
 11
719.74083152977198
 21
850.35385956635355
  0
LINE
  8
_0-5_
  6
CONTINUOUS
 62
    3
 10
701.85043747360646
 20
732.33186876451657
 11
701.85043747360646
 21
856.89858101509708
  0
LINE
  8
_0-5_
  6
CONTINUOUS
 62
    7
 10
686.96470518369938
 20
883.45345162056583
 11
681.81127599767728
 21
869.366455078125
  0
LINE
  8
_0-5_
  6
CONTINUOUS
 62
    7
 10
766.33325525232272
 20
838.44637484163854
 11
771.48643699852198
 21
852.53337138407937
  0
LINE
  8
_0-5_
  6
CONTINUOUS
 62
    7
 10
771.48643699852198
 20
852.53337138407937
 11
686.96470518369938
 21
883.45345162056583
  0
LINE
  8
_0-5_
  6
CONTINUOUS
 62
    7
 10
771.48643699852198
 20
852.53337138407937
 11
681.81127599767728
 21
869.366455078125
  0
LINE
  8
_0-5_
  6
CONTINUOUS
 62
    3
 10
778.76933329814187
 20
853.19545848949542
 11
680.22914577174834
 21
889.243729050095
  0
LINE
  8
_0-5_
  6
CONTINUOUS
 62
    3
 10
680.22914577174834
 20
889.243729050095
 11
680.22914577174834
 21
956.03658315297719
  0
LINE
  8
_0-5_
  6
CONTINUOUS
 62
    3
 10
778.76933329814187
 20
853.19545848949542
 11
773.5790355785474
 21
831.96536914722344
  0
LINE
  8
_0-5_
  6
CONTINUOUS
 62
    7
 10
681.81127599767728
 20
869.366455078125
 11
766.33325525232272
 21
838.44637484163854
  0
LINE
  8
_0-6_
  6
CONTINUOUS
 62
    7
 10
712.22905339421459
 20
887.97689901815886
 11
700.22921175570104
 21
887.97689901815886
  0
LINE
  8
_0-6_
  6
CONTINUOUS
 62
    7
 10
700.22921175570104
 20
912.6150388975401
 11
700.22921175570104
 21
952.61498528557865
  0
LINE
  8
_0-6_
  6
CONTINUOUS
 62
    7
 10
700.22921175570104
 20
952.61498528557865
 11
680.22914577174834
 21
952.61498528557865
  0
LINE
  8
_0-6_
  6
CONTINUOUS
 62
    7
 10
680.22914577174834
 20
952.61498528557865
 11
680.22914577174834
 21
912.6150388975401
  0
LINE
  8
_0-6_
  6
CONTINUOUS
 62
    7
 10
680.22914577174834
 20
912.6150388975401
 11
700.22921175570104
 21
912.6150388975401
  0
LINE
  8
_0-6_
  6
CONTINUOUS
 62
    7
 10
700.22921175570104
 20
952.61498528557865
 11
680.22914577174834
 21
912.6150388975401
  0
LINE
  8
_0-7_
  6
CONTINUOUS
 62
    7
 10
758.04550583298146
 20
848.55187905801313
 11
804.22322041279574
 21
975.42423557590791
  0
LINE
  8
_0-7_
  6
CONTINUOUS
 62
    7
 10
822.03987740181583
 20
894.26199423300261
 11
835.51173854518584
 21
931.27565126161335
  0
LINE
  8
_0-7_
  6
CONTINUOUS
 62
    7
 10
740.51897203600095
 20
1124.6336653425888
 11
759.93705955711573
 21
1124.6336653425888
  0
LINE
  8
_0-7_
  6
CONTINUOUS
 62
    3
 10
680.22914577174834
 20
956.03658315297719
 11
680.22914577174834
 21
1039.1931894663219
  0
LINE
  8
_0-7_
  6
CONTINUOUS
 62
    7
 10
569.81778531461157
 20
889.243729050095
 11
569.81778531461157
 21
1039.2436671901394
  0
LINE
  8
_0-7_
  6
CONTINUOUS
 62
    7
 10
634.9545865445524
 20
889.243729050095
 11
569.81778531461157
 21
889.243729050095
  0
LINE
  8
_0-7_
  6
CONTINUOUS
 62
    7
 10
634.9545865445524
 20
1039.2436671901394
 11
569.81778531461157
 21
1039.2436671901394
  0
LINE
  8
_0-7_
  6
CONTINUOUS
 62
    7
 10
731.92551071579396
 20
870.75397388355157
 11
796.91434293179907
 21
1049.3096428948481
  0
LINE
  8
_0-7_
  6
CONTINUOUS
 62
    7
 10
796.91434293179907
 20
1049.3096428948481
 11
812.10083832611917
 21
1049.3096428948481
  0
LINE
  8
_0-7_
  6
CONTINUOUS
 62
    7
 10
804.22322041279574
 20
975.42423557590791
 11
813.76784041121198
 21
975.42423557590791
  0
LINE
  8
_0-7_
  6
CONTINUOUS
 62
    7
 10
835.51173854518584
 20
931.27565126161335
 11
845.4411274677999
 21
931.27565126161335
  0
LINE
  8
_0-7_
  6
CONTINUOUS
 62
    7
 10
712.22905339421459
 20
1046.9076208166175
 11
740.51897203600095
 21
1124.6336653425888
  0
LINE
  8
_0-5_
  6
CONTINUOUS
 62
    7
 10
675.61488795924834
 20
1224.41216546136
 11
675.61488795924834
 21
429.51996262009084
  0
LINE
  8
_0-6_
  6
CONTINUOUS
 62
    7
 10
700.22921175570104
 20
887.97689901815886
 11
700.22921175570104
 21
1224.41216546136
  0
LINE
  8
_0-6_
  6
CONTINUOUS
 62
    7
 10
712.22905339421459
 20
887.97689901815886
 11
712.22905339421459
 21
1224.41216546136
  0
LINE
  8
_0-5_
  6
DASHED1
 62
    3
 10
677.8834162531673
 20
730.0771971006651
 11
677.8834162531673
 21
1089.24370843011
  0
LINE
  8
_0-7_
  6
CONTINUOUS
 62
    7
 10
569.81778531461157
 20
1039.2436671901394
 11
634.9545865445524
 21
1039.2436671901394
  0
LINE
  8
_0-7_
  6
CONTINUOUS
 62
    7
 10
569.81778531461157
 20
1089.24370843011
 11
634.9545865445524
 21
1089.24370843011
  0
LINE
  8
_0-7_
  6
CONTINUOUS
 62
    7
 10
569.81778531461157
 20
1039.2436671901394
 11
569.81778531461157
 21
1089.24370843011
  0
LINE
  8
_0-7_
  6
CONTINUOUS
 62
    7
 10
453.2497509105786
 20
1089.24370843011
 11
634.9545865445524
 21
1089.24370843011
  0
LINE
  8
_0-7_
  6
CONTINUOUS
 62
    7
 10
569.27490234375
 20
1073.6585874815246
 11
547.56910994246209
 21
1154.6656840556377
  0
LINE
  8
_0-7_
  6
CONTINUOUS
 62
    7
 10
569.27490234375
 20
985.25947364600938
 11
534.33912122571792
 21
1115.6415784681167
  0
LINE
  8
_0-7_
  6
CONTINUOUS
 62
    7
 10
547.56910994246209
 20
1154.6656840556377
 11
532.672119140625
 21
1154.6656840556377
  0
LINE
  8
_0-7_
  6
CONTINUOUS
 62
    7
 10
534.33912122571792
 20
1115.6415784681167
 11
519.55038534628375
 21
1115.6415784681167
  0
LINE
  8
_0-7_
  6
CONTINUOUS
 62
    7
 10
569.81778531461157
 20
732.33186876451657
 11
634.9545865445524
 21
732.33186876451657
  0
LINE
  8
_0-7_
  6
CONTINUOUS
 62
    7
 10
569.81778531461157
 20
856.89858101509708
 11
634.9545865445524
 21
856.89858101509708
  0
LINE
  8
_0-7_
  6
CONTINUOUS
 62
    7
 10
569.81778531461157
 20
732.33186876451657
 11
569.81778531461157
 21
856.89858101509708
  0
LINE
  8
_0-7_
  6
CONTINUOUS
 62
    7
 10
743.46158826673354
 20
820.53321632179063
 11
795.20478119721292
 21
820.53321632179063
  0
LINE
  8
_0-7_
  6
CONTINUOUS
 62
    7
 10
822.03987740181583
 20
894.26199423300261
 11
795.20478119721292
 21
820.53321632179063
  0
LINE
  8
_0-7_
  6
CONTINUOUS
 62
    7
 10
453.2497509105786
 20
732.33186876451657
 11
453.2497509105786
 21
1089.24370843011
  0
ARC
  8
_0-2_
  6
CONTINUOUS
 62
    3
 10
680.61490445523646
 20
705.33185391812708
 40
4.9999995811565503
 50
90
 51
180
  0
ARC
  8
_0-2_
  6
CONTINUOUS
 62
    3
 10
682.61496054159636
 20
703.33185969172303
 40
4.9999995811565503
 50
90
 51
180
  0
ARC
  8
_0-2_
  6
CONTINUOUS
 62
    3
 10
718.61473289695948
 20
703.33185969172303
 40
4.9999995811565503
 50
0
 51
90
  0
ARC
  8
_0-2_
  6
CONTINUOUS
 62
    3
 10
720.61478898331927
 20
705.33185391812708
 40
4.9999995811565503
 50
0
 51
90
  0
ARC
  8
_0-2_
  6
CONTINUOUS
 62
    3
 10
718.61473289695948
 20
617.3318605165224
 40
4.9999995811565503
 50
270
 51
0
  0
ARC
  8
_0-2_
  6
CONTINUOUS
 62
    3
 10
720.61478898331927
 20
615.33186629011834
 40
4.9999995811565503
 50
270
 51
0
  0
ARC
  8
_0-2_
  6
CONTINUOUS
 62
    3
 10
682.61496054159636
 20
617.3318605165224
 40
4.9999995811565503
 50
180
 51
270
  0
ARC
  8
_0-2_
  6
CONTINUOUS
 62
    3
 10
680.61490445523646
 20
615.33186629011834
 40
4.9999995811565503
 50
180
 51
270
  0
ARC
  8
_0-2_
  6
CONTINUOUS
 62
    3
 10
1130.9974464210304
 20
705.33185391812708
 40
4.9999995811565503
 50
90
 51
180
  0
ARC
  8
_0-2_
  6
CONTINUOUS
 62
    3
 10
1132.9975025073902
 20
703.33185969172303
 40
4.9999995811565503
 50
90
 51
180
  0
ARC
  8
_0-2_
  6
CONTINUOUS
 62
    3
 10
1168.9972748627533
 20
703.33185969172303
 40
4.9999995811565503
 50
0
 51
90
  0
ARC
  8
_0-2_
  6
CONTINUOUS
 62
    3
 10
1170.9973309491133
 20
705.33185391812708
 40
4.9999995811565503
 50
0
 51
90
  0
ARC
  8
_0-2_
  6
CONTINUOUS
 62
    3
 10
1168.9972748627533
 20
617.3318605165224
 40
4.9999995811565503
 50
270
 51
0
  0
ARC
  8
_0-2_
  6
CONTINUOUS
 62
    3
 10
1170.9973309491133
 20
615.33186629011834
 40
4.9999995811565503
 50
270
 51
0
  0
ARC
  8
_0-2_
  6
CONTINUOUS
 62
    3
 10
1132.9975025073902
 20
617.3318605165224
 40
4.9999995811565503
 50
180
 51
270
  0
ARC
  8
_0-2_
  6
CONTINUOUS
 62
    3
 10
1130.9974464210304
 20
615.33186629011834
 40
4.9999995811565503
 50
180
 51
270
  0
ARC
  8
_0-2_
  6
CONTINUOUS
 62
    3
 10
1581.1768402924408
 20
705.33185391812708
 40
4.9999995811565503
 50
90
 51
180
  0
ARC
  8
_0-2_
  6
CONTINUOUS
 62
    3
 10
1583.1768963788008
 20
703.33185969172303
 40
4.9999995811565503
 50
90
 51
180
  0
ARC
  8
_0-2_
  6
CONTINUOUS
 62
    3
 10
1619.1766687341642
 20
703.33185969172303
 40
4.9999995811565503
 50
0
 51
90
  0
ARC
  8
_0-2_
  6
CONTINUOUS
 62
    3
 10
1621.1767248205238
 20
705.33185391812708
 40
4.9999995811565503
 50
0
 51
90
  0
ARC
  8
_0-2_
  6
CONTINUOUS
 62
    3
 10
1619.1766687341642
 20
617.3318605165224
 40
4.9999995811565503
 50
270
 51
0
  0
ARC
  8
_0-2_
  6
CONTINUOUS
 62
    3
 10
1621.1767248205238
 20
615.33186629011834
 40
4.9999995811565503
 50
270
 51
0
  0
ARC
  8
_0-2_
  6
CONTINUOUS
 62
    3
 10
1583.1768963788008
 20
617.3318605165224
 40
4.9999995811565503
 50
180
 51
270
  0
ARC
  8
_0-2_
  6
CONTINUOUS
 62
    3
 10
1581.1768402924408
 20
615.33186629011834
 40
4.9999995811565503
 50
180
 51
270
  0
TEXT
  8
_1-0_
 62
    7
 10
717.5675778775601
 20
145.94594594594597
 40
12.5
 41
1
 50
0
  1
図名
  0
TEXT
  8
_1-0_
 62
    7
 10
717.5675778775601
 20
97.297297297297263
 40
12.5
 41
1
 50
0
  1
縮尺
  0
TEXT
  8
_1-0_
 62
    7
 10
1893.6189599939298
 20
138.65179113439609
 40
12.5
 41
1
 50
0
  1
ＮＯ
  0
TEXT
  8
_1-0_
 62
    7
 10
1927.7262301058386
 20
115.24704598091745
 40
12.5
 41
1
 50
0
  1
Ｓ
  0
TEXT
  8
_0-7_
 62
    7
 10
206.71764837728972
 20
101.30050246779987
 40
12.5
 41
1
 50
0
  1
壁際
  0
TEXT
  8
_0-7_
 62
    7
 10
257.32286556346992
 20
101.30050246779987
 40
12.5
 41
1
 50
0
  1
2
  0
TEXT
  8
_0-7_
 62
    7
 10
826.05656804265209
 20
93.963269929628126
 40
12.5
 41
1
 50
0
  1
1/5
  0
TEXT
  8
_0-7_
 62
    7
 10
1983.4342131743563
 20
103.93406636006119
 40
12.5
 41
1
 50
0
  1
28
  0
TEXT
  8
_0-7_
 62
    7
 10
135.88908169720625
 20
125.3822120460304
 40
12.5
 41
1
 50
0
  1
鉄骨
  0
TEXT
  8
_0-7_
 62
    7
 10
750.79378695101354
 20
566.65290626319677
 40
12.5
 41
1
 50
0
  1
120
  0
TEXT
  8
_0-7_
 62
    7
 10
884.54566130767012
 20
482.39086254222974
 40
12.5
 41
1
 50
0
  1
捨谷
  0
TEXT
  8
_0-5_
 62
    7
 10
1417.8767023859796
 20
482.2344187143687
 40
12.5
 41
1
 50
0
  1
瓦桟　
  0
TEXT
  8
_0-5_
 62
    7
 10
1417.8767023859796
 20
422.23440634237755
 40
12.5
 41
1
 50
0
  1
野地板
  0
TEXT
  8
_0-2_
 62
    7
 10
1483.6181434425148
 20
402.23440221838052
 40
12.5
 41
1
 50
0
  1
Ｃ－100ｘ50ｘ20ｘ2.3
  0
TEXT
  8
_0-2_
 62
    7
 10
1483.6181434425148
 20
422.23440634237755
 40
12.5
 41
1
 50
0
  1
硬質木片セメント板　ｔ＝18
  0
TEXT
  8
_0-7_
 62
    7
 10
764.99028592496302
 20
1118.9853565112965
 40
12.5
 41
1
 50
0
  1
外壁
  0
TEXT
  8
_0-7_
 62
    7
 10
566.53357840873105
 20
953.72599008921043
 40
12.5
 41
1
 50
90
  1
150
  0
TEXT
  8
_0-7_
 62
    7
 10
822.81165251860762
 20
970.54274275496198
 40
12.5
 41
1
 50
0
  1
雨押え板　15ｘ90
  0
TEXT
  8
_0-7_
 62
    7
 10
818.6283730171823
 20
1045.5897563212627
 40
12.5
 41
1
 50
0
  1
水切り鉄板
  0
TEXT
  8
_0-7_
 62
    7
 10
567.31777706661751
 20
1057.9936878101248
 40
12.5
 41
1
 50
90
  1
50
  0
TEXT
  8
_0-7_
 62
    7
 10
326.24969585521796
 20
1176.7950934332771
 40
15
 41
1
 50
0
  1
雨押え板上端より50mm以上とする
  0
TEXT
  8
_0-7_
 62
    7
 10
430.46061541583083
 20
1148.2453629777237
 40
12.5
 41
1
 50
0
  1
水切鉄板上端より
  0
TEXT
  8
_0-2_
 62
    7
 10
379.35487386342641
 20
1108.1895570497254
 40
12.5
 41
1
 50
0
  1
水切り鉄板立上がり寸法
  0
TEXT
  8
_0-7_
 62
    7
 10
456.70409846950224
 20
1130.9800019135346
 40
12.5
 41
1
 50
0
  1
50ｍｍ以上
  0
TEXT
  8
_0-7_
 62
    7
 10
567.31777706661751
 20
785.24025581978458
 40
12.5
 41
1
 50
90
  1
130
  0
TEXT
  8
_0-7_
 62
    7
 10
1661.8849058408996
 20
485.85536028887782
 40
12.5
 41
1
 50
0
  1
※　地域により瓦桟木の大きさは、異なります
  0
TEXT
  8
_0-7_
 62
    7
 10
1483.3680024018163
 20
485.85536028887782
 40
12.5
 41
1
 50
0
  1
１５×３０以上　（防腐処理）
  0
TEXT
  8
_0-7_
 62
    7
 10
450.29485547864761
 20
885.78778859731312
 40
12.5
 41
1
 50
90
  1
300 以上
  0
POINT
  8
_0-7_
 62
    7
 10
818.48713642842074
 20
564.15289801520271
  0
POINT
  8
_0-7_
 62
    7
 10
701.85043747360646
 20
564.15289801520271
  0
POINT
  8
_0-7_
 62
    7
 10
453.2497509105786
 20
732.33186876451657
  0
POINT
  8
_0-7_
 62
    7
 10
569.81778531461157
 20
889.243729050095
  0
POINT
  8
_0-7_
 62
    7
 10
569.81778531461157
 20
1039.2436671901394
  0
POINT
  8
_0-7_
 62
    7
 10
569.81778531461157
 20
1039.2436671901394
  0
POINT
  8
_0-7_
 62
    7
 10
569.81778531461157
 20
1089.24370843011
  0
POINT
  8
_0-7_
 62
    7
 10
453.2497509105786
 20
1089.24370843011
  0
POINT
  8
_0-7_
 62
    7
 10
569.81778531461157
 20
732.33186876451657
  0
POINT
  8
_0-7_
 62
    7
 10
569.81778531461157
 20
856.89858101509708
  0
TEXT
  8
_1-0_
 62
    7
 10
81.081079792332105
 20
145.94594594594597
 40
12.5
 41
1
 50
0
  1
Ｓ形
  0
TEXT
  8
_0-5_
 62
    7
 10
1417.8767023859796
 20
462.23441459037161
 40
12.5
 41
1
 50
0
  1
縦桟
  0
TEXT
  8
_0-2_
 62
    7
 10
1417.8767230059652
 20
442.23441046637458
 40
12.5
 41
1
 50
0
  1
ルーフィング
  0
TEXT
  8
_0-5_
 62
    7
 10
1417.8766817659946
 20
402.23440221838052
 40
12.5
 41
1
 50
0
  1
たる木
  0
TEXT
  8
_0-5_
 62
    7
 10
1157.1761247452948
 20
929.86483111301186
 40
12.5
 41
1
 50
0
  1
Ｓ形　桟瓦
  0
TEXT
  8
_0-7_
 62
    7
 10
324.31659595386407
 20
1205.0305753140838
 40
15
 41
1
 50
0
  1
ルーフィング立上げ長さは、300ｍｍ以上かつ
  0
TEXT
  8
_0-2_
 62
    7
 10
299.34219451219678
 20
864.37756955268674
 40
12.5
 41
1
 50
0
  1
ルーフィング立上がり寸法
  0
LINE
  8
_0-1_
  6
CONTINUOUS
 62
    7
 10
711.85043747360646
 20
803.84426632443001
 11
721.85047046558293
 21
803.84426632443001
  0
LINE
  8
_0-1_
  6
CONTINUOUS
 62
    7
 10
711.85043747360646
 20
803.84426632443001
 11
711.85043747360646
 21
788.84427869642104
  0
LINE
  8
_0-1_
  6
CONTINUOUS
 62
    7
 10
855.00018970386418
 20
753.33190093169355
 11
1052.8919199350721
 21
753.33190093169355
  0
LINE
  8
ADD_LINE
  6
DOT
 62
    7
 10
1004.9273186760981
 20
785.60937417520063
 11
1002.9186640559019
 21
785.60937417520063
  0
LINE
  8
_0-1_
  6
CONTINUOUS
 62
    7
 10
1021.8504704655829
 20
778.33192155167865
 11
1003.4398341823271
 21
785.60937417520063
  0
LINE
  8
ADD_LINE
  6
DOT
 62
    7
 10
976.16083093591658
 20
803.84426632443001
 11
977.82059540619741
 21
803.84426632443001
  0
LINE
  8
_0-1_
  6
CONTINUOUS
 62
    7
 10
721.85047046558293
 20
803.84426632443001
 11
721.85047046558293
 21
800.63082720782302
  0
LINE
  8
_0-1_
  6
CONTINUOUS
 62
    7
 10
971.85042922561252
 20
803.84426632443001
 11
981.85046221758876
 21
803.84426632443001
  0
LINE
  8
_0-1_
  6
CONTINUOUS
 62
    7
 10
971.85042922561252
 20
803.84426632443001
 11
971.85042922561252
 21
788.84427869642104
  0
LINE
  8
ADD_LINE
  6
DOT
 62
    7
 10
1074.9364574535475
 20
753.33190093169355
 11
1115.00018145587
 21
753.33190093169355
  0
LINE
  8
ADD_LINE
  6
DOT
 62
    7
 10
1074.9364574535475
 20
753.33190093169355
 11
1049.7165246911954
 21
753.33190093169355
  0
LINE
  8
_0-1_
  6
CONTINUOUS
 62
    7
 10
1115.00018145587
 20
753.33190093169355
 11
1312.8919116870782
 21
753.33190093169355
  0
LINE
  8
ADD_LINE
  6
DOT
 62
    7
 10
1004.9273186760981
 20
785.60937417520063
 11
1002.9186640559019
 21
785.60937417520063
  0
LINE
  8
_0-1_
  6
CONTINUOUS
 62
    7
 10
1021.8504704655829
 20
778.33192155167865
 11
1003.4398341823271
 21
785.60937417520063
  0
LINE
  8
_0-1_
  6
CONTINUOUS
 62
    7
 10
1281.8504622175892
 20
778.33192155167865
 11
1263.4398259343329
 21
785.60937417520063
  0
LINE
  8
ADD_LINE
  6
DOT
 62
    7
 10
1236.1608226879225
 20
803.84426632443001
 11
1237.820649018159
 21
803.84426632443001
  0
LINE
  8
_0-1_
  6
CONTINUOUS
 62
    7
 10
981.85046221758876
 20
803.84426632443001
 11
981.85046221758876
 21
800.63082720782302
  0
LINE
  8
_0-1_
  6
CONTINUOUS
 62
    7
 10
1231.8504209776183
 20
803.84426632443001
 11
1241.8504539695948
 21
803.84426632443001
  0
LINE
  8
_0-1_
  6
CONTINUOUS
 62
    7
 10
1231.8504209776183
 20
803.84426632443001
 11
1231.8504209776183
 21
788.84427869642104
  0
LINE
  8
_0-1_
  6
CONTINUOUS
 62
    7
 10
1375.0001732078761
 20
753.33190093169355
 11
1572.8917797191725
 21
753.33190093169355
  0
LINE
  8
_0-1_
  6
CONTINUOUS
 62
    7
 10
1541.8504539695948
 20
778.33192155167865
 11
1523.4398176863392
 21
785.60937417520063
  0
LINE
  8
_0-1_
  6
CONTINUOUS
 62
    7
 10
1241.8504539695948
 20
803.84426632443001
 11
1241.8504539695948
 21
800.63082720782302
  0
LINE
  8
_0-1_
  6
CONTINUOUS
 62
    7
 10
1541.8504539695948
 20
778.33192155167865
 11
1523.4398176863392
 21
785.60937417520063
  0
LINE
  8
_0-1_
  6
CONTINUOUS
 62
    7
 10
1491.8504127296246
 20
803.84426632443001
 11
1501.8504457216004
 21
803.84426632443001
  0
LINE
  8
_0-1_
  6
CONTINUOUS
 62
    7
 10
1491.8504127296246
 20
803.84426632443001
 11
1491.8504127296246
 21
788.84427869642104
  0
LINE
  8
ADD_LINE
  6
DOT
 62
    7
 10
1594.9364409575594
 20
753.33190093169355
 11
1635.0001649598817
 21
753.33190093169355
  0
LINE
  8
ADD_LINE
  6
DOT
 62
    7
 10
1594.9364409575594
 20
753.33190093169355
 11
1569.7163844752959
 21
753.33190093169355
  0
LINE
  8
_0-1_
  6
CONTINUOUS
 62
    7
 10
1501.8504457216004
 20
803.84426632443001
 11
1501.8504457216004
 21
800.63082720782302
  0
LINE
  8
_0-1_
  6
CONTINUOUS
 62
    7
 10
814.93646570154158
 20
753.33190093169355
 11
1729.8641390413854
 21
753.33190093169355
  0
LINE
  8
ADD_LINE
  6
DOT
 62
    7
 10
883.15847036000855
 20
753.33190093169355
 11
802.11697965054907
 21
753.33190093169355
  0
ARC
  8
_0-1_
  6
CONTINUOUS
 62
    7
 10
814.93646570154158
 20
920.7083006162901
 40
167.37638421960781
 50
231.9831237792969
 51
298.39506530761719
  0
ARC
  8
_0-1_
  6
CONTINUOUS
 62
    7
 10
951.05768976984814
 20
760.95416094805739
 40
57.894481194985879
 50
25.20538330078125
 51
167.5159912109375
  0
ARC
  8
_0-1_
  6
CONTINUOUS
 62
    7
 10
814.19396065376918
 20
923.84422920845645
 40
155.49068966427365
 50
234.57966613769534
 51
295.79264831542969
  0
ARC
  8
_0-1_
  6
CONTINUOUS
 62
    7
 10
731.65514971758876
 20
804.40941887932865
 40
10.507658687797754
 50
201.07586669921878
 51
223.8392028808594
  0
ARC
  8
_0-1_
  6
CONTINUOUS
 62
    7
 10
1211.057681521854
 20
760.95416094805739
 40
72.894480421736432
 50
13.791900634765625
 51
161.69851684570312
  0
ARC
  8
_0-1_
  6
CONTINUOUS
 62
    7
 10
1074.9364574535475
 20
920.7083006162901
 40
167.37638421960781
 50
231.9831237792969
 51
298.39506530761719
  0
ARC
  8
_0-1_
  6
CONTINUOUS
 62
    7
 10
1211.057681521854
 20
760.95416094805739
 40
57.894481194985879
 50
25.20538330078125
 51
167.5159912109375
  0
ARC
  8
_0-1_
  6
CONTINUOUS
 62
    7
 10
1074.1940142657309
 20
923.84422920845645
 40
155.49068966427365
 50
234.57966613769534
 51
295.79264831542969
  0
ARC
  8
_0-1_
  6
CONTINUOUS
 62
    7
 10
991.65514146959481
 20
804.40941887932865
 40
10.507658687797754
 50
201.07586669921878
 51
223.8392028808594
  0
ARC
  8
_0-1_
  6
CONTINUOUS
 62
    7
 10
1471.05767327386
 20
760.95416094805739
 40
72.894480421736432
 50
13.791900634765625
 51
161.69851684570312
  0
ARC
  8
_0-1_
  6
CONTINUOUS
 62
    7
 10
1334.9364492055538
 20
920.7083006162901
 40
167.37638421960781
 50
231.9831237792969
 51
298.39506530761719
  0
ARC
  8
_0-1_
  6
CONTINUOUS
 62
    7
 10
1471.05767327386
 20
760.95416094805739
 40
57.894481194985879
 50
25.20538330078125
 51
167.5159912109375
  0
ARC
  8
_0-1_
  6
CONTINUOUS
 62
    7
 10
1334.1940060177365
 20
923.84422920845645
 40
155.49068966427365
 50
234.57966613769534
 51
295.79264831542969
  0
ARC
  8
_0-1_
  6
CONTINUOUS
 62
    7
 10
1251.6551332216006
 20
804.40941887932865
 40
10.507658687797754
 50
201.07586669921878
 51
223.8392028808594
  0
ARC
  8
_0-1_
  6
CONTINUOUS
 62
    7
 10
1594.9364409575594
 20
920.7083006162901
 40
167.37638421960781
 50
231.9831237792969
 51
298.39506530761719
  0
ARC
  8
_0-1_
  6
CONTINUOUS
 62
    7
 10
1594.1938740498313
 20
923.84422920845645
 40
155.49068966427365
 50
234.57966613769534
 51
295.79264831542969
  0
ARC
  8
_0-1_
  6
CONTINUOUS
 62
    7
 10
1511.6551249736067
 20
804.40941887932865
 40
10.507658687797754
 50
201.07586669921878
 51
223.8392028808594
  0
ARC
  8
_0-1_
  6
CONTINUOUS
 62
    7
 10
1731.0576650258663
 20
760.95416094805739
 40
57.894481194985879
 50
91.181274414062514
 51
167.5159912109375
  0
ARC
  8
_0-1_
  6
CONTINUOUS
 62
    7
 10
1731.0576650258663
 20
760.95416094805739
 40
72.894480421736432
 50
91.181274414062514
 51
161.69844055175781
  0
ARC
  8
_0-1_
  6
CONTINUOUS
 62
    7
 10
951.05768976984814
 20
760.95416094805739
 40
72.894480421736432
 50
13.791900634765625
 51
161.69851684570312
  0
LINE
  8
_0-1_
  6
CONTINUOUS
 62
    7
 10
883.15847036000855
 20
753.33190093169355
 11
822.43281184016053
 21
753.33190093169355
  0
LINE
  8
_0-2_
  6
CONTINUOUS
 62
    7
 10
675.61488795924834
 20
710.33187041411543
 11
1729.8641316619182
 21
710.33187041411543
  0
LINE
  8
_0-2_
  6
CONTINUOUS
 62
    7
 10
1723.2549306508658
 20
710.33187041411543
 11
1729.8641316619182
 21
716.94102599829591
  0
LINE
  8
_0-2_
  6
CONTINUOUS
 62
    7
 10
1718.9359922666808
 20
728.33188031170823
 11
1729.8641316619182
 21
717.40366580330488
  0
LINE
  8
_0-2_
  6
CONTINUOUS
 62
    7
 10
1711.9413633604308
 20
710.33187041411543
 11
1729.8641316619182
 21
728.25463871560271
  0
LINE
  8
_0-1_
  6
CONTINUOUS
 62
    7
 10
724.52093588339324
 20
728.33188031170823
 11
1729.8641316619182
 21
728.33188031170823
  0
LINE
  8
_0-2_
  6
DASHED1
 62
    3
 10
784.60000527871625
 20
730.65534024625219
 11
1729.8641316619182
 21
730.65534024625219
  0
LINE
  8
_0-1_
  6
CONTINUOUS
 62
    7
 10
818.38704702016469
 20
732.33186876451657
 11
1729.8641316619182
 21
732.33186876451657
  0
LINE
  8
_0-1_
  6
CONTINUOUS
 62
    7
 10
822.43281184016053
 20
735.33189103410052
 11
1729.8641316619182
 21
735.33189103410052
  0
ARC
  8
_0-3_
  6
CONTINUOUS
 62
    3
 10
1015.4783424314408
 20
821.52649651588604
 40
262.50338179013806
 50
175.30539978568294
 51
189.21054343635313
  0
LINE
  8
ADD_LINE
  6
DOT
 62
    4
 10
698.48698796452709
 20
794.52398450386863
 11
695.34298487402202
 21
794.52398450386863
  0
LINE
  8
ADD_LINE
  6
DOT
 62
    4
 10
711.85043747360646
 20
794.52398450386863
 11
701.85043747360646
 21
794.52398450386863
  0
LINE
  8
ADD_LINE
  6
DOT
 62
    4
 10
701.85043747360646
 20
856.89858101509708
 11
701.85043747360646
 21
862.03566980580092
  0
ARC
  8
_0-3_
  6
CONTINUOUS
 62
    1
 10
1015.4783424314408
 20
821.52649651588604
 40
262.50338179013806
 50
175.30539978568294
 51
189.21054343635313
  0
SOLID
  8
ADD_LINE
  6
DOT
 62
    8
 10
753.8556320272553
 20
843.01097584461991
 11
721.85047046558293
 21
803.84426632443001
 12
721.85047046558293
 22
800.63082720782302
 13
721.85047046558293
 23
800.63082720782302
  0
SOLID
  8
ADD_LINE
  6
DOT
 62
    8
 10
753.8556320272553
 20
843.01097584461991
 11
721.85047046558293
 21
800.63082720782302
 12
722.72543219097338
 22
798.81364207197362
 13
722.72543219097338
 23
798.81364207197362
  0
SOLID
  8
ADD_LINE
  6
DOT
 62
    8
 10
753.8556320272553
 20
843.01097584461991
 11
722.72543219097338
 21
798.81364207197362
 12
723.46844704307409
 22
797.7865333058345
 13
723.46844704307409
 23
797.7865333058345
  0
SOLID
  8
ADD_LINE
  6
DOT
 62
    8
 10
753.8556320272553
 20
843.01097584461991
 11
723.46844704307409
 21
797.7865333058345
 12
724.07611755453206
 22
797.13142722155635
 13
724.07611755453206
 23
797.13142722155635
  0
SOLID
  8
ADD_LINE
  6
DOT
 62
    8
 10
753.8556320272553
 20
843.01097584461991
 11
724.07611755453206
 21
797.13142722155635
 12
725.65378484337032
 22
796.01640968759466
 13
725.65378484337032
 23
796.01640968759466
  0
SOLID
  8
ADD_LINE
  6
DOT
 62
    8
 10
753.8556320272553
 20
843.01097584461991
 11
725.65378484337032
 21
796.01640968759466
 12
727.86097602166933
 22
794.48667322738731
 13
727.86097602166933
 23
794.48667322738731
  0
SOLID
  8
ADD_LINE
  6
DOT
 62
    8
 10
753.8556320272553
 20
843.01097584461991
 11
727.86097602166933
 21
794.48667322738731
 12
730.57079489403645
 22
792.7602563651534
 13
730.57079489403645
 23
792.7602563651534
  0
SOLID
  8
ADD_LINE
  6
DOT
 62
    8
 10
753.8556320272553
 20
843.01097584461991
 11
730.57079489403645
 21
792.7602563651534
 12
732.73427931632966
 22
791.40534692896972
 13
732.73427931632966
 23
791.40534692896972
  0
SOLID
  8
ADD_LINE
  6
DOT
 62
    8
 10
753.8556320272553
 20
843.01097584461991
 11
732.73427931632966
 21
791.40534692896972
 12
737.054874641482
 22
788.83536069310594
 13
737.054874641482
 23
788.83536069310594
  0
SOLID
  8
ADD_LINE
  6
DOT
 62
    8
 10
753.8556320272553
 20
843.01097584461991
 11
737.054874641482
 21
788.83536069310594
 12
739.98457168894242
 22
787.21097421134573
 13
739.98457168894242
 23
787.21097421134573
  0
SOLID
  8
ADD_LINE
  6
DOT
 62
    8
 10
753.8556320272553
 20
843.01097584461991
 11
739.98457168894242
 21
787.21097421134573
 12
744.85773113422306
 22
784.65836688286549
 13
744.85773113422306
 23
784.65836688286549
  0
SOLID
  8
ADD_LINE
  6
DOT
 62
    8
 10
744.85773113422306
 20
784.65836688286549
 11
748.97671114154366
 21
782.68589758358519
 12
753.47278086784422
 22
780.6844213828449
 13
753.47278086784422
 23
780.6844213828449
  0
SOLID
  8
ADD_LINE
  6
DOT
 62
    8
 10
744.85773113422306
 20
784.65836688286549
 11
753.47278086784422
 21
780.6844213828449
 12
756.3594620522108
 22
779.5094608961133
 13
756.3594620522108
 23
779.5094608961133
  0
SOLID
  8
ADD_LINE
  6
DOT
 62
    8
 10
744.85773113422306
 20
784.65836688286549
 11
756.3594620522108
 21
779.5094608961133
 12
751.23572032939774
 22
811.10755435949022
 13
751.23572032939774
 23
811.10755435949022
  0
SOLID
  8
ADD_LINE
  6
DOT
 62
    8
 10
744.85773113422306
 20
784.65836688286549
 11
751.23572032939774
 21
811.10755435949022
 12
753.8556320272553
 22
843.01097584461991
 13
753.8556320272553
 23
843.01097584461991
  0
SOLID
  8
ADD_LINE
  6
DOT
 62
    8
 10
701.85043747360646
 20
862.03566980580092
 11
701.85043747360646
 21
794.52398450386863
 12
711.85043747360646
 22
794.52398450386863
 13
711.85043747360646
 23
794.52398450386863
  0
SOLID
  8
ADD_LINE
  6
DOT
 62
    8
 10
701.85043747360646
 20
862.03566980580092
 11
711.85043747360646
 21
794.52398450386863
 12
711.85043747360646
 22
803.84426632443001
 13
711.85043747360646
 23
803.84426632443001
  0
SOLID
  8
ADD_LINE
  6
DOT
 62
    8
 10
701.85043747360646
 20
862.03566980580092
 11
711.85043747360646
 21
803.84426632443001
 12
721.85047046558293
 22
803.84426632443001
 13
721.85047046558293
 23
803.84426632443001
  0
SOLID
  8
ADD_LINE
  6
DOT
 62
    8
 10
701.85043747360646
 20
862.03566980580092
 11
721.85047046558293
 21
803.84426632443001
 12
753.8556320272553
 22
843.01097584461991
 13
753.8556320272553
 23
843.01097584461991
  0
TEXT
  8
_0-2_
 62
    7
 10
857.22761411924625
 20
925.01690838788011
 40
12.5
 41
1
 50
0
  1
葺き土
  0
ENDSEC
  0
EOF
